  0
SECTION
  2
HEADER
  9
$ACADVER
  1
AC1012
  9
$DWGCODEPAGE
  3
ansi_932
  9
$INSBASE
 10
0.0
 20
0.0
 30
0.0
  9
$EXTMIN
 10
0.0
 20
0.0
 30
0.0
  9
$EXTMAX
 10
1490.925996
 20
1397.703623
 30
0.0
  9
$LIMMIN
 10
0.0
 20
0.0
  9
$LIMMAX
 10
1490.925996
 20
1397.703623
  9
$ORTHOMODE
 70
     0
  9
$REGENMODE
 70
     1
  9
$FILLMODE
 70
     1
  9
$QTEXTMODE
 70
     0
  9
$MIRRTEXT
 70
     1
  9
$DRAGMODE
 70
     2
  9
$LTSCALE
 40
1.0
  9
$OSMODE
 70
    37
  9
$ATTMODE
 70
     1
  9
$TEXTSIZE
 40
0.2
  9
$TRACEWID
 40
1.0
  9
$TEXTSTYLE
  7
ED_VECTOR
  9
$CLAYER
  8
0
  9
$CELTYPE
  6
BYLAYER
  9
$CECOLOR
 62
   256
  9
$CELTSCALE
 40
1.0
  9
$DELOBJ
 70
     1
  9
$DISPSILH
 70
     0
  9
$DIMSCALE
 40
1.0
  9
$DIMASZ
 40
3.0
  9
$DIMEXO
 40
1.0
  9
$DIMDLI
 40
10.0
  9
$DIMRND
 40
0.0
  9
$DIMDLE
 40
5.0
  9
$DIMEXE
 40
1.0
  9
$DIMTP
 40
0.0
  9
$DIMTM
 40
0.0
  9
$DIMTXT
 40
4.0
  9
$DIMCEN
 40
2.5
  9
$DIMTSZ
 40
0.0
  9
$DIMTOL
 70
     0
  9
$DIMLIM
 70
     0
  9
$DIMTIH
 70
     0
  9
$DIMTOH
 70
     0
  9
$DIMSE1
 70
     0
  9
$DIMSE2
 70
     0
  9
$DIMTAD
 70
     1
  9
$DIMZIN
 70
     8
  9
$DIMBLK
  1

  9
$DIMASO
 70
     1
  9
$DIMSHO
 70
     1
  9
$DIMPOST
  1

  9
$DIMAPOST
  1

  9
$DIMALT
 70
     0
  9
$DIMALTD
 70
     3
  9
$DIMALTF
 40
0.03937
  9
$DIMLFAC
 40
1.0
  9
$DIMTOFL
 70
     1
  9
$DIMTVP
 40
0.0
  9
$DIMTIX
 70
     0
  9
$DIMSOXD
 70
     0
  9
$DIMSAH
 70
     1
  9
$DIMBLK1
  1
EDTIP_ARROW_S
  9
$DIMBLK2
  1
EDTIP_ARROW_E
  9
$DIMSTYLE
  2
EDDIMINFO
  9
$DIMCLRD
 70
     7
  9
$DIMCLRE
 70
     7
  9
$DIMCLRT
 70
     7
  9
$DIMTFAC
 40
1.0
  9
$DIMGAP
 40
1.0
  9
$DIMJUST
 70
     0
  9
$DIMSD1
 70
     0
  9
$DIMSD2
 70
     0
  9
$DIMTOLJ
 70
     0
  9
$DIMTZIN
 70
     8
  9
$DIMALTZ
 70
     0
  9
$DIMALTTZ
 70
     0
  9
$DIMFIT
 70
     3
  9
$DIMUPT
 70
     0
  9
$DIMUNIT
 70
     2
  9
$DIMDEC
 70
     2
  9
$DIMTDEC
 70
     2
  9
$DIMALTU
 70
     2
  9
$DIMALTTD
 70
     3
  9
$DIMTXSTY
  7
ED_VECTOR
  9
$DIMAUNIT
 70
     0
  9
$LUNITS
 70
     2
  9
$LUPREC
 70
     4
  9
$SKETCHINC
 40
1.0
  9
$FILLETRAD
 40
10.0
  9
$AUNITS
 70
     0
  9
$AUPREC
 70
     0
  9
$MENU
  1
.
  9
$ELEVATION
 40
0.0
  9
$PELEVATION
 40
0.0
  9
$THICKNESS
 40
0.0
  9
$LIMCHECK
 70
     0
  9
$CHAMFERA
 40
10.0
  9
$CHAMFERB
 40
10.0
  9
$CHAMFERC
 40
20.0
  9
$CHAMFERD
 40
0.0
  9
$SKPOLY
 70
     0
  9
$TDCREATE
 40
2458998.500414445
  9
$TDUPDATE
 40
2458998.500414792
  9
$TDINDWG
 40
0.0000000116
  9
$TDUSRTIMER
 40
0.0000000116
  9
$USRTIMER
 70
     1
  9
$ANGBASE
 50
0.0
  9
$ANGDIR
 70
     0
  9
$PDMODE
 70
     0
  9
$PDSIZE
 40
0.0
  9
$PLINEWID
 40
0.0
  9
$COORDS
 70
     1
  9
$SPLFRAME
 70
     0
  9
$SPLINETYPE
 70
     6
  9
$SPLINESEGS
 70
     8
  9
$ATTDIA
 70
     0
  9
$ATTREQ
 70
     1
  9
$HANDLING
 70
     1
  9
$HANDSEED
  5
2C9
  9
$SURFTAB1
 70
     6
  9
$SURFTAB2
 70
     6
  9
$SURFTYPE
 70
     6
  9
$SURFU
 70
     6
  9
$SURFV
 70
     6
  9
$UCSNAME
  2

  9
$UCSORG
 10
0.0
 20
0.0
 30
0.0
  9
$UCSXDIR
 10
1.0
 20
0.0
 30
0.0
  9
$UCSYDIR
 10
0.0
 20
1.0
 30
0.0
  9
$PUCSNAME
  2

  9
$PUCSORG
 10
0.0
 20
0.0
 30
0.0
  9
$PUCSXDIR
 10
1.0
 20
0.0
 30
0.0
  9
$PUCSYDIR
 10
0.0
 20
1.0
 30
0.0
  9
$USERI1
 70
     0
  9
$USERI2
 70
     0
  9
$USERI3
 70
     0
  9
$USERI4
 70
     0
  9
$USERI5
 70
     0
  9
$USERR1
 40
0.0
  9
$USERR2
 40
0.0
  9
$USERR3
 40
0.0
  9
$USERR4
 40
0.0
  9
$USERR5
 40
0.0
  9
$WORLDVIEW
 70
     1
  9
$SHADEDGE
 70
     3
  9
$SHADEDIF
 70
    70
  9
$TILEMODE
 70
     1
  9
$MAXACTVP
 70
    64
  9
$PINSBASE
 10
0.0
 20
0.0
 30
0.0
  9
$PLIMCHECK
 70
     0
  9
$PEXTMIN
 10
1.000000E+20
 20
1.000000E+20
 30
1.000000E+20
  9
$PEXTMAX
 10
-1.000000E+20
 20
-1.000000E+20
 30
-1.000000E+20
  9
$PLIMMIN
 10
0.0
 20
0.0
  9
$PLIMMAX
 10
420.0
 20
297.0
  9
$UNITMODE
 70
     0
  9
$VISRETAIN
 70
     1
  9
$PLINEGEN
 70
     0
  9
$PSLTSCALE
 70
     1
  9
$TREEDEPTH
 70
  3020
  9
$PICKSTYLE
 70
     1
  9
$CMLSTYLE
  2
STANDARD
  9
$CMLJUST
 70
     0
  9
$CMLSCALE
 40
20.0
  9
$SAVEIMAGES
 70
     1
  0
ENDSEC
  0
SECTION
  2
CLASSES
  0
CLASS
  1
ACDBDICTIONARYWDFLT
  2
AcDbDictionaryWithDefault
  3
ObjectDBX Classes
 90
    32768
280
     0
281
     0
  0
CLASS
  1
VISUALSTYLE
  2
AcDbVisualStyle
  3
ObjectDBX Classes
 90
     4095
280
     0
281
     0
  0
CLASS
  1
MATERIAL
  2
AcDbMaterial
  3
ObjectDBX Classes
 90
     1153
280
     0
281
     0
  0
CLASS
  1
DICTIONARYVAR
  2
AcDbDictionaryVar
  3
ObjectDBX Classes
 90
        0
280
     0
281
     0
  0
CLASS
  1
XRECORD
  2
AcDbXrecord
  3
AutoCAD 2000
 90
    32768
280
     0
281
     0
  0
CLASS
  1
LWPOLYLINE
  2
AcDbPolyline
  3
AutoCAD 2000
 90
    32768
280
     0
281
     1
  0
CLASS
  1
HATCH
  2
AcDbHatch
  3
AutoCAD 2000
 90
    32768
280
     0
281
     1
  0
CLASS
  1
ACDBPLACEHOLDER
  2
AcDbPlaceHolder
  3
ObjectDBX Classes
 90
        0
280
     0
281
     0
  0
CLASS
  1
LAYOUT
  2
AcDbLayout
  3
ObjectDBX Classes
 90
        0
280
     0
281
     0
  0
ENDSEC
  0
SECTION
  2
TABLES
  0
TABLE
  2
VPORT
  5
8
330
0
100
AcDbSymbolTable
 70
     1
  0
VPORT
  5
29
330
8
100
AcDbSymbolTableRecord
100
AcDbViewportTableRecord
  2
*ACTIVE
 70
     0
 10
0.0
 20
0.0
 11
1.0
 21
1.0
 12
745.462998
 22
698.851812
 13
0.0
 23
0.0
 14
10.0
 24
10.0
 15
10.0
 25
10.0
 16
0.0
 26
0.0
 36
1.0
 17
0.0
 27
0.0
 37
0.0
 40
1397.703623
 41
1.066697
 42
50.0
 43
0.0
 44
0.0
 50
0.0
 51
0.0
 71
     0
 72
   100
 73
     1
 74
     3
 75
     0
 76
     0
 77
     0
 78
     0
  0
ENDTAB
  0
TABLE
  2
LTYPE
  5
5
330
0
100
AcDbSymbolTable
 70
     5
  0
LTYPE
  5
14
330
5
100
AcDbSymbolTableRecord
100
AcDbLinetypeTableRecord
  2
BYBLOCK
 70
     0
  3

 72
    65
 73
     0
 40
0.0
  0
LTYPE
  5
15
330
5
100
AcDbSymbolTableRecord
100
AcDbLinetypeTableRecord
  2
BYLAYER
 70
     0
  3

 72
    65
 73
     0
 40
0.0
  0
LTYPE
  5
16
330
5
100
AcDbSymbolTableRecord
100
AcDbLinetypeTableRecord
  2
CONTINUOUS
 70
     0
  3
--------------------
 72
    65
 73
     0
 40
0.0
  0
LTYPE
  5
3F
330
5
100
AcDbSymbolTableRecord
100
AcDbLinetypeTableRecord
  2
DASHED
 70
     0
  3
- - - - - - - - - - -
 72
    65
 73
     2
 40
19.1
 49
12.7
 74
     0
 49
-6.4
 74
     0
  0
LTYPE
  5
40
330
5
100
AcDbSymbolTableRecord
100
AcDbLinetypeTableRecord
  2
CENTER
 70
     0
  3
- ･ - ･ - ･ - ･ - ･ - ･ - ･ - ･ - ･ - ･ -
 72
    65
 73
     4
 40
51.0
 49
31.8
 74
     0
 49
-6.4
 74
     0
 49
6.4
 74
     0
 49
-6.4
 74
     0
  0
LTYPE
  5
41
330
5
100
AcDbSymbolTableRecord
100
AcDbLinetypeTableRecord
  2
PHANTOM
 70
     0
  3
- ･ ･ - ･ ･ - ･ ･ - ･ ･ - ･ ･ - ･ ･ - ･ ･ - 
 72
    65
 73
     6
 40
63.8
 49
31.8
 74
     0
 49
-6.4
 74
     0
 49
6.4
 74
     0
 49
-6.4
 74
     0
 49
6.4
 74
     0
 49
-6.4
 74
     0
  0
LTYPE
  5
42
330
5
100
AcDbSymbolTableRecord
100
AcDbLinetypeTableRecord
  2
DOT
 70
     0
  3
・・・・・・・・・・・・・・・
 72
    65
 73
     2
 40
6.5
 49
0.1
 74
     0
 49
-6.4
 74
     0
  0
ENDTAB
  0
TABLE
  2
LAYER
  5
2
330
0
100
AcDbSymbolTable
 70
    16
  0
LAYER
  5
10
330
2
100
AcDbSymbolTableRecord
100
AcDbLayerTableRecord
  2
0
 70
     0
 62
     3
  6
CONTINUOUS
  0
LAYER
  5
43
330
2
100
AcDbSymbolTableRecord
100
AcDbLayerTableRecord
  2
CSLAYER2
 70
     0
 62
     3
  6
CONTINUOUS
  0
ENDTAB
  0
TABLE
  2
STYLE
  5
3
330
0
100
AcDbSymbolTable
 70
     2
  0
STYLE
  5
11
330
3
100
AcDbSymbolTableRecord
100
AcDbTextStyleTableRecord
  2
STANDARD
 70
     0
 40
0.0
 41
1.0
 50
0.0
 71
     0
 42
2.5
  3
txt
  4

  0
STYLE
  5
52
330
3
100
AcDbSymbolTableRecord
100
AcDbTextStyleTableRecord
  2
ED_VECTOR
 70
     0
 40
0.0
 41
1.0
 50
0.0
 71
     0
 42
0.2
  3
MONOTXT.SHX
  4
BIGFONT.SHX
  0
ENDTAB
  0
TABLE
  2
VIEW
  5
6
330
0
100
AcDbSymbolTable
 70
     0
  0
ENDTAB
  0
TABLE
  2
UCS
  5
7
330
0
100
AcDbSymbolTable
 70
     0
  0
ENDTAB
  0
TABLE
  2
APPID
  5
9
330
0
100
AcDbSymbolTable
 70
     1
  0
APPID
  5
12
330
9
100
AcDbSymbolTableRecord
100
AcDbRegAppTableRecord
  2
ACAD
 70
     0
  0
ENDTAB
  0
TABLE
  2
DIMSTYLE
  5
A
330
0
100
AcDbSymbolTable
 70
     2
  0
DIMSTYLE
105
27
330
A
100
AcDbSymbolTableRecord
100
AcDbDimStyleTableRecord
  2
ISO-25
 70
     0
  3

  4

  5

  6

  7

 40
1.0
 41
2.5
 42
0.625
 43
3.75
 44
1.25
 45
0.0
 46
0.0
 47
0.0
 48
0.0
140
2.5
141
2.5
142
0.0
143
0.03937
144
1.0
145
0.0
146
1.0
147
0.625
 71
     0
 72
     0
 73
     0
 74
     0
 75
     0
 76
     0
 77
     1
 78
     8
170
     0
171
     3
172
     1
173
     0
174
     0
175
     0
176
     0
177
     0
178
     0
270
     2
271
     2
272
     2
273
     2
274
     3
340
11
275
     0
280
     0
281
     0
282
     0
283
     0
284
     8
285
     0
286
     0
287
     3
288
     0
  0
DIMSTYLE
105
8D
330
A
100
AcDbSymbolTableRecord
100
AcDbDimStyleTableRecord
  2
EDDIMINFO
 70
     0
  3

  4

  5

  6
EDTIP_ARROW_S
  7
EDTIP_ARROW_E
 40
1.0
 41
3.0
 42
1.0
 43
10.0
 44
1.0
 45
0.0
 46
5.0
 47
0.0
 48
0.0
140
4.0
141
2.5
142
0.0
143
0.03937
144
1.0
145
0.0
146
1.0
147
1.0
 71
     0
 72
     0
 73
     0
 74
     0
 75
     0
 76
     0
 77
     1
 78
     8
170
     0
171
     3
172
     1
173
     1
174
     0
175
     0
176
     7
177
     7
178
     7
179
     2
270
     2
271
     2
272
     2
273
     2
274
     3
340
52
275
     0
280
     0
281
     0
282
     0
283
     0
284
     8
285
     0
286
     0
287
     3
288
     0
  0
ENDTAB
  0
TABLE
  2
BLOCK_RECORD
  5
1
330
0
100
AcDbSymbolTable
 70
    13
  0
BLOCK_RECORD
  5
1F
330
1
100
AcDbSymbolTableRecord
100
AcDbBlockTableRecord
  2
*MODEL_SPACE
  0
BLOCK_RECORD
  5
1B
330
1
100
AcDbSymbolTableRecord
100
AcDbBlockTableRecord
  2
*PAPER_SPACE
  0
BLOCK_RECORD
  5
53
330
1
100
AcDbSymbolTableRecord
100
AcDbBlockTableRecord
  2
EDTIP_ARROW_S
  0
BLOCK_RECORD
  5
59
330
1
100
AcDbSymbolTableRecord
100
AcDbBlockTableRecord
  2
EDTIP_ARROW_E
  0
BLOCK_RECORD
  5
5F
330
1
100
AcDbSymbolTableRecord
100
AcDbBlockTableRecord
  2
EDTIP_BLACKDOT_S
  0
BLOCK_RECORD
  5
65
330
1
100
AcDbSymbolTableRecord
100
AcDbBlockTableRecord
  2
EDTIP_BLACKDOT_E
  0
BLOCK_RECORD
  5
6B
330
1
100
AcDbSymbolTableRecord
100
AcDbBlockTableRecord
  2
EDTIP_ARCHITECT_S
  0
BLOCK_RECORD
  5
71
330
1
100
AcDbSymbolTableRecord
100
AcDbBlockTableRecord
  2
EDTIP_ARCHITECT_E
  0
BLOCK_RECORD
  5
77
330
1
100
AcDbSymbolTableRecord
100
AcDbBlockTableRecord
  2
EDTIP_CIVIL_S
  0
BLOCK_RECORD
  5
7D
330
1
100
AcDbSymbolTableRecord
100
AcDbBlockTableRecord
  2
EDTIP_CIVIL_E
  0
BLOCK_RECORD
  5
83
330
1
100
AcDbSymbolTableRecord
100
AcDbBlockTableRecord
  2
EDTIP_WHITEDOT_S
  0
BLOCK_RECORD
  5
88
330
1
100
AcDbSymbolTableRecord
100
AcDbBlockTableRecord
  2
EDTIP_WHITEDOT_E
  0
BLOCK_RECORD
  5
94
330
1
100
AcDbSymbolTableRecord
100
AcDbBlockTableRecord
  2
BLKF014
  0
BLOCK_RECORD
  5
19D
330
1
100
AcDbSymbolTableRecord
100
AcDbBlockTableRecord
  2
BLKF015
  0
ENDTAB
  0
ENDSEC
  0
SECTION
  2
BLOCKS
  0
BLOCK
  5
20
330
1F
100
AcDbEntity
  8
0
100
AcDbBlockBegin
  2
*MODEL_SPACE
 70
     0
 10
0.0
 20
0.0
 30
0.0
  3
*MODEL_SPACE
  1

  0
ENDBLK
  5
21
330
1F
100
AcDbEntity
  8
0
100
AcDbBlockEnd
  0
BLOCK
  5
1C
330
1B
100
AcDbEntity
 67
     1
  8
0
100
AcDbBlockBegin
  2
*PAPER_SPACE
 70
     0
 10
0.0
 20
0.0
 30
0.0
  3
*PAPER_SPACE
  1

  0
ENDBLK
  5
1D
330
1B
100
AcDbEntity
 67
     1
  8
0
100
AcDbBlockEnd
  0
BLOCK
  5
54
330
53
100
AcDbEntity
  8
0
100
AcDbBlockBegin
  2
EDTIP_ARROW_S
 70
     0
 10
0.0
 20
0.0
 30
0.0
  3
EDTIP_ARROW_S
  1

  0
LINE
  5
56
330
53
100
AcDbEntity
  8
0
  6
CONTINUOUS
 62
     0
100
AcDbLine
 10
0.0
 20
0.0
 30
0.0
 11
-1.0
 21
0.0
 31
0.0
  0
LINE
  5
57
330
53
100
AcDbEntity
  8
0
  6
CONTINUOUS
 62
     0
100
AcDbLine
 10
0.0
 20
0.0
 30
0.0
 11
-0.965926
 21
0.258819
 31
0.0
  0
LINE
  5
58
330
53
100
AcDbEntity
  8
0
  6
CONTINUOUS
 62
     0
100
AcDbLine
 10
0.0
 20
0.0
 30
0.0
 11
-0.965926
 21
-0.258819
 31
0.0
  0
ENDBLK
  5
55
330
53
100
AcDbEntity
  8
0
100
AcDbBlockEnd
  0
BLOCK
  5
5A
330
59
100
AcDbEntity
  8
0
100
AcDbBlockBegin
  2
EDTIP_ARROW_E
 70
     0
 10
0.0
 20
0.0
 30
0.0
  3
EDTIP_ARROW_E
  1

  0
LINE
  5
5C
330
59
100
AcDbEntity
  8
0
  6
CONTINUOUS
 62
     0
100
AcDbLine
 10
0.0
 20
0.0
 30
0.0
 11
-1.0
 21
0.0
 31
0.0
  0
LINE
  5
5D
330
59
100
AcDbEntity
  8
0
  6
CONTINUOUS
 62
     0
100
AcDbLine
 10
0.0
 20
0.0
 30
0.0
 11
-0.965926
 21
-0.258819
 31
0.0
  0
LINE
  5
5E
330
59
100
AcDbEntity
  8
0
  6
CONTINUOUS
 62
     0
100
AcDbLine
 10
0.0
 20
0.0
 30
0.0
 11
-0.965926
 21
0.258819
 31
0.0
  0
ENDBLK
  5
5B
330
59
100
AcDbEntity
  8
0
100
AcDbBlockEnd
  0
BLOCK
  5
60
330
5F
100
AcDbEntity
  8
0
100
AcDbBlockBegin
  2
EDTIP_BLACKDOT_S
 70
     0
 10
0.0
 20
0.0
 30
0.0
  3
EDTIP_BLACKDOT_S
  1

  0
LINE
  5
62
330
5F
100
AcDbEntity
  8
0
  6
CONTINUOUS
 62
     0
100
AcDbLine
 10
0.0
 20
0.0
 30
0.0
 11
-1.0
 21
0.0
 31
0.0
  0
CIRCLE
  5
63
330
5F
100
AcDbEntity
  8
0
  6
CONTINUOUS
 62
     0
100
AcDbCircle
 10
0.0
 20
0.0
 30
0.0
 40
0.5
  0
CIRCLE
  5
64
330
5F
100
AcDbEntity
  8
0
  6
CONTINUOUS
 62
     0
100
AcDbCircle
 10
0.0
 20
0.0
 30
0.0
 40
0.25
  0
ENDBLK
  5
61
330
5F
100
AcDbEntity
  8
0
100
AcDbBlockEnd
  0
BLOCK
  5
66
330
65
100
AcDbEntity
  8
0
100
AcDbBlockBegin
  2
EDTIP_BLACKDOT_E
 70
     0
 10
0.0
 20
0.0
 30
0.0
  3
EDTIP_BLACKDOT_E
  1

  0
LINE
  5
68
330
65
100
AcDbEntity
  8
0
  6
CONTINUOUS
 62
     0
100
AcDbLine
 10
0.0
 20
0.0
 30
0.0
 11
-1.0
 21
0.0
 31
0.0
  0
CIRCLE
  5
69
330
65
100
AcDbEntity
  8
0
  6
CONTINUOUS
 62
     0
100
AcDbCircle
 10
0.0
 20
0.0
 30
0.0
 40
0.5
  0
CIRCLE
  5
6A
330
65
100
AcDbEntity
  8
0
  6
CONTINUOUS
 62
     0
100
AcDbCircle
 10
0.0
 20
0.0
 30
0.0
 40
0.25
  0
ENDBLK
  5
67
330
65
100
AcDbEntity
  8
0
100
AcDbBlockEnd
  0
BLOCK
  5
6C
330
6B
100
AcDbEntity
  8
0
100
AcDbBlockBegin
  2
EDTIP_ARCHITECT_S
 70
     0
 10
0.0
 20
0.0
 30
0.0
  3
EDTIP_ARCHITECT_S
  1

  0
LINE
  5
6E
330
6B
100
AcDbEntity
  8
0
  6
CONTINUOUS
 62
     0
100
AcDbLine
 10
0.0
 20
0.0
 30
0.0
 11
-1.0
 21
0.0
 31
0.0
  0
LINE
  5
6F
330
6B
100
AcDbEntity
  8
0
  6
CONTINUOUS
 62
     0
100
AcDbLine
 10
0.0
 20
0.0
 30
0.0
 11
-0.707107
 21
-0.707107
 31
0.0
  0
LINE
  5
70
330
6B
100
AcDbEntity
  8
0
  6
CONTINUOUS
 62
     0
100
AcDbLine
 10
0.0
 20
0.0
 30
0.0
 11
0.707107
 21
0.707107
 31
0.0
  0
ENDBLK
  5
6D
330
6B
100
AcDbEntity
  8
0
100
AcDbBlockEnd
  0
BLOCK
  5
72
330
71
100
AcDbEntity
  8
0
100
AcDbBlockBegin
  2
EDTIP_ARCHITECT_E
 70
     0
 10
0.0
 20
0.0
 30
0.0
  3
EDTIP_ARCHITECT_E
  1

  0
LINE
  5
74
330
71
100
AcDbEntity
  8
0
  6
CONTINUOUS
 62
     0
100
AcDbLine
 10
0.0
 20
0.0
 30
0.0
 11
-1.0
 21
0.0
 31
0.0
  0
LINE
  5
75
330
71
100
AcDbEntity
  8
0
  6
CONTINUOUS
 62
     0
100
AcDbLine
 10
0.0
 20
0.0
 30
0.0
 11
-0.707107
 21
-0.707107
 31
0.0
  0
LINE
  5
76
330
71
100
AcDbEntity
  8
0
  6
CONTINUOUS
 62
     0
100
AcDbLine
 10
0.0
 20
0.0
 30
0.0
 11
0.707107
 21
0.707107
 31
0.0
  0
ENDBLK
  5
73
330
71
100
AcDbEntity
  8
0
100
AcDbBlockEnd
  0
BLOCK
  5
78
330
77
100
AcDbEntity
  8
0
100
AcDbBlockBegin
  2
EDTIP_CIVIL_S
 70
     0
 10
0.0
 20
0.0
 30
0.0
  3
EDTIP_CIVIL_S
  1

  0
LINE
  5
7A
330
77
100
AcDbEntity
  8
0
  6
CONTINUOUS
 62
     0
100
AcDbLine
 10
0.0
 20
0.0
 30
0.0
 11
-1.0
 21
0.0
 31
0.0
  0
LINE
  5
7B
330
77
100
AcDbEntity
  8
0
  6
CONTINUOUS
 62
     0
100
AcDbLine
 10
0.0
 20
-0.083333
 30
0.0
 11
-1.0
 21
-0.083333
 31
0.0
  0
LINE
  5
7C
330
77
100
AcDbEntity
  8
0
  6
CONTINUOUS
 62
     0
100
AcDbLine
 10
0.0
 20
-0.166667
 30
0.0
 11
-1.0
 21
-0.166667
 31
0.0
  0
ENDBLK
  5
79
330
77
100
AcDbEntity
  8
0
100
AcDbBlockEnd
  0
BLOCK
  5
7E
330
7D
100
AcDbEntity
  8
0
100
AcDbBlockBegin
  2
EDTIP_CIVIL_E
 70
     0
 10
0.0
 20
0.0
 30
0.0
  3
EDTIP_CIVIL_E
  1

  0
LINE
  5
80
330
7D
100
AcDbEntity
  8
0
  6
CONTINUOUS
 62
     0
100
AcDbLine
 10
0.0
 20
0.0
 30
0.0
 11
-1.0
 21
0.0
 31
0.0
  0
LINE
  5
81
330
7D
100
AcDbEntity
  8
0
  6
CONTINUOUS
 62
     0
100
AcDbLine
 10
0.0
 20
0.083333
 30
0.0
 11
-1.0
 21
0.083333
 31
0.0
  0
LINE
  5
82
330
7D
100
AcDbEntity
  8
0
  6
CONTINUOUS
 62
     0
100
AcDbLine
 10
0.0
 20
0.166667
 30
0.0
 11
-1.0
 21
0.166667
 31
0.0
  0
ENDBLK
  5
7F
330
7D
100
AcDbEntity
  8
0
100
AcDbBlockEnd
  0
BLOCK
  5
84
330
83
100
AcDbEntity
  8
0
100
AcDbBlockBegin
  2
EDTIP_WHITEDOT_S
 70
     0
 10
0.0
 20
0.0
 30
0.0
  3
EDTIP_WHITEDOT_S
  1

  0
LINE
  5
86
330
83
100
AcDbEntity
  8
0
  6
CONTINUOUS
 62
     0
100
AcDbLine
 10
0.0
 20
0.0
 30
0.0
 11
-1.0
 21
0.0
 31
0.0
  0
CIRCLE
  5
87
330
83
100
AcDbEntity
  8
0
  6
CONTINUOUS
 62
     0
100
AcDbCircle
 10
0.0
 20
0.0
 30
0.0
 40
0.5
  0
ENDBLK
  5
85
330
83
100
AcDbEntity
  8
0
100
AcDbBlockEnd
  0
BLOCK
  5
89
330
88
100
AcDbEntity
  8
0
100
AcDbBlockBegin
  2
EDTIP_WHITEDOT_E
 70
     0
 10
0.0
 20
0.0
 30
0.0
  3
EDTIP_WHITEDOT_E
  1

  0
LINE
  5
8B
330
88
100
AcDbEntity
  8
0
  6
CONTINUOUS
 62
     0
100
AcDbLine
 10
0.0
 20
0.0
 30
0.0
 11
-1.0
 21
0.0
 31
0.0
  0
CIRCLE
  5
8C
330
88
100
AcDbEntity
  8
0
  6
CONTINUOUS
 62
     0
100
AcDbCircle
 10
0.0
 20
0.0
 30
0.0
 40
0.5
  0
ENDBLK
  5
8A
330
88
100
AcDbEntity
  8
0
100
AcDbBlockEnd
  0
BLOCK
  5
95
330
94
100
AcDbEntity
  8
0
100
AcDbBlockBegin
  2
BLKF014
 70
     0
 10
0.0
 20
0.0
 30
0.0
  3
BLKF014
  1

  0
LINE
  5
98
330
94
100
AcDbEntity
  8
CSLAYER2
  6
CONTINUOUS
 62
     3
100
AcDbLine
 10
480.485668
 20
916.14163
 30
0.0
 11
480.483603
 21
915.815371
 31
0.0
  0
LINE
  5
99
330
94
100
AcDbEntity
  8
CSLAYER2
  6
CONTINUOUS
 62
     3
100
AcDbLine
 10
480.483603
 20
915.815371
 30
0.0
 11
480.477424
 21
915.490103
 31
0.0
  0
LINE
  5
9A
330
94
100
AcDbEntity
  8
CSLAYER2
  6
CONTINUOUS
 62
     3
100
AcDbLine
 10
480.477424
 20
915.490103
 30
0.0
 11
480.467155
 21
915.165851
 31
0.0
  0
LINE
  5
9B
330
94
100
AcDbEntity
  8
CSLAYER2
  6
CONTINUOUS
 62
     3
100
AcDbLine
 10
480.467155
 20
915.165851
 30
0.0
 11
480.452822
 21
914.84264
 31
0.0
  0
LINE
  5
9C
330
94
100
AcDbEntity
  8
CSLAYER2
  6
CONTINUOUS
 62
     3
100
AcDbLine
 10
480.452822
 20
914.84264
 30
0.0
 11
480.43445
 21
914.520495
 31
0.0
  0
LINE
  5
9D
330
94
100
AcDbEntity
  8
CSLAYER2
  6
CONTINUOUS
 62
     3
100
AcDbLine
 10
480.43445
 20
914.520495
 30
0.0
 11
480.412063
 21
914.19944
 31
0.0
  0
LINE
  5
9E
330
94
100
AcDbEntity
  8
CSLAYER2
  6
CONTINUOUS
 62
     3
100
AcDbLine
 10
480.412063
 20
914.19944
 30
0.0
 11
480.385685
 21
913.879501
 31
0.0
  0
LINE
  5
9F
330
94
100
AcDbEntity
  8
CSLAYER2
  6
CONTINUOUS
 62
     3
100
AcDbLine
 10
480.385685
 20
913.879501
 30
0.0
 11
480.355343
 21
913.560702
 31
0.0
  0
LINE
  5
A0
330
94
100
AcDbEntity
  8
CSLAYER2
  6
CONTINUOUS
 62
     3
100
AcDbLine
 10
480.355343
 20
913.560702
 30
0.0
 11
480.32106
 21
913.243068
 31
0.0
  0
LINE
  5
A1
330
94
100
AcDbEntity
  8
CSLAYER2
  6
CONTINUOUS
 62
     3
100
AcDbLine
 10
480.32106
 20
913.243068
 30
0.0
 11
480.282861
 21
912.926624
 31
0.0
  0
LINE
  5
A2
330
94
100
AcDbEntity
  8
CSLAYER2
  6
CONTINUOUS
 62
     3
100
AcDbLine
 10
480.282861
 20
912.926624
 30
0.0
 11
480.240771
 21
912.611394
 31
0.0
  0
LINE
  5
A3
330
94
100
AcDbEntity
  8
CSLAYER2
  6
CONTINUOUS
 62
     3
100
AcDbLine
 10
480.240771
 20
912.611394
 30
0.0
 11
480.194815
 21
912.297404
 31
0.0
  0
LINE
  5
A4
330
94
100
AcDbEntity
  8
CSLAYER2
  6
CONTINUOUS
 62
     3
100
AcDbLine
 10
480.194815
 20
912.297404
 30
0.0
 11
480.145018
 21
911.984677
 31
0.0
  0
LINE
  5
A5
330
94
100
AcDbEntity
  8
CSLAYER2
  6
CONTINUOUS
 62
     3
100
AcDbLine
 10
480.145018
 20
911.984677
 30
0.0
 11
480.091404
 21
911.673239
 31
0.0
  0
LINE
  5
A6
330
94
100
AcDbEntity
  8
CSLAYER2
  6
CONTINUOUS
 62
     3
100
AcDbLine
 10
480.091404
 20
911.673239
 30
0.0
 11
480.033998
 21
911.363115
 31
0.0
  0
LINE
  5
A7
330
94
100
AcDbEntity
  8
CSLAYER2
  6
CONTINUOUS
 62
     3
100
AcDbLine
 10
480.033998
 20
911.363115
 30
0.0
 11
479.972825
 21
911.05433
 31
0.0
  0
LINE
  5
A8
330
94
100
AcDbEntity
  8
CSLAYER2
  6
CONTINUOUS
 62
     3
100
AcDbLine
 10
479.972825
 20
911.05433
 30
0.0
 11
479.90791
 21
910.746907
 31
0.0
  0
LINE
  5
A9
330
94
100
AcDbEntity
  8
CSLAYER2
  6
CONTINUOUS
 62
     3
100
AcDbLine
 10
479.90791
 20
910.746907
 30
0.0
 11
479.839278
 21
910.440873
 31
0.0
  0
LINE
  5
AA
330
94
100
AcDbEntity
  8
CSLAYER2
  6
CONTINUOUS
 62
     3
100
AcDbLine
 10
479.839278
 20
910.440873
 30
0.0
 11
479.766952
 21
910.136251
 31
0.0
  0
LINE
  5
AB
330
94
100
AcDbEntity
  8
CSLAYER2
  6
CONTINUOUS
 62
     3
100
AcDbLine
 10
479.766952
 20
910.136251
 30
0.0
 11
479.690959
 21
909.833067
 31
0.0
  0
LINE
  5
AC
330
94
100
AcDbEntity
  8
CSLAYER2
  6
CONTINUOUS
 62
     3
100
AcDbLine
 10
479.690959
 20
909.833067
 30
0.0
 11
479.611323
 21
909.531345
 31
0.0
  0
LINE
  5
AD
330
94
100
AcDbEntity
  8
CSLAYER2
  6
CONTINUOUS
 62
     3
100
AcDbLine
 10
479.611323
 20
909.531345
 30
0.0
 11
479.528069
 21
909.23111
 31
0.0
  0
LINE
  5
AE
330
94
100
AcDbEntity
  8
CSLAYER2
  6
CONTINUOUS
 62
     3
100
AcDbLine
 10
479.528069
 20
909.23111
 30
0.0
 11
479.441221
 21
908.932387
 31
0.0
  0
LINE
  5
AF
330
94
100
AcDbEntity
  8
CSLAYER2
  6
CONTINUOUS
 62
     3
100
AcDbLine
 10
479.441221
 20
908.932387
 30
0.0
 11
479.350804
 21
908.6352
 31
0.0
  0
LINE
  5
B0
330
94
100
AcDbEntity
  8
CSLAYER2
  6
CONTINUOUS
 62
     3
100
AcDbLine
 10
479.350804
 20
908.6352
 30
0.0
 11
479.256843
 21
908.339575
 31
0.0
  0
LINE
  5
B1
330
94
100
AcDbEntity
  8
CSLAYER2
  6
CONTINUOUS
 62
     3
100
AcDbLine
 10
479.256843
 20
908.339575
 30
0.0
 11
479.159363
 21
908.045537
 31
0.0
  0
LINE
  5
B2
330
94
100
AcDbEntity
  8
CSLAYER2
  6
CONTINUOUS
 62
     3
100
AcDbLine
 10
479.159363
 20
908.045537
 30
0.0
 11
479.058388
 21
907.753109
 31
0.0
  0
LINE
  5
B3
330
94
100
AcDbEntity
  8
CSLAYER2
  6
CONTINUOUS
 62
     3
100
AcDbLine
 10
479.058388
 20
907.753109
 30
0.0
 11
478.953944
 21
907.462317
 31
0.0
  0
LINE
  5
B4
330
94
100
AcDbEntity
  8
CSLAYER2
  6
CONTINUOUS
 62
     3
100
AcDbLine
 10
478.953944
 20
907.462317
 30
0.0
 11
478.846055
 21
907.173186
 31
0.0
  0
LINE
  5
B5
330
94
100
AcDbEntity
  8
CSLAYER2
  6
CONTINUOUS
 62
     3
100
AcDbLine
 10
478.846055
 20
907.173186
 30
0.0
 11
478.734746
 21
906.88574
 31
0.0
  0
LINE
  5
B6
330
94
100
AcDbEntity
  8
CSLAYER2
  6
CONTINUOUS
 62
     3
100
AcDbLine
 10
478.734746
 20
906.88574
 30
0.0
 11
478.620041
 21
906.600004
 31
0.0
  0
LINE
  5
B7
330
94
100
AcDbEntity
  8
CSLAYER2
  6
CONTINUOUS
 62
     3
100
AcDbLine
 10
478.620041
 20
906.600004
 30
0.0
 11
478.501966
 21
906.316003
 31
0.0
  0
LINE
  5
B8
330
94
100
AcDbEntity
  8
CSLAYER2
  6
CONTINUOUS
 62
     3
100
AcDbLine
 10
478.501966
 20
906.316003
 30
0.0
 11
478.380546
 21
906.033762
 31
0.0
  0
LINE
  5
B9
330
94
100
AcDbEntity
  8
CSLAYER2
  6
CONTINUOUS
 62
     3
100
AcDbLine
 10
478.380546
 20
906.033762
 30
0.0
 11
478.255804
 21
905.753305
 31
0.0
  0
LINE
  5
BA
330
94
100
AcDbEntity
  8
CSLAYER2
  6
CONTINUOUS
 62
     3
100
AcDbLine
 10
478.255804
 20
905.753305
 30
0.0
 11
478.127766
 21
905.474657
 31
0.0
  0
LINE
  5
BB
330
94
100
AcDbEntity
  8
CSLAYER2
  6
CONTINUOUS
 62
     3
100
AcDbLine
 10
478.127766
 20
905.474657
 30
0.0
 11
477.996457
 21
905.197844
 31
0.0
  0
LINE
  5
BC
330
94
100
AcDbEntity
  8
CSLAYER2
  6
CONTINUOUS
 62
     3
100
AcDbLine
 10
477.996457
 20
905.197844
 30
0.0
 11
477.861901
 21
904.922889
 31
0.0
  0
LINE
  5
BD
330
94
100
AcDbEntity
  8
CSLAYER2
  6
CONTINUOUS
 62
     3
100
AcDbLine
 10
477.861901
 20
904.922889
 30
0.0
 11
477.724123
 21
904.649818
 31
0.0
  0
LINE
  5
BE
330
94
100
AcDbEntity
  8
CSLAYER2
  6
CONTINUOUS
 62
     3
100
AcDbLine
 10
477.724123
 20
904.649818
 30
0.0
 11
477.583148
 21
904.378655
 31
0.0
  0
LINE
  5
BF
330
94
100
AcDbEntity
  8
CSLAYER2
  6
CONTINUOUS
 62
     3
100
AcDbLine
 10
477.583148
 20
904.378655
 30
0.0
 11
477.439001
 21
904.109425
 31
0.0
  0
LINE
  5
C0
330
94
100
AcDbEntity
  8
CSLAYER2
  6
CONTINUOUS
 62
     3
100
AcDbLine
 10
477.439001
 20
904.109425
 30
0.0
 11
477.291707
 21
903.842154
 31
0.0
  0
LINE
  5
C1
330
94
100
AcDbEntity
  8
CSLAYER2
  6
CONTINUOUS
 62
     3
100
AcDbLine
 10
477.291707
 20
903.842154
 30
0.0
 11
477.141289
 21
903.576865
 31
0.0
  0
LINE
  5
C2
330
94
100
AcDbEntity
  8
CSLAYER2
  6
CONTINUOUS
 62
     3
100
AcDbLine
 10
477.141289
 20
903.576865
 30
0.0
 11
476.987774
 21
903.313584
 31
0.0
  0
LINE
  5
C3
330
94
100
AcDbEntity
  8
CSLAYER2
  6
CONTINUOUS
 62
     3
100
AcDbLine
 10
476.987774
 20
903.313584
 30
0.0
 11
476.831186
 21
903.052334
 31
0.0
  0
LINE
  5
C4
330
94
100
AcDbEntity
  8
CSLAYER2
  6
CONTINUOUS
 62
     3
100
AcDbLine
 10
476.831186
 20
903.052334
 30
0.0
 11
476.671549
 21
902.793142
 31
0.0
  0
LINE
  5
C5
330
94
100
AcDbEntity
  8
CSLAYER2
  6
CONTINUOUS
 62
     3
100
AcDbLine
 10
476.671549
 20
902.793142
 30
0.0
 11
476.508889
 21
902.536032
 31
0.0
  0
LINE
  5
C6
330
94
100
AcDbEntity
  8
CSLAYER2
  6
CONTINUOUS
 62
     3
100
AcDbLine
 10
476.508889
 20
902.536032
 30
0.0
 11
476.34323
 21
902.281029
 31
0.0
  0
LINE
  5
C7
330
94
100
AcDbEntity
  8
CSLAYER2
  6
CONTINUOUS
 62
     3
100
AcDbLine
 10
476.34323
 20
902.281029
 30
0.0
 11
476.174597
 21
902.028157
 31
0.0
  0
LINE
  5
C8
330
94
100
AcDbEntity
  8
CSLAYER2
  6
CONTINUOUS
 62
     3
100
AcDbLine
 10
476.174597
 20
902.028157
 30
0.0
 11
476.003014
 21
901.777441
 31
0.0
  0
LINE
  5
C9
330
94
100
AcDbEntity
  8
CSLAYER2
  6
CONTINUOUS
 62
     3
100
AcDbLine
 10
476.003014
 20
901.777441
 30
0.0
 11
475.828507
 21
901.528906
 31
0.0
  0
LINE
  5
CA
330
94
100
AcDbEntity
  8
CSLAYER2
  6
CONTINUOUS
 62
     3
100
AcDbLine
 10
475.828507
 20
901.528906
 30
0.0
 11
475.651101
 21
901.282576
 31
0.0
  0
LINE
  5
CB
330
94
100
AcDbEntity
  8
CSLAYER2
  6
CONTINUOUS
 62
     3
100
AcDbLine
 10
475.651101
 20
901.282576
 30
0.0
 11
475.470819
 21
901.038478
 31
0.0
  0
LINE
  5
CC
330
94
100
AcDbEntity
  8
CSLAYER2
  6
CONTINUOUS
 62
     3
100
AcDbLine
 10
475.470819
 20
901.038478
 30
0.0
 11
475.287688
 21
900.796635
 31
0.0
  0
LINE
  5
CD
330
94
100
AcDbEntity
  8
CSLAYER2
  6
CONTINUOUS
 62
     3
100
AcDbLine
 10
475.287688
 20
900.796635
 30
0.0
 11
475.101731
 21
900.557071
 31
0.0
  0
LINE
  5
CE
330
94
100
AcDbEntity
  8
CSLAYER2
  6
CONTINUOUS
 62
     3
100
AcDbLine
 10
475.101731
 20
900.557071
 30
0.0
 11
474.912974
 21
900.319813
 31
0.0
  0
LINE
  5
CF
330
94
100
AcDbEntity
  8
CSLAYER2
  6
CONTINUOUS
 62
     3
100
AcDbLine
 10
474.912974
 20
900.319813
 30
0.0
 11
474.72144
 21
900.084884
 31
0.0
  0
LINE
  5
D0
330
94
100
AcDbEntity
  8
CSLAYER2
  6
CONTINUOUS
 62
     3
100
AcDbLine
 10
474.72144
 20
900.084884
 30
0.0
 11
474.527156
 21
899.85231
 31
0.0
  0
LINE
  5
D1
330
94
100
AcDbEntity
  8
CSLAYER2
  6
CONTINUOUS
 62
     3
100
AcDbLine
 10
474.527156
 20
899.85231
 30
0.0
 11
474.330146
 21
899.622115
 31
0.0
  0
LINE
  5
D2
330
94
100
AcDbEntity
  8
CSLAYER2
  6
CONTINUOUS
 62
     3
100
AcDbLine
 10
474.330146
 20
899.622115
 30
0.0
 11
474.130434
 21
899.394324
 31
0.0
  0
LINE
  5
D3
330
94
100
AcDbEntity
  8
CSLAYER2
  6
CONTINUOUS
 62
     3
100
AcDbLine
 10
474.130434
 20
899.394324
 30
0.0
 11
473.928046
 21
899.168962
 31
0.0
  0
LINE
  5
D4
330
94
100
AcDbEntity
  8
CSLAYER2
  6
CONTINUOUS
 62
     3
100
AcDbLine
 10
473.928046
 20
899.168962
 30
0.0
 11
473.723005
 21
898.946054
 31
0.0
  0
LINE
  5
D5
330
94
100
AcDbEntity
  8
CSLAYER2
  6
CONTINUOUS
 62
     3
100
AcDbLine
 10
473.723005
 20
898.946054
 30
0.0
 11
473.515338
 21
898.725624
 31
0.0
  0
LINE
  5
D6
330
94
100
AcDbEntity
  8
CSLAYER2
  6
CONTINUOUS
 62
     3
100
AcDbLine
 10
473.515338
 20
898.725624
 30
0.0
 11
473.305068
 21
898.507697
 31
0.0
  0
LINE
  5
D7
330
94
100
AcDbEntity
  8
CSLAYER2
  6
CONTINUOUS
 62
     3
100
AcDbLine
 10
473.305068
 20
898.507697
 30
0.0
 11
473.092221
 21
898.292297
 31
0.0
  0
LINE
  5
D8
330
94
100
AcDbEntity
  8
CSLAYER2
  6
CONTINUOUS
 62
     3
100
AcDbLine
 10
473.092221
 20
898.292297
 30
0.0
 11
472.876821
 21
898.079451
 31
0.0
  0
LINE
  5
D9
330
94
100
AcDbEntity
  8
CSLAYER2
  6
CONTINUOUS
 62
     3
100
AcDbLine
 10
472.876821
 20
898.079451
 30
0.0
 11
472.658893
 21
897.869182
 31
0.0
  0
LINE
  5
DA
330
94
100
AcDbEntity
  8
CSLAYER2
  6
CONTINUOUS
 62
     3
100
AcDbLine
 10
472.658893
 20
897.869182
 30
0.0
 11
472.438462
 21
897.661516
 31
0.0
  0
LINE
  5
DB
330
94
100
AcDbEntity
  8
CSLAYER2
  6
CONTINUOUS
 62
     3
100
AcDbLine
 10
472.438462
 20
897.661516
 30
0.0
 11
472.215553
 21
897.456476
 31
0.0
  0
LINE
  5
DC
330
94
100
AcDbEntity
  8
CSLAYER2
  6
CONTINUOUS
 62
     3
100
AcDbLine
 10
472.215553
 20
897.456476
 30
0.0
 11
471.99019
 21
897.254088
 31
0.0
  0
LINE
  5
DD
330
94
100
AcDbEntity
  8
CSLAYER2
  6
CONTINUOUS
 62
     3
100
AcDbLine
 10
471.99019
 20
897.254088
 30
0.0
 11
471.762398
 21
897.054377
 31
0.0
  0
LINE
  5
DE
330
94
100
AcDbEntity
  8
CSLAYER2
  6
CONTINUOUS
 62
     3
100
AcDbLine
 10
471.762398
 20
897.054377
 30
0.0
 11
471.532202
 21
896.857368
 31
0.0
  0
LINE
  5
DF
330
94
100
AcDbEntity
  8
CSLAYER2
  6
CONTINUOUS
 62
     3
100
AcDbLine
 10
471.532202
 20
896.857368
 30
0.0
 11
471.299626
 21
896.663084
 31
0.0
  0
LINE
  5
E0
330
94
100
AcDbEntity
  8
CSLAYER2
  6
CONTINUOUS
 62
     3
100
AcDbLine
 10
471.299626
 20
896.663084
 30
0.0
 11
471.064697
 21
896.471552
 31
0.0
  0
LINE
  5
E1
330
94
100
AcDbEntity
  8
CSLAYER2
  6
CONTINUOUS
 62
     3
100
AcDbLine
 10
471.064697
 20
896.471552
 30
0.0
 11
470.827437
 21
896.282795
 31
0.0
  0
LINE
  5
E2
330
94
100
AcDbEntity
  8
CSLAYER2
  6
CONTINUOUS
 62
     3
100
AcDbLine
 10
470.827437
 20
896.282795
 30
0.0
 11
470.587873
 21
896.096838
 31
0.0
  0
LINE
  5
E3
330
94
100
AcDbEntity
  8
CSLAYER2
  6
CONTINUOUS
 62
     3
100
AcDbLine
 10
470.587873
 20
896.096838
 30
0.0
 11
470.346028
 21
895.913707
 31
0.0
  0
LINE
  5
E4
330
94
100
AcDbEntity
  8
CSLAYER2
  6
CONTINUOUS
 62
     3
100
AcDbLine
 10
470.346028
 20
895.913707
 30
0.0
 11
470.101929
 21
895.733427
 31
0.0
  0
LINE
  5
E5
330
94
100
AcDbEntity
  8
CSLAYER2
  6
CONTINUOUS
 62
     3
100
AcDbLine
 10
470.101929
 20
895.733427
 30
0.0
 11
469.855598
 21
895.556021
 31
0.0
  0
LINE
  5
E6
330
94
100
AcDbEntity
  8
CSLAYER2
  6
CONTINUOUS
 62
     3
100
AcDbLine
 10
469.855598
 20
895.556021
 30
0.0
 11
469.607062
 21
895.381514
 31
0.0
  0
LINE
  5
E7
330
94
100
AcDbEntity
  8
CSLAYER2
  6
CONTINUOUS
 62
     3
100
AcDbLine
 10
469.607062
 20
895.381514
 30
0.0
 11
469.356345
 21
895.209932
 31
0.0
  0
LINE
  5
E8
330
94
100
AcDbEntity
  8
CSLAYER2
  6
CONTINUOUS
 62
     3
100
AcDbLine
 10
469.356345
 20
895.209932
 30
0.0
 11
469.103471
 21
895.0413
 31
0.0
  0
LINE
  5
E9
330
94
100
AcDbEntity
  8
CSLAYER2
  6
CONTINUOUS
 62
     3
100
AcDbLine
 10
469.103471
 20
895.0413
 30
0.0
 11
468.848466
 21
894.875641
 31
0.0
  0
LINE
  5
EA
330
94
100
AcDbEntity
  8
CSLAYER2
  6
CONTINUOUS
 62
     3
100
AcDbLine
 10
468.848466
 20
894.875641
 30
0.0
 11
468.591355
 21
894.712981
 31
0.0
  0
LINE
  5
EB
330
94
100
AcDbEntity
  8
CSLAYER2
  6
CONTINUOUS
 62
     3
100
AcDbLine
 10
468.591355
 20
894.712981
 30
0.0
 11
468.332161
 21
894.553345
 31
0.0
  0
LINE
  5
EC
330
94
100
AcDbEntity
  8
CSLAYER2
  6
CONTINUOUS
 62
     3
100
AcDbLine
 10
468.332161
 20
894.553345
 30
0.0
 11
468.070911
 21
894.396757
 31
0.0
  0
LINE
  5
ED
330
94
100
AcDbEntity
  8
CSLAYER2
  6
CONTINUOUS
 62
     3
100
AcDbLine
 10
468.070911
 20
894.396757
 30
0.0
 11
467.807628
 21
894.243242
 31
0.0
  0
LINE
  5
EE
330
94
100
AcDbEntity
  8
CSLAYER2
  6
CONTINUOUS
 62
     3
100
AcDbLine
 10
467.807628
 20
894.243242
 30
0.0
 11
467.542337
 21
894.092825
 31
0.0
  0
LINE
  5
EF
330
94
100
AcDbEntity
  8
CSLAYER2
  6
CONTINUOUS
 62
     3
100
AcDbLine
 10
467.542337
 20
894.092825
 30
0.0
 11
467.275064
 21
893.945531
 31
0.0
  0
LINE
  5
F0
330
94
100
AcDbEntity
  8
CSLAYER2
  6
CONTINUOUS
 62
     3
100
AcDbLine
 10
467.275064
 20
893.945531
 30
0.0
 11
467.005833
 21
893.801384
 31
0.0
  0
LINE
  5
F1
330
94
100
AcDbEntity
  8
CSLAYER2
  6
CONTINUOUS
 62
     3
100
AcDbLine
 10
467.005833
 20
893.801384
 30
0.0
 11
466.734669
 21
893.66041
 31
0.0
  0
LINE
  5
F2
330
94
100
AcDbEntity
  8
CSLAYER2
  6
CONTINUOUS
 62
     3
100
AcDbLine
 10
466.734669
 20
893.66041
 30
0.0
 11
466.461596
 21
893.522632
 31
0.0
  0
LINE
  5
F3
330
94
100
AcDbEntity
  8
CSLAYER2
  6
CONTINUOUS
 62
     3
100
AcDbLine
 10
466.461596
 20
893.522632
 30
0.0
 11
466.186639
 21
893.388077
 31
0.0
  0
LINE
  5
F4
330
94
100
AcDbEntity
  8
CSLAYER2
  6
CONTINUOUS
 62
     3
100
AcDbLine
 10
466.186639
 20
893.388077
 30
0.0
 11
465.909824
 21
893.256768
 31
0.0
  0
LINE
  5
F5
330
94
100
AcDbEntity
  8
CSLAYER2
  6
CONTINUOUS
 62
     3
100
AcDbLine
 10
465.909824
 20
893.256768
 30
0.0
 11
465.631175
 21
893.12873
 31
0.0
  0
LINE
  5
F6
330
94
100
AcDbEntity
  8
CSLAYER2
  6
CONTINUOUS
 62
     3
100
AcDbLine
 10
465.631175
 20
893.12873
 30
0.0
 11
465.350716
 21
893.003989
 31
0.0
  0
LINE
  5
F7
330
94
100
AcDbEntity
  8
CSLAYER2
  6
CONTINUOUS
 62
     3
100
AcDbLine
 10
465.350716
 20
893.003989
 30
0.0
 11
465.068473
 21
892.882568
 31
0.0
  0
LINE
  5
F8
330
94
100
AcDbEntity
  8
CSLAYER2
  6
CONTINUOUS
 62
     3
100
AcDbLine
 10
465.068473
 20
892.882568
 30
0.0
 11
464.78447
 21
892.764493
 31
0.0
  0
LINE
  5
F9
330
94
100
AcDbEntity
  8
CSLAYER2
  6
CONTINUOUS
 62
     3
100
AcDbLine
 10
464.78447
 20
892.764493
 30
0.0
 11
464.498732
 21
892.649789
 31
0.0
  0
LINE
  5
FA
330
94
100
AcDbEntity
  8
CSLAYER2
  6
CONTINUOUS
 62
     3
100
AcDbLine
 10
464.498732
 20
892.649789
 30
0.0
 11
464.211284
 21
892.53848
 31
0.0
  0
LINE
  5
FB
330
94
100
AcDbEntity
  8
CSLAYER2
  6
CONTINUOUS
 62
     3
100
AcDbLine
 10
464.211284
 20
892.53848
 30
0.0
 11
463.92215
 21
892.430591
 31
0.0
  0
LINE
  5
FC
330
94
100
AcDbEntity
  8
CSLAYER2
  6
CONTINUOUS
 62
     3
100
AcDbLine
 10
463.92215
 20
892.430591
 30
0.0
 11
463.631356
 21
892.326147
 31
0.0
  0
LINE
  5
FD
330
94
100
AcDbEntity
  8
CSLAYER2
  6
CONTINUOUS
 62
     3
100
AcDbLine
 10
463.631356
 20
892.326147
 30
0.0
 11
463.338927
 21
892.225173
 31
0.0
  0
LINE
  5
FE
330
94
100
AcDbEntity
  8
CSLAYER2
  6
CONTINUOUS
 62
     3
100
AcDbLine
 10
463.338927
 20
892.225173
 30
0.0
 11
463.044886
 21
892.127693
 31
0.0
  0
LINE
  5
FF
330
94
100
AcDbEntity
  8
CSLAYER2
  6
CONTINUOUS
 62
     3
100
AcDbLine
 10
463.044886
 20
892.127693
 30
0.0
 11
462.749259
 21
892.033732
 31
0.0
  0
LINE
  5
100
330
94
100
AcDbEntity
  8
CSLAYER2
  6
CONTINUOUS
 62
     3
100
AcDbLine
 10
462.749259
 20
892.033732
 30
0.0
 11
462.45207
 21
891.943315
 31
0.0
  0
LINE
  5
101
330
94
100
AcDbEntity
  8
CSLAYER2
  6
CONTINUOUS
 62
     3
100
AcDbLine
 10
462.45207
 20
891.943315
 30
0.0
 11
462.153345
 21
891.856467
 31
0.0
  0
LINE
  5
102
330
94
100
AcDbEntity
  8
CSLAYER2
  6
CONTINUOUS
 62
     3
100
AcDbLine
 10
462.153345
 20
891.856467
 30
0.0
 11
461.853107
 21
891.773213
 31
0.0
  0
LINE
  5
103
330
94
100
AcDbEntity
  8
CSLAYER2
  6
CONTINUOUS
 62
     3
100
AcDbLine
 10
461.853107
 20
891.773213
 30
0.0
 11
461.551383
 21
891.693577
 31
0.0
  0
LINE
  5
104
330
94
100
AcDbEntity
  8
CSLAYER2
  6
CONTINUOUS
 62
     3
100
AcDbLine
 10
461.551383
 20
891.693577
 30
0.0
 11
461.248196
 21
891.617584
 31
0.0
  0
LINE
  5
105
330
94
100
AcDbEntity
  8
CSLAYER2
  6
CONTINUOUS
 62
     3
100
AcDbLine
 10
461.248196
 20
891.617584
 30
0.0
 11
460.943572
 21
891.545259
 31
0.0
  0
LINE
  5
106
330
94
100
AcDbEntity
  8
CSLAYER2
  6
CONTINUOUS
 62
     3
100
AcDbLine
 10
460.943572
 20
891.545259
 30
0.0
 11
460.637535
 21
891.476626
 31
0.0
  0
LINE
  5
107
330
94
100
AcDbEntity
  8
CSLAYER2
  6
CONTINUOUS
 62
     3
100
AcDbLine
 10
460.637535
 20
891.476626
 30
0.0
 11
460.33011
 21
891.411711
 31
0.0
  0
LINE
  5
108
330
94
100
AcDbEntity
  8
CSLAYER2
  6
CONTINUOUS
 62
     3
100
AcDbLine
 10
460.33011
 20
891.411711
 30
0.0
 11
460.021322
 21
891.350539
 31
0.0
  0
LINE
  5
109
330
94
100
AcDbEntity
  8
CSLAYER2
  6
CONTINUOUS
 62
     3
100
AcDbLine
 10
460.021322
 20
891.350539
 30
0.0
 11
459.711195
 21
891.293133
 31
0.0
  0
LINE
  5
10A
330
94
100
AcDbEntity
  8
CSLAYER2
  6
CONTINUOUS
 62
     3
100
AcDbLine
 10
459.711195
 20
891.293133
 30
0.0
 11
459.399754
 21
891.239519
 31
0.0
  0
LINE
  5
10B
330
94
100
AcDbEntity
  8
CSLAYER2
  6
CONTINUOUS
 62
     3
100
AcDbLine
 10
459.399754
 20
891.239519
 30
0.0
 11
459.087025
 21
891.189722
 31
0.0
  0
LINE
  5
10C
330
94
100
AcDbEntity
  8
CSLAYER2
  6
CONTINUOUS
 62
     3
100
AcDbLine
 10
459.087025
 20
891.189722
 30
0.0
 11
458.773032
 21
891.143766
 31
0.0
  0
LINE
  5
10D
330
94
100
AcDbEntity
  8
CSLAYER2
  6
CONTINUOUS
 62
     3
100
AcDbLine
 10
458.773032
 20
891.143766
 30
0.0
 11
458.457799
 21
891.101676
 31
0.0
  0
LINE
  5
10E
330
94
100
AcDbEntity
  8
CSLAYER2
  6
CONTINUOUS
 62
     3
100
AcDbLine
 10
458.457799
 20
891.101676
 30
0.0
 11
458.141352
 21
891.063477
 31
0.0
  0
LINE
  5
10F
330
94
100
AcDbEntity
  8
CSLAYER2
  6
CONTINUOUS
 62
     3
100
AcDbLine
 10
458.141352
 20
891.063477
 30
0.0
 11
457.823715
 21
891.029194
 31
0.0
  0
LINE
  5
110
330
94
100
AcDbEntity
  8
CSLAYER2
  6
CONTINUOUS
 62
     3
100
AcDbLine
 10
457.823715
 20
891.029194
 30
0.0
 11
457.504913
 21
890.998851
 31
0.0
  0
LINE
  5
111
330
94
100
AcDbEntity
  8
CSLAYER2
  6
CONTINUOUS
 62
     3
100
AcDbLine
 10
457.504913
 20
890.998851
 30
0.0
 11
457.184971
 21
890.972474
 31
0.0
  0
LINE
  5
112
330
94
100
AcDbEntity
  8
CSLAYER2
  6
CONTINUOUS
 62
     3
100
AcDbLine
 10
457.184971
 20
890.972474
 30
0.0
 11
456.863913
 21
890.950087
 31
0.0
  0
LINE
  5
113
330
94
100
AcDbEntity
  8
CSLAYER2
  6
CONTINUOUS
 62
     3
100
AcDbLine
 10
456.863913
 20
890.950087
 30
0.0
 11
456.541765
 21
890.931714
 31
0.0
  0
LINE
  5
114
330
94
100
AcDbEntity
  8
CSLAYER2
  6
CONTINUOUS
 62
     3
100
AcDbLine
 10
456.541765
 20
890.931714
 30
0.0
 11
456.218551
 21
890.917381
 31
0.0
  0
LINE
  5
115
330
94
100
AcDbEntity
  8
CSLAYER2
  6
CONTINUOUS
 62
     3
100
AcDbLine
 10
456.218551
 20
890.917381
 30
0.0
 11
455.894296
 21
890.907113
 31
0.0
  0
LINE
  5
116
330
94
100
AcDbEntity
  8
CSLAYER2
  6
CONTINUOUS
 62
     3
100
AcDbLine
 10
455.894296
 20
890.907113
 30
0.0
 11
455.569024
 21
890.900934
 31
0.0
  0
LINE
  5
117
330
94
100
AcDbEntity
  8
CSLAYER2
  6
CONTINUOUS
 62
     3
100
AcDbLine
 10
455.569024
 20
890.900934
 30
0.0
 11
455.242762
 21
890.898869
 31
0.0
  0
LINE
  5
118
330
94
100
AcDbEntity
  8
CSLAYER2
  6
CONTINUOUS
 62
     3
100
AcDbLine
 10
455.242762
 20
890.898869
 30
0.0
 11
454.916502
 21
890.900934
 31
0.0
  0
LINE
  5
119
330
94
100
AcDbEntity
  8
CSLAYER2
  6
CONTINUOUS
 62
     3
100
AcDbLine
 10
454.916502
 20
890.900934
 30
0.0
 11
454.591234
 21
890.907113
 31
0.0
  0
LINE
  5
11A
330
94
100
AcDbEntity
  8
CSLAYER2
  6
CONTINUOUS
 62
     3
100
AcDbLine
 10
454.591234
 20
890.907113
 30
0.0
 11
454.266982
 21
890.917381
 31
0.0
  0
LINE
  5
11B
330
94
100
AcDbEntity
  8
CSLAYER2
  6
CONTINUOUS
 62
     3
100
AcDbLine
 10
454.266982
 20
890.917381
 30
0.0
 11
453.943771
 21
890.931714
 31
0.0
  0
LINE
  5
11C
330
94
100
AcDbEntity
  8
CSLAYER2
  6
CONTINUOUS
 62
     3
100
AcDbLine
 10
453.943771
 20
890.931714
 30
0.0
 11
453.621626
 21
890.950087
 31
0.0
  0
LINE
  5
11D
330
94
100
AcDbEntity
  8
CSLAYER2
  6
CONTINUOUS
 62
     3
100
AcDbLine
 10
453.621626
 20
890.950087
 30
0.0
 11
453.300572
 21
890.972474
 31
0.0
  0
LINE
  5
11E
330
94
100
AcDbEntity
  8
CSLAYER2
  6
CONTINUOUS
 62
     3
100
AcDbLine
 10
453.300572
 20
890.972474
 30
0.0
 11
452.980633
 21
890.998851
 31
0.0
  0
LINE
  5
11F
330
94
100
AcDbEntity
  8
CSLAYER2
  6
CONTINUOUS
 62
     3
100
AcDbLine
 10
452.980633
 20
890.998851
 30
0.0
 11
452.661834
 21
891.029194
 31
0.0
  0
LINE
  5
120
330
94
100
AcDbEntity
  8
CSLAYER2
  6
CONTINUOUS
 62
     3
100
AcDbLine
 10
452.661834
 20
891.029194
 30
0.0
 11
452.3442
 21
891.063477
 31
0.0
  0
LINE
  5
121
330
94
100
AcDbEntity
  8
CSLAYER2
  6
CONTINUOUS
 62
     3
100
AcDbLine
 10
452.3442
 20
891.063477
 30
0.0
 11
452.027755
 21
891.101676
 31
0.0
  0
LINE
  5
122
330
94
100
AcDbEntity
  8
CSLAYER2
  6
CONTINUOUS
 62
     3
100
AcDbLine
 10
452.027755
 20
891.101676
 30
0.0
 11
451.712525
 21
891.143766
 31
0.0
  0
LINE
  5
123
330
94
100
AcDbEntity
  8
CSLAYER2
  6
CONTINUOUS
 62
     3
100
AcDbLine
 10
451.712525
 20
891.143766
 30
0.0
 11
451.398535
 21
891.189722
 31
0.0
  0
LINE
  5
124
330
94
100
AcDbEntity
  8
CSLAYER2
  6
CONTINUOUS
 62
     3
100
AcDbLine
 10
451.398535
 20
891.189722
 30
0.0
 11
451.085808
 21
891.239519
 31
0.0
  0
LINE
  5
125
330
94
100
AcDbEntity
  8
CSLAYER2
  6
CONTINUOUS
 62
     3
100
AcDbLine
 10
451.085808
 20
891.239519
 30
0.0
 11
450.774371
 21
891.293133
 31
0.0
  0
LINE
  5
126
330
94
100
AcDbEntity
  8
CSLAYER2
  6
CONTINUOUS
 62
     3
100
AcDbLine
 10
450.774371
 20
891.293133
 30
0.0
 11
450.464247
 21
891.350539
 31
0.0
  0
LINE
  5
127
330
94
100
AcDbEntity
  8
CSLAYER2
  6
CONTINUOUS
 62
     3
100
AcDbLine
 10
450.464247
 20
891.350539
 30
0.0
 11
450.155461
 21
891.411711
 31
0.0
  0
LINE
  5
128
330
94
100
AcDbEntity
  8
CSLAYER2
  6
CONTINUOUS
 62
     3
100
AcDbLine
 10
450.155461
 20
891.411711
 30
0.0
 11
449.848038
 21
891.476626
 31
0.0
  0
LINE
  5
129
330
94
100
AcDbEntity
  8
CSLAYER2
  6
CONTINUOUS
 62
     3
100
AcDbLine
 10
449.848038
 20
891.476626
 30
0.0
 11
449.542004
 21
891.545259
 31
0.0
  0
LINE
  5
12A
330
94
100
AcDbEntity
  8
CSLAYER2
  6
CONTINUOUS
 62
     3
100
AcDbLine
 10
449.542004
 20
891.545259
 30
0.0
 11
449.237382
 21
891.617584
 31
0.0
  0
LINE
  5
12B
330
94
100
AcDbEntity
  8
CSLAYER2
  6
CONTINUOUS
 62
     3
100
AcDbLine
 10
449.237382
 20
891.617584
 30
0.0
 11
448.934198
 21
891.693577
 31
0.0
  0
LINE
  5
12C
330
94
100
AcDbEntity
  8
CSLAYER2
  6
CONTINUOUS
 62
     3
100
AcDbLine
 10
448.934198
 20
891.693577
 30
0.0
 11
448.632476
 21
891.773213
 31
0.0
  0
LINE
  5
12D
330
94
100
AcDbEntity
  8
CSLAYER2
  6
CONTINUOUS
 62
     3
100
AcDbLine
 10
448.632476
 20
891.773213
 30
0.0
 11
448.332241
 21
891.856467
 31
0.0
  0
LINE
  5
12E
330
94
100
AcDbEntity
  8
CSLAYER2
  6
CONTINUOUS
 62
     3
100
AcDbLine
 10
448.332241
 20
891.856467
 30
0.0
 11
448.033518
 21
891.943315
 31
0.0
  0
LINE
  5
12F
330
94
100
AcDbEntity
  8
CSLAYER2
  6
CONTINUOUS
 62
     3
100
AcDbLine
 10
448.033518
 20
891.943315
 30
0.0
 11
447.736332
 21
892.033732
 31
0.0
  0
LINE
  5
130
330
94
100
AcDbEntity
  8
CSLAYER2
  6
CONTINUOUS
 62
     3
100
AcDbLine
 10
447.736332
 20
892.033732
 30
0.0
 11
447.440707
 21
892.127693
 31
0.0
  0
LINE
  5
131
330
94
100
AcDbEntity
  8
CSLAYER2
  6
CONTINUOUS
 62
     3
100
AcDbLine
 10
447.440707
 20
892.127693
 30
0.0
 11
447.146668
 21
892.225173
 31
0.0
  0
LINE
  5
132
330
94
100
AcDbEntity
  8
CSLAYER2
  6
CONTINUOUS
 62
     3
100
AcDbLine
 10
447.146668
 20
892.225173
 30
0.0
 11
446.85424
 21
892.326147
 31
0.0
  0
LINE
  5
133
330
94
100
AcDbEntity
  8
CSLAYER2
  6
CONTINUOUS
 62
     3
100
AcDbLine
 10
446.85424
 20
892.326147
 30
0.0
 11
446.563448
 21
892.430591
 31
0.0
  0
LINE
  5
134
330
94
100
AcDbEntity
  8
CSLAYER2
  6
CONTINUOUS
 62
     3
100
AcDbLine
 10
446.563448
 20
892.430591
 30
0.0
 11
446.274317
 21
892.53848
 31
0.0
  0
LINE
  5
135
330
94
100
AcDbEntity
  8
CSLAYER2
  6
CONTINUOUS
 62
     3
100
AcDbLine
 10
446.274317
 20
892.53848
 30
0.0
 11
445.986871
 21
892.649789
 31
0.0
  0
LINE
  5
136
330
94
100
AcDbEntity
  8
CSLAYER2
  6
CONTINUOUS
 62
     3
100
AcDbLine
 10
445.986871
 20
892.649789
 30
0.0
 11
445.701135
 21
892.764493
 31
0.0
  0
LINE
  5
137
330
94
100
AcDbEntity
  8
CSLAYER2
  6
CONTINUOUS
 62
     3
100
AcDbLine
 10
445.701135
 20
892.764493
 30
0.0
 11
445.417134
 21
892.882568
 31
0.0
  0
LINE
  5
138
330
94
100
AcDbEntity
  8
CSLAYER2
  6
CONTINUOUS
 62
     3
100
AcDbLine
 10
445.417134
 20
892.882568
 30
0.0
 11
445.134893
 21
893.003989
 31
0.0
  0
LINE
  5
139
330
94
100
AcDbEntity
  8
CSLAYER2
  6
CONTINUOUS
 62
     3
100
AcDbLine
 10
445.134893
 20
893.003989
 30
0.0
 11
444.854436
 21
893.12873
 31
0.0
  0
LINE
  5
13A
330
94
100
AcDbEntity
  8
CSLAYER2
  6
CONTINUOUS
 62
     3
100
AcDbLine
 10
444.854436
 20
893.12873
 30
0.0
 11
444.575788
 21
893.256768
 31
0.0
  0
LINE
  5
13B
330
94
100
AcDbEntity
  8
CSLAYER2
  6
CONTINUOUS
 62
     3
100
AcDbLine
 10
444.575788
 20
893.256768
 30
0.0
 11
444.298975
 21
893.388077
 31
0.0
  0
LINE
  5
13C
330
94
100
AcDbEntity
  8
CSLAYER2
  6
CONTINUOUS
 62
     3
100
AcDbLine
 10
444.298975
 20
893.388077
 30
0.0
 11
444.02402
 21
893.522632
 31
0.0
  0
LINE
  5
13D
330
94
100
AcDbEntity
  8
CSLAYER2
  6
CONTINUOUS
 62
     3
100
AcDbLine
 10
444.02402
 20
893.522632
 30
0.0
 11
443.750949
 21
893.66041
 31
0.0
  0
LINE
  5
13E
330
94
100
AcDbEntity
  8
CSLAYER2
  6
CONTINUOUS
 62
     3
100
AcDbLine
 10
443.750949
 20
893.66041
 30
0.0
 11
443.479786
 21
893.801384
 31
0.0
  0
LINE
  5
13F
330
94
100
AcDbEntity
  8
CSLAYER2
  6
CONTINUOUS
 62
     3
100
AcDbLine
 10
443.479786
 20
893.801384
 30
0.0
 11
443.210557
 21
893.945531
 31
0.0
  0
LINE
  5
140
330
94
100
AcDbEntity
  8
CSLAYER2
  6
CONTINUOUS
 62
     3
100
AcDbLine
 10
443.210557
 20
893.945531
 30
0.0
 11
442.943285
 21
894.092825
 31
0.0
  0
LINE
  5
141
330
94
100
AcDbEntity
  8
CSLAYER2
  6
CONTINUOUS
 62
     3
100
AcDbLine
 10
442.943285
 20
894.092825
 30
0.0
 11
442.677996
 21
894.243242
 31
0.0
  0
LINE
  5
142
330
94
100
AcDbEntity
  8
CSLAYER2
  6
CONTINUOUS
 62
     3
100
AcDbLine
 10
442.677996
 20
894.243242
 30
0.0
 11
442.414715
 21
894.396757
 31
0.0
  0
LINE
  5
143
330
94
100
AcDbEntity
  8
CSLAYER2
  6
CONTINUOUS
 62
     3
100
AcDbLine
 10
442.414715
 20
894.396757
 30
0.0
 11
442.153466
 21
894.553345
 31
0.0
  0
LINE
  5
144
330
94
100
AcDbEntity
  8
CSLAYER2
  6
CONTINUOUS
 62
     3
100
AcDbLine
 10
442.153466
 20
894.553345
 30
0.0
 11
441.894274
 21
894.712981
 31
0.0
  0
LINE
  5
145
330
94
100
AcDbEntity
  8
CSLAYER2
  6
CONTINUOUS
 62
     3
100
AcDbLine
 10
441.894274
 20
894.712981
 30
0.0
 11
441.637164
 21
894.875641
 31
0.0
  0
LINE
  5
146
330
94
100
AcDbEntity
  8
CSLAYER2
  6
CONTINUOUS
 62
     3
100
AcDbLine
 10
441.637164
 20
894.875641
 30
0.0
 11
441.38216
 21
895.0413
 31
0.0
  0
LINE
  5
147
330
94
100
AcDbEntity
  8
CSLAYER2
  6
CONTINUOUS
 62
     3
100
AcDbLine
 10
441.38216
 20
895.0413
 30
0.0
 11
441.129288
 21
895.209932
 31
0.0
  0
LINE
  5
148
330
94
100
AcDbEntity
  8
CSLAYER2
  6
CONTINUOUS
 62
     3
100
AcDbLine
 10
441.129288
 20
895.209932
 30
0.0
 11
440.878572
 21
895.381514
 31
0.0
  0
LINE
  5
149
330
94
100
AcDbEntity
  8
CSLAYER2
  6
CONTINUOUS
 62
     3
100
AcDbLine
 10
440.878572
 20
895.381514
 30
0.0
 11
440.630037
 21
895.556021
 31
0.0
  0
LINE
  5
14A
330
94
100
AcDbEntity
  8
CSLAYER2
  6
CONTINUOUS
 62
     3
100
AcDbLine
 10
440.630037
 20
895.556021
 30
0.0
 11
440.383708
 21
895.733427
 31
0.0
  0
LINE
  5
14B
330
94
100
AcDbEntity
  8
CSLAYER2
  6
CONTINUOUS
 62
     3
100
AcDbLine
 10
440.383708
 20
895.733427
 30
0.0
 11
440.139609
 21
895.913707
 31
0.0
  0
LINE
  5
14C
330
94
100
AcDbEntity
  8
CSLAYER2
  6
CONTINUOUS
 62
     3
100
AcDbLine
 10
440.139609
 20
895.913707
 30
0.0
 11
439.897766
 21
896.096838
 31
0.0
  0
LINE
  5
14D
330
94
100
AcDbEntity
  8
CSLAYER2
  6
CONTINUOUS
 62
     3
100
AcDbLine
 10
439.897766
 20
896.096838
 30
0.0
 11
439.658203
 21
896.282795
 31
0.0
  0
LINE
  5
14E
330
94
100
AcDbEntity
  8
CSLAYER2
  6
CONTINUOUS
 62
     3
100
AcDbLine
 10
439.658203
 20
896.282795
 30
0.0
 11
439.420944
 21
896.471552
 31
0.0
  0
LINE
  5
14F
330
94
100
AcDbEntity
  8
CSLAYER2
  6
CONTINUOUS
 62
     3
100
AcDbLine
 10
439.420944
 20
896.471552
 30
0.0
 11
439.186016
 21
896.663084
 31
0.0
  0
LINE
  5
150
330
94
100
AcDbEntity
  8
CSLAYER2
  6
CONTINUOUS
 62
     3
100
AcDbLine
 10
439.186016
 20
896.663084
 30
0.0
 11
438.953442
 21
896.857368
 31
0.0
  0
LINE
  5
151
330
94
100
AcDbEntity
  8
CSLAYER2
  6
CONTINUOUS
 62
     3
100
AcDbLine
 10
438.953442
 20
896.857368
 30
0.0
 11
438.723247
 21
897.054377
 31
0.0
  0
LINE
  5
152
330
94
100
AcDbEntity
  8
CSLAYER2
  6
CONTINUOUS
 62
     3
100
AcDbLine
 10
438.723247
 20
897.054377
 30
0.0
 11
438.495456
 21
897.254088
 31
0.0
  0
LINE
  5
153
330
94
100
AcDbEntity
  8
CSLAYER2
  6
CONTINUOUS
 62
     3
100
AcDbLine
 10
438.495456
 20
897.254088
 30
0.0
 11
438.270094
 21
897.456476
 31
0.0
  0
LINE
  5
154
330
94
100
AcDbEntity
  8
CSLAYER2
  6
CONTINUOUS
 62
     3
100
AcDbLine
 10
438.270094
 20
897.456476
 30
0.0
 11
438.047185
 21
897.661516
 31
0.0
  0
LINE
  5
155
330
94
100
AcDbEntity
  8
CSLAYER2
  6
CONTINUOUS
 62
     3
100
AcDbLine
 10
438.047185
 20
897.661516
 30
0.0
 11
437.826755
 21
897.869182
 31
0.0
  0
LINE
  5
156
330
94
100
AcDbEntity
  8
CSLAYER2
  6
CONTINUOUS
 62
     3
100
AcDbLine
 10
437.826755
 20
897.869182
 30
0.0
 11
437.608828
 21
898.079451
 31
0.0
  0
LINE
  5
157
330
94
100
AcDbEntity
  8
CSLAYER2
  6
CONTINUOUS
 62
     3
100
AcDbLine
 10
437.608828
 20
898.079451
 30
0.0
 11
437.393429
 21
898.292297
 31
0.0
  0
LINE
  5
158
330
94
100
AcDbEntity
  8
CSLAYER2
  6
CONTINUOUS
 62
     3
100
AcDbLine
 10
437.393429
 20
898.292297
 30
0.0
 11
437.180582
 21
898.507697
 31
0.0
  0
LINE
  5
159
330
94
100
AcDbEntity
  8
CSLAYER2
  6
CONTINUOUS
 62
     3
100
AcDbLine
 10
437.180582
 20
898.507697
 30
0.0
 11
436.970314
 21
898.725624
 31
0.0
  0
LINE
  5
15A
330
94
100
AcDbEntity
  8
CSLAYER2
  6
CONTINUOUS
 62
     3
100
AcDbLine
 10
436.970314
 20
898.725624
 30
0.0
 11
436.762647
 21
898.946054
 31
0.0
  0
LINE
  5
15B
330
94
100
AcDbEntity
  8
CSLAYER2
  6
CONTINUOUS
 62
     3
100
AcDbLine
 10
436.762647
 20
898.946054
 30
0.0
 11
436.557607
 21
899.168962
 31
0.0
  0
LINE
  5
15C
330
94
100
AcDbEntity
  8
CSLAYER2
  6
CONTINUOUS
 62
     3
100
AcDbLine
 10
436.557607
 20
899.168962
 30
0.0
 11
436.35522
 21
899.394324
 31
0.0
  0
LINE
  5
15D
330
94
100
AcDbEntity
  8
CSLAYER2
  6
CONTINUOUS
 62
     3
100
AcDbLine
 10
436.35522
 20
899.394324
 30
0.0
 11
436.155509
 21
899.622115
 31
0.0
  0
LINE
  5
15E
330
94
100
AcDbEntity
  8
CSLAYER2
  6
CONTINUOUS
 62
     3
100
AcDbLine
 10
436.155509
 20
899.622115
 30
0.0
 11
435.958499
 21
899.85231
 31
0.0
  0
LINE
  5
15F
330
94
100
AcDbEntity
  8
CSLAYER2
  6
CONTINUOUS
 62
     3
100
AcDbLine
 10
435.958499
 20
899.85231
 30
0.0
 11
435.764215
 21
900.084884
 31
0.0
  0
LINE
  5
160
330
94
100
AcDbEntity
  8
CSLAYER2
  6
CONTINUOUS
 62
     3
100
AcDbLine
 10
435.764215
 20
900.084884
 30
0.0
 11
435.572683
 21
900.319813
 31
0.0
  0
LINE
  5
161
330
94
100
AcDbEntity
  8
CSLAYER2
  6
CONTINUOUS
 62
     3
100
AcDbLine
 10
435.572683
 20
900.319813
 30
0.0
 11
435.383926
 21
900.557071
 31
0.0
  0
LINE
  5
162
330
94
100
AcDbEntity
  8
CSLAYER2
  6
CONTINUOUS
 62
     3
100
AcDbLine
 10
435.383926
 20
900.557071
 30
0.0
 11
435.19797
 21
900.796635
 31
0.0
  0
LINE
  5
163
330
94
100
AcDbEntity
  8
CSLAYER2
  6
CONTINUOUS
 62
     3
100
AcDbLine
 10
435.19797
 20
900.796635
 30
0.0
 11
435.014839
 21
901.038478
 31
0.0
  0
LINE
  5
164
330
94
100
AcDbEntity
  8
CSLAYER2
  6
CONTINUOUS
 62
     3
100
AcDbLine
 10
435.014839
 20
901.038478
 30
0.0
 11
434.834558
 21
901.282576
 31
0.0
  0
LINE
  5
165
330
94
100
AcDbEntity
  8
CSLAYER2
  6
CONTINUOUS
 62
     3
100
AcDbLine
 10
434.834558
 20
901.282576
 30
0.0
 11
434.657152
 21
901.528906
 31
0.0
  0
LINE
  5
166
330
94
100
AcDbEntity
  8
CSLAYER2
  6
CONTINUOUS
 62
     3
100
AcDbLine
 10
434.657152
 20
901.528906
 30
0.0
 11
434.482646
 21
901.777441
 31
0.0
  0
LINE
  5
167
330
94
100
AcDbEntity
  8
CSLAYER2
  6
CONTINUOUS
 62
     3
100
AcDbLine
 10
434.482646
 20
901.777441
 30
0.0
 11
434.311064
 21
902.028157
 31
0.0
  0
LINE
  5
168
330
94
100
AcDbEntity
  8
CSLAYER2
  6
CONTINUOUS
 62
     3
100
AcDbLine
 10
434.311064
 20
902.028157
 30
0.0
 11
434.142431
 21
902.281029
 31
0.0
  0
LINE
  5
169
330
94
100
AcDbEntity
  8
CSLAYER2
  6
CONTINUOUS
 62
     3
100
AcDbLine
 10
434.142431
 20
902.281029
 30
0.0
 11
433.976772
 21
902.536032
 31
0.0
  0
LINE
  5
16A
330
94
100
AcDbEntity
  8
CSLAYER2
  6
CONTINUOUS
 62
     3
100
AcDbLine
 10
433.976772
 20
902.536032
 30
0.0
 11
433.814113
 21
902.793142
 31
0.0
  0
LINE
  5
16B
330
94
100
AcDbEntity
  8
CSLAYER2
  6
CONTINUOUS
 62
     3
100
AcDbLine
 10
433.814113
 20
902.793142
 30
0.0
 11
433.654476
 21
903.052334
 31
0.0
  0
LINE
  5
16C
330
94
100
AcDbEntity
  8
CSLAYER2
  6
CONTINUOUS
 62
     3
100
AcDbLine
 10
433.654476
 20
903.052334
 30
0.0
 11
433.497888
 21
903.313584
 31
0.0
  0
LINE
  5
16D
330
94
100
AcDbEntity
  8
CSLAYER2
  6
CONTINUOUS
 62
     3
100
AcDbLine
 10
433.497888
 20
903.313584
 30
0.0
 11
433.344373
 21
903.576865
 31
0.0
  0
LINE
  5
16E
330
94
100
AcDbEntity
  8
CSLAYER2
  6
CONTINUOUS
 62
     3
100
AcDbLine
 10
433.344373
 20
903.576865
 30
0.0
 11
433.193957
 21
903.842154
 31
0.0
  0
LINE
  5
16F
330
94
100
AcDbEntity
  8
CSLAYER2
  6
CONTINUOUS
 62
     3
100
AcDbLine
 10
433.193957
 20
903.842154
 30
0.0
 11
433.046662
 21
904.109425
 31
0.0
  0
LINE
  5
170
330
94
100
AcDbEntity
  8
CSLAYER2
  6
CONTINUOUS
 62
     3
100
AcDbLine
 10
433.046662
 20
904.109425
 30
0.0
 11
432.902516
 21
904.378655
 31
0.0
  0
LINE
  5
171
330
94
100
AcDbEntity
  8
CSLAYER2
  6
CONTINUOUS
 62
     3
100
AcDbLine
 10
432.902516
 20
904.378655
 30
0.0
 11
432.761541
 21
904.649818
 31
0.0
  0
LINE
  5
172
330
94
100
AcDbEntity
  8
CSLAYER2
  6
CONTINUOUS
 62
     3
100
AcDbLine
 10
432.761541
 20
904.649818
 30
0.0
 11
432.623764
 21
904.922889
 31
0.0
  0
LINE
  5
173
330
94
100
AcDbEntity
  8
CSLAYER2
  6
CONTINUOUS
 62
     3
100
AcDbLine
 10
432.623764
 20
904.922889
 30
0.0
 11
432.489208
 21
905.197844
 31
0.0
  0
LINE
  5
174
330
94
100
AcDbEntity
  8
CSLAYER2
  6
CONTINUOUS
 62
     3
100
AcDbLine
 10
432.489208
 20
905.197844
 30
0.0
 11
432.357899
 21
905.474657
 31
0.0
  0
LINE
  5
175
330
94
100
AcDbEntity
  8
CSLAYER2
  6
CONTINUOUS
 62
     3
100
AcDbLine
 10
432.357899
 20
905.474657
 30
0.0
 11
432.229861
 21
905.753305
 31
0.0
  0
LINE
  5
176
330
94
100
AcDbEntity
  8
CSLAYER2
  6
CONTINUOUS
 62
     3
100
AcDbLine
 10
432.229861
 20
905.753305
 30
0.0
 11
432.10512
 21
906.033762
 31
0.0
  0
LINE
  5
177
330
94
100
AcDbEntity
  8
CSLAYER2
  6
CONTINUOUS
 62
     3
100
AcDbLine
 10
432.10512
 20
906.033762
 30
0.0
 11
431.983699
 21
906.316003
 31
0.0
  0
LINE
  5
178
330
94
100
AcDbEntity
  8
CSLAYER2
  6
CONTINUOUS
 62
     3
100
AcDbLine
 10
431.983699
 20
906.316003
 30
0.0
 11
431.865625
 21
906.600004
 31
0.0
  0
LINE
  5
179
330
94
100
AcDbEntity
  8
CSLAYER2
  6
CONTINUOUS
 62
     3
100
AcDbLine
 10
431.865625
 20
906.600004
 30
0.0
 11
431.75092
 21
906.88574
 31
0.0
  0
LINE
  5
17A
330
94
100
AcDbEntity
  8
CSLAYER2
  6
CONTINUOUS
 62
     3
100
AcDbLine
 10
431.75092
 20
906.88574
 30
0.0
 11
431.639611
 21
907.173186
 31
0.0
  0
LINE
  5
17B
330
94
100
AcDbEntity
  8
CSLAYER2
  6
CONTINUOUS
 62
     3
100
AcDbLine
 10
431.639611
 20
907.173186
 30
0.0
 11
431.531723
 21
907.462317
 31
0.0
  0
LINE
  5
17C
330
94
100
AcDbEntity
  8
CSLAYER2
  6
CONTINUOUS
 62
     3
100
AcDbLine
 10
431.531723
 20
907.462317
 30
0.0
 11
431.427279
 21
907.753109
 31
0.0
  0
LINE
  5
17D
330
94
100
AcDbEntity
  8
CSLAYER2
  6
CONTINUOUS
 62
     3
100
AcDbLine
 10
431.427279
 20
907.753109
 30
0.0
 11
431.326304
 21
908.045537
 31
0.0
  0
LINE
  5
17E
330
94
100
AcDbEntity
  8
CSLAYER2
  6
CONTINUOUS
 62
     3
100
AcDbLine
 10
431.326304
 20
908.045537
 30
0.0
 11
431.228824
 21
908.339575
 31
0.0
  0
LINE
  5
17F
330
94
100
AcDbEntity
  8
CSLAYER2
  6
CONTINUOUS
 62
     3
100
AcDbLine
 10
431.228824
 20
908.339575
 30
0.0
 11
431.134863
 21
908.6352
 31
0.0
  0
LINE
  5
180
330
94
100
AcDbEntity
  8
CSLAYER2
  6
CONTINUOUS
 62
     3
100
AcDbLine
 10
431.134863
 20
908.6352
 30
0.0
 11
431.044447
 21
908.932387
 31
0.0
  0
LINE
  5
181
330
94
100
AcDbEntity
  8
CSLAYER2
  6
CONTINUOUS
 62
     3
100
AcDbLine
 10
431.044447
 20
908.932387
 30
0.0
 11
430.957599
 21
909.23111
 31
0.0
  0
LINE
  5
182
330
94
100
AcDbEntity
  8
CSLAYER2
  6
CONTINUOUS
 62
     3
100
AcDbLine
 10
430.957599
 20
909.23111
 30
0.0
 11
430.874344
 21
909.531345
 31
0.0
  0
LINE
  5
183
330
94
100
AcDbEntity
  8
CSLAYER2
  6
CONTINUOUS
 62
     3
100
AcDbLine
 10
430.874344
 20
909.531345
 30
0.0
 11
430.794708
 21
909.833067
 31
0.0
  0
LINE
  5
184
330
94
100
AcDbEntity
  8
CSLAYER2
  6
CONTINUOUS
 62
     3
100
AcDbLine
 10
430.794708
 20
909.833067
 30
0.0
 11
430.718715
 21
910.136251
 31
0.0
  0
LINE
  5
185
330
94
100
AcDbEntity
  8
CSLAYER2
  6
CONTINUOUS
 62
     3
100
AcDbLine
 10
430.718715
 20
910.136251
 30
0.0
 11
430.64639
 21
910.440873
 31
0.0
  0
LINE
  5
186
330
94
100
AcDbEntity
  8
CSLAYER2
  6
CONTINUOUS
 62
     3
100
AcDbLine
 10
430.64639
 20
910.440873
 30
0.0
 11
430.577758
 21
910.746907
 31
0.0
  0
LINE
  5
187
330
94
100
AcDbEntity
  8
CSLAYER2
  6
CONTINUOUS
 62
     3
100
AcDbLine
 10
430.577758
 20
910.746907
 30
0.0
 11
430.512843
 21
911.05433
 31
0.0
  0
LINE
  5
188
330
94
100
AcDbEntity
  8
CSLAYER2
  6
CONTINUOUS
 62
     3
100
AcDbLine
 10
430.512843
 20
911.05433
 30
0.0
 11
430.45167
 21
911.363115
 31
0.0
  0
LINE
  5
189
330
94
100
AcDbEntity
  8
CSLAYER2
  6
CONTINUOUS
 62
     3
100
AcDbLine
 10
430.45167
 20
911.363115
 30
0.0
 11
430.394264
 21
911.673239
 31
0.0
  0
LINE
  5
18A
330
94
100
AcDbEntity
  8
CSLAYER2
  6
CONTINUOUS
 62
     3
100
AcDbLine
 10
430.394264
 20
911.673239
 30
0.0
 11
430.34065
 21
911.984677
 31
0.0
  0
LINE
  5
18B
330
94
100
AcDbEntity
  8
CSLAYER2
  6
CONTINUOUS
 62
     3
100
AcDbLine
 10
430.34065
 20
911.984677
 30
0.0
 11
430.290853
 21
912.297404
 31
0.0
  0
LINE
  5
18C
330
94
100
AcDbEntity
  8
CSLAYER2
  6
CONTINUOUS
 62
     3
100
AcDbLine
 10
430.290853
 20
912.297404
 30
0.0
 11
430.244897
 21
912.611394
 31
0.0
  0
LINE
  5
18D
330
94
100
AcDbEntity
  8
CSLAYER2
  6
CONTINUOUS
 62
     3
100
AcDbLine
 10
430.244897
 20
912.611394
 30
0.0
 11
430.202807
 21
912.926624
 31
0.0
  0
LINE
  5
18E
330
94
100
AcDbEntity
  8
CSLAYER2
  6
CONTINUOUS
 62
     3
100
AcDbLine
 10
430.202807
 20
912.926624
 30
0.0
 11
430.164608
 21
913.243068
 31
0.0
  0
LINE
  5
18F
330
94
100
AcDbEntity
  8
CSLAYER2
  6
CONTINUOUS
 62
     3
100
AcDbLine
 10
430.164608
 20
913.243068
 30
0.0
 11
430.130325
 21
913.560702
 31
0.0
  0
LINE
  5
190
330
94
100
AcDbEntity
  8
CSLAYER2
  6
CONTINUOUS
 62
     3
100
AcDbLine
 10
430.130325
 20
913.560702
 30
0.0
 11
430.099983
 21
913.879501
 31
0.0
  0
LINE
  5
191
330
94
100
AcDbEntity
  8
CSLAYER2
  6
CONTINUOUS
 62
     3
100
AcDbLine
 10
430.099983
 20
913.879501
 30
0.0
 11
430.073605
 21
914.19944
 31
0.0
  0
LINE
  5
192
330
94
100
AcDbEntity
  8
CSLAYER2
  6
CONTINUOUS
 62
     3
100
AcDbLine
 10
430.073605
 20
914.19944
 30
0.0
 11
430.051218
 21
914.520495
 31
0.0
  0
LINE
  5
193
330
94
100
AcDbEntity
  8
CSLAYER2
  6
CONTINUOUS
 62
     3
100
AcDbLine
 10
430.051218
 20
914.520495
 30
0.0
 11
430.032846
 21
914.84264
 31
0.0
  0
LINE
  5
194
330
94
100
AcDbEntity
  8
CSLAYER2
  6
CONTINUOUS
 62
     3
100
AcDbLine
 10
430.032846
 20
914.84264
 30
0.0
 11
430.018513
 21
915.165851
 31
0.0
  0
LINE
  5
195
330
94
100
AcDbEntity
  8
CSLAYER2
  6
CONTINUOUS
 62
     3
100
AcDbLine
 10
430.018513
 20
915.165851
 30
0.0
 11
430.008244
 21
915.490103
 31
0.0
  0
LINE
  5
196
330
94
100
AcDbEntity
  8
CSLAYER2
  6
CONTINUOUS
 62
     3
100
AcDbLine
 10
430.008244
 20
915.490103
 30
0.0
 11
430.002065
 21
915.815371
 31
0.0
  0
LINE
  5
197
330
94
100
AcDbEntity
  8
CSLAYER2
  6
CONTINUOUS
 62
     3
100
AcDbLine
 10
430.002065
 20
915.815371
 30
0.0
 11
430.0
 21
916.14163
 31
0.0
  0
LINE
  5
198
330
94
100
AcDbEntity
  8
CSLAYER2
  6
CONTINUOUS
 62
     3
100
AcDbLine
 10
430.0
 20
916.14163
 30
0.0
 11
430.0
 21
920.54375
 31
0.0
  0
LINE
  5
199
330
94
100
AcDbEntity
  8
CSLAYER2
  6
CONTINUOUS
 62
     3
100
AcDbLine
 10
430.0
 20
920.54375
 30
0.0
 11
430.0
 21
1077.242512
 31
0.0
  0
LINE
  5
19A
330
94
100
AcDbEntity
  8
CSLAYER2
  6
CONTINUOUS
 62
     3
100
AcDbLine
 10
430.0
 20
1077.242512
 30
0.0
 11
480.485813
 21
1077.242512
 31
0.0
  0
LINE
  5
19B
330
94
100
AcDbEntity
  8
CSLAYER2
  6
CONTINUOUS
 62
     3
100
AcDbLine
 10
480.485813
 20
1077.242512
 30
0.0
 11
480.485813
 21
920.54375
 31
0.0
  0
LINE
  5
19C
330
94
100
AcDbEntity
  8
CSLAYER2
  6
CONTINUOUS
 62
     3
100
AcDbLine
 10
480.485813
 20
920.54375
 30
0.0
 11
480.485668
 21
916.14163
 31
0.0
  0
ENDBLK
  5
96
330
94
100
AcDbEntity
  8
0
100
AcDbBlockEnd
  0
BLOCK
  5
19E
330
19D
100
AcDbEntity
  8
0
100
AcDbBlockBegin
  2
BLKF015
 70
     0
 10
0.0
 20
0.0
 30
0.0
  3
BLKF015
  1

  0
LINE
  5
1A1
330
19D
100
AcDbEntity
  8
CSLAYER2
  6
CONTINUOUS
 62
     3
100
AcDbLine
 10
532.452448
 20
1042.5943
 30
0.0
 11
532.452448
 21
1077.242512
 31
0.0
  0
LINE
  5
1A2
330
19D
100
AcDbEntity
  8
CSLAYER2
  6
CONTINUOUS
 62
     3
100
AcDbLine
 10
532.452448
 20
1077.242512
 30
0.0
 11
650.0
 21
1077.242512
 31
0.0
  0
LINE
  5
1A3
330
19D
100
AcDbEntity
  8
CSLAYER2
  6
CONTINUOUS
 62
     3
100
AcDbLine
 10
650.0
 20
1077.242512
 30
0.0
 11
650.0
 21
1050.312068
 31
0.0
  0
LINE
  5
1A4
330
19D
100
AcDbEntity
  8
CSLAYER2
  6
CONTINUOUS
 62
     3
100
AcDbLine
 10
650.0
 20
1050.312068
 30
0.0
 11
650.0
 21
1016.893237
 31
0.0
  0
LINE
  5
1A5
330
19D
100
AcDbEntity
  8
CSLAYER2
  6
CONTINUOUS
 62
     3
100
AcDbLine
 10
650.0
 20
1016.893237
 30
0.0
 11
649.998623
 21
1016.675738
 31
0.0
  0
LINE
  5
1A6
330
19D
100
AcDbEntity
  8
CSLAYER2
  6
CONTINUOUS
 62
     3
100
AcDbLine
 10
649.998623
 20
1016.675738
 30
0.0
 11
649.994503
 21
1016.458899
 31
0.0
  0
LINE
  5
1A7
330
19D
100
AcDbEntity
  8
CSLAYER2
  6
CONTINUOUS
 62
     3
100
AcDbLine
 10
649.994503
 20
1016.458899
 30
0.0
 11
649.987658
 21
1016.242737
 31
0.0
  0
LINE
  5
1A8
330
19D
100
AcDbEntity
  8
CSLAYER2
  6
CONTINUOUS
 62
     3
100
AcDbLine
 10
649.987658
 20
1016.242737
 30
0.0
 11
649.978102
 21
1016.02727
 31
0.0
  0
LINE
  5
1A9
330
19D
100
AcDbEntity
  8
CSLAYER2
  6
CONTINUOUS
 62
     3
100
AcDbLine
 10
649.978102
 20
1016.02727
 30
0.0
 11
649.965854
 21
1015.812512
 31
0.0
  0
LINE
  5
1AA
330
19D
100
AcDbEntity
  8
CSLAYER2
  6
CONTINUOUS
 62
     3
100
AcDbLine
 10
649.965854
 20
1015.812512
 30
0.0
 11
649.950928
 21
1015.598482
 31
0.0
  0
LINE
  5
1AB
330
19D
100
AcDbEntity
  8
CSLAYER2
  6
CONTINUOUS
 62
     3
100
AcDbLine
 10
649.950928
 20
1015.598482
 30
0.0
 11
649.933343
 21
1015.385195
 31
0.0
  0
LINE
  5
1AC
330
19D
100
AcDbEntity
  8
CSLAYER2
  6
CONTINUOUS
 62
     3
100
AcDbLine
 10
649.933343
 20
1015.385195
 30
0.0
 11
649.913114
 21
1015.172668
 31
0.0
  0
LINE
  5
1AD
330
19D
100
AcDbEntity
  8
CSLAYER2
  6
CONTINUOUS
 62
     3
100
AcDbLine
 10
649.913114
 20
1015.172668
 30
0.0
 11
649.890258
 21
1014.960917
 31
0.0
  0
LINE
  5
1AE
330
19D
100
AcDbEntity
  8
CSLAYER2
  6
CONTINUOUS
 62
     3
100
AcDbLine
 10
649.890258
 20
1014.960917
 30
0.0
 11
649.864792
 21
1014.749959
 31
0.0
  0
LINE
  5
1AF
330
19D
100
AcDbEntity
  8
CSLAYER2
  6
CONTINUOUS
 62
     3
100
AcDbLine
 10
649.864792
 20
1014.749959
 30
0.0
 11
649.836731
 21
1014.539811
 31
0.0
  0
LINE
  5
1B0
330
19D
100
AcDbEntity
  8
CSLAYER2
  6
CONTINUOUS
 62
     3
100
AcDbLine
 10
649.836731
 20
1014.539811
 30
0.0
 11
649.806093
 21
1014.330489
 31
0.0
  0
LINE
  5
1B1
330
19D
100
AcDbEntity
  8
CSLAYER2
  6
CONTINUOUS
 62
     3
100
AcDbLine
 10
649.806093
 20
1014.330489
 30
0.0
 11
649.772894
 21
1014.122009
 31
0.0
  0
LINE
  5
1B2
330
19D
100
AcDbEntity
  8
CSLAYER2
  6
CONTINUOUS
 62
     3
100
AcDbLine
 10
649.772894
 20
1014.122009
 30
0.0
 11
649.737151
 21
1013.914389
 31
0.0
  0
LINE
  5
1B3
330
19D
100
AcDbEntity
  8
CSLAYER2
  6
CONTINUOUS
 62
     3
100
AcDbLine
 10
649.737151
 20
1013.914389
 30
0.0
 11
649.69888
 21
1013.707644
 31
0.0
  0
LINE
  5
1B4
330
19D
100
AcDbEntity
  8
CSLAYER2
  6
CONTINUOUS
 62
     3
100
AcDbLine
 10
649.69888
 20
1013.707644
 30
0.0
 11
649.658097
 21
1013.501791
 31
0.0
  0
LINE
  5
1B5
330
19D
100
AcDbEntity
  8
CSLAYER2
  6
CONTINUOUS
 62
     3
100
AcDbLine
 10
649.658097
 20
1013.501791
 30
0.0
 11
649.614819
 21
1013.296847
 31
0.0
  0
LINE
  5
1B6
330
19D
100
AcDbEntity
  8
CSLAYER2
  6
CONTINUOUS
 62
     3
100
AcDbLine
 10
649.614819
 20
1013.296847
 30
0.0
 11
649.569064
 21
1013.092828
 31
0.0
  0
LINE
  5
1B7
330
19D
100
AcDbEntity
  8
CSLAYER2
  6
CONTINUOUS
 62
     3
100
AcDbLine
 10
649.569064
 20
1013.092828
 30
0.0
 11
649.520846
 21
1012.889751
 31
0.0
  0
LINE
  5
1B8
330
19D
100
AcDbEntity
  8
CSLAYER2
  6
CONTINUOUS
 62
     3
100
AcDbLine
 10
649.520846
 20
1012.889751
 30
0.0
 11
649.470183
 21
1012.687631
 31
0.0
  0
LINE
  5
1B9
330
19D
100
AcDbEntity
  8
CSLAYER2
  6
CONTINUOUS
 62
     3
100
AcDbLine
 10
649.470183
 20
1012.687631
 30
0.0
 11
649.417091
 21
1012.486487
 31
0.0
  0
LINE
  5
1BA
330
19D
100
AcDbEntity
  8
CSLAYER2
  6
CONTINUOUS
 62
     3
100
AcDbLine
 10
649.417091
 20
1012.486487
 30
0.0
 11
649.361587
 21
1012.286334
 31
0.0
  0
LINE
  5
1BB
330
19D
100
AcDbEntity
  8
CSLAYER2
  6
CONTINUOUS
 62
     3
100
AcDbLine
 10
649.361587
 20
1012.286334
 30
0.0
 11
649.303687
 21
1012.087188
 31
0.0
  0
LINE
  5
1BC
330
19D
100
AcDbEntity
  8
CSLAYER2
  6
CONTINUOUS
 62
     3
100
AcDbLine
 10
649.303687
 20
1012.087188
 30
0.0
 11
649.243408
 21
1011.889067
 31
0.0
  0
LINE
  5
1BD
330
19D
100
AcDbEntity
  8
CSLAYER2
  6
CONTINUOUS
 62
     3
100
AcDbLine
 10
649.243408
 20
1011.889067
 30
0.0
 11
649.180767
 21
1011.691987
 31
0.0
  0
LINE
  5
1BE
330
19D
100
AcDbEntity
  8
CSLAYER2
  6
CONTINUOUS
 62
     3
100
AcDbLine
 10
649.180767
 20
1011.691987
 30
0.0
 11
649.115779
 21
1011.495964
 31
0.0
  0
LINE
  5
1BF
330
19D
100
AcDbEntity
  8
CSLAYER2
  6
CONTINUOUS
 62
     3
100
AcDbLine
 10
649.115779
 20
1011.495964
 30
0.0
 11
649.048461
 21
1011.301015
 31
0.0
  0
LINE
  5
1C0
330
19D
100
AcDbEntity
  8
CSLAYER2
  6
CONTINUOUS
 62
     3
100
AcDbLine
 10
649.048461
 20
1011.301015
 30
0.0
 11
648.978831
 21
1011.107157
 31
0.0
  0
LINE
  5
1C1
330
19D
100
AcDbEntity
  8
CSLAYER2
  6
CONTINUOUS
 62
     3
100
AcDbLine
 10
648.978831
 20
1011.107157
 30
0.0
 11
648.906904
 21
1010.914405
 31
0.0
  0
LINE
  5
1C2
330
19D
100
AcDbEntity
  8
CSLAYER2
  6
CONTINUOUS
 62
     3
100
AcDbLine
 10
648.906904
 20
1010.914405
 30
0.0
 11
648.832696
 21
1010.722777
 31
0.0
  0
LINE
  5
1C3
330
19D
100
AcDbEntity
  8
CSLAYER2
  6
CONTINUOUS
 62
     3
100
AcDbLine
 10
648.832696
 20
1010.722777
 30
0.0
 11
648.756226
 21
1010.532288
 31
0.0
  0
LINE
  5
1C4
330
19D
100
AcDbEntity
  8
CSLAYER2
  6
CONTINUOUS
 62
     3
100
AcDbLine
 10
648.756226
 20
1010.532288
 30
0.0
 11
648.677508
 21
1010.342957
 31
0.0
  0
LINE
  5
1C5
330
19D
100
AcDbEntity
  8
CSLAYER2
  6
CONTINUOUS
 62
     3
100
AcDbLine
 10
648.677508
 20
1010.342957
 30
0.0
 11
648.59656
 21
1010.154798
 31
0.0
  0
LINE
  5
1C6
330
19D
100
AcDbEntity
  8
CSLAYER2
  6
CONTINUOUS
 62
     3
100
AcDbLine
 10
648.59656
 20
1010.154798
 30
0.0
 11
648.513397
 21
1009.967829
 31
0.0
  0
LINE
  5
1C7
330
19D
100
AcDbEntity
  8
CSLAYER2
  6
CONTINUOUS
 62
     3
100
AcDbLine
 10
648.513397
 20
1009.967829
 30
0.0
 11
648.428038
 21
1009.782065
 31
0.0
  0
LINE
  5
1C8
330
19D
100
AcDbEntity
  8
CSLAYER2
  6
CONTINUOUS
 62
     3
100
AcDbLine
 10
648.428038
 20
1009.782065
 30
0.0
 11
648.340497
 21
1009.597525
 31
0.0
  0
LINE
  5
1C9
330
19D
100
AcDbEntity
  8
CSLAYER2
  6
CONTINUOUS
 62
     3
100
AcDbLine
 10
648.340497
 20
1009.597525
 30
0.0
 11
648.250792
 21
1009.414223
 31
0.0
  0
LINE
  5
1CA
330
19D
100
AcDbEntity
  8
CSLAYER2
  6
CONTINUOUS
 62
     3
100
AcDbLine
 10
648.250792
 20
1009.414223
 30
0.0
 11
648.158939
 21
1009.232177
 31
0.0
  0
LINE
  5
1CB
330
19D
100
AcDbEntity
  8
CSLAYER2
  6
CONTINUOUS
 62
     3
100
AcDbLine
 10
648.158939
 20
1009.232177
 30
0.0
 11
648.064955
 21
1009.051404
 31
0.0
  0
LINE
  5
1CC
330
19D
100
AcDbEntity
  8
CSLAYER2
  6
CONTINUOUS
 62
     3
100
AcDbLine
 10
648.064955
 20
1009.051404
 30
0.0
 11
647.968856
 21
1008.871918
 31
0.0
  0
LINE
  5
1CD
330
19D
100
AcDbEntity
  8
CSLAYER2
  6
CONTINUOUS
 62
     3
100
AcDbLine
 10
647.968856
 20
1008.871918
 30
0.0
 11
647.870658
 21
1008.693739
 31
0.0
  0
LINE
  5
1CE
330
19D
100
AcDbEntity
  8
CSLAYER2
  6
CONTINUOUS
 62
     3
100
AcDbLine
 10
647.870658
 20
1008.693739
 30
0.0
 11
647.770379
 21
1008.51688
 31
0.0
  0
LINE
  5
1CF
330
19D
100
AcDbEntity
  8
CSLAYER2
  6
CONTINUOUS
 62
     3
100
AcDbLine
 10
647.770379
 20
1008.51688
 30
0.0
 11
647.668034
 21
1008.341361
 31
0.0
  0
LINE
  5
1D0
330
19D
100
AcDbEntity
  8
CSLAYER2
  6
CONTINUOUS
 62
     3
100
AcDbLine
 10
647.668034
 20
1008.341361
 30
0.0
 11
647.563641
 21
1008.167195
 31
0.0
  0
LINE
  5
1D1
330
19D
100
AcDbEntity
  8
CSLAYER2
  6
CONTINUOUS
 62
     3
100
AcDbLine
 10
647.563641
 20
1008.167195
 30
0.0
 11
647.457216
 21
1007.994402
 31
0.0
  0
LINE
  5
1D2
330
19D
100
AcDbEntity
  8
CSLAYER2
  6
CONTINUOUS
 62
     3
100
AcDbLine
 10
647.457216
 20
1007.994402
 30
0.0
 11
647.348775
 21
1007.822995
 31
0.0
  0
LINE
  5
1D3
330
19D
100
AcDbEntity
  8
CSLAYER2
  6
CONTINUOUS
 62
     3
100
AcDbLine
 10
647.348775
 20
1007.822995
 30
0.0
 11
647.238334
 21
1007.652994
 31
0.0
  0
LINE
  5
1D4
330
19D
100
AcDbEntity
  8
CSLAYER2
  6
CONTINUOUS
 62
     3
100
AcDbLine
 10
647.238334
 20
1007.652994
 30
0.0
 11
647.125911
 21
1007.484413
 31
0.0
  0
LINE
  5
1D5
330
19D
100
AcDbEntity
  8
CSLAYER2
  6
CONTINUOUS
 62
     3
100
AcDbLine
 10
647.125911
 20
1007.484413
 30
0.0
 11
647.011522
 21
1007.317269
 31
0.0
  0
LINE
  5
1D6
330
19D
100
AcDbEntity
  8
CSLAYER2
  6
CONTINUOUS
 62
     3
100
AcDbLine
 10
647.011522
 20
1007.317269
 30
0.0
 11
646.895184
 21
1007.15158
 31
0.0
  0
LINE
  5
1D7
330
19D
100
AcDbEntity
  8
CSLAYER2
  6
CONTINUOUS
 62
     3
100
AcDbLine
 10
646.895184
 20
1007.15158
 30
0.0
 11
646.776912
 21
1006.987361
 31
0.0
  0
LINE
  5
1D8
330
19D
100
AcDbEntity
  8
CSLAYER2
  6
CONTINUOUS
 62
     3
100
AcDbLine
 10
646.776912
 20
1006.987361
 30
0.0
 11
646.656724
 21
1006.824629
 31
0.0
  0
LINE
  5
1D9
330
19D
100
AcDbEntity
  8
CSLAYER2
  6
CONTINUOUS
 62
     3
100
AcDbLine
 10
646.656724
 20
1006.824629
 30
0.0
 11
646.534635
 21
1006.6634
 31
0.0
  0
LINE
  5
1DA
330
19D
100
AcDbEntity
  8
CSLAYER2
  6
CONTINUOUS
 62
     3
100
AcDbLine
 10
646.534635
 20
1006.6634
 30
0.0
 11
646.410663
 21
1006.503691
 31
0.0
  0
LINE
  5
1DB
330
19D
100
AcDbEntity
  8
CSLAYER2
  6
CONTINUOUS
 62
     3
100
AcDbLine
 10
646.410663
 20
1006.503691
 30
0.0
 11
646.284825
 21
1006.345519
 31
0.0
  0
LINE
  5
1DC
330
19D
100
AcDbEntity
  8
CSLAYER2
  6
CONTINUOUS
 62
     3
100
AcDbLine
 10
646.284825
 20
1006.345519
 30
0.0
 11
646.157135
 21
1006.1889
 31
0.0
  0
LINE
  5
1DD
330
19D
100
AcDbEntity
  8
CSLAYER2
  6
CONTINUOUS
 62
     3
100
AcDbLine
 10
646.157135
 20
1006.1889
 30
0.0
 11
646.027612
 21
1006.03385
 31
0.0
  0
LINE
  5
1DE
330
19D
100
AcDbEntity
  8
CSLAYER2
  6
CONTINUOUS
 62
     3
100
AcDbLine
 10
646.027612
 20
1006.03385
 30
0.0
 11
645.896271
 21
1005.880387
 31
0.0
  0
LINE
  5
1DF
330
19D
100
AcDbEntity
  8
CSLAYER2
  6
CONTINUOUS
 62
     3
100
AcDbLine
 10
645.896271
 20
1005.880387
 30
0.0
 11
645.76313
 21
1005.728526
 31
0.0
  0
LINE
  5
1E0
330
19D
100
AcDbEntity
  8
CSLAYER2
  6
CONTINUOUS
 62
     3
100
AcDbLine
 10
645.76313
 20
1005.728526
 30
0.0
 11
645.628204
 21
1005.578284
 31
0.0
  0
LINE
  5
1E1
330
19D
100
AcDbEntity
  8
CSLAYER2
  6
CONTINUOUS
 62
     3
100
AcDbLine
 10
645.628204
 20
1005.578284
 30
0.0
 11
645.49151
 21
1005.429678
 31
0.0
  0
LINE
  5
1E2
330
19D
100
AcDbEntity
  8
CSLAYER2
  6
CONTINUOUS
 62
     3
100
AcDbLine
 10
645.49151
 20
1005.429678
 30
0.0
 11
645.353065
 21
1005.282724
 31
0.0
  0
LINE
  5
1E3
330
19D
100
AcDbEntity
  8
CSLAYER2
  6
CONTINUOUS
 62
     3
100
AcDbLine
 10
645.353065
 20
1005.282724
 30
0.0
 11
645.212885
 21
1005.137439
 31
0.0
  0
LINE
  5
1E4
330
19D
100
AcDbEntity
  8
CSLAYER2
  6
CONTINUOUS
 62
     3
100
AcDbLine
 10
645.212885
 20
1005.137439
 30
0.0
 11
645.070987
 21
1004.993839
 31
0.0
  0
LINE
  5
1E5
330
19D
100
AcDbEntity
  8
CSLAYER2
  6
CONTINUOUS
 62
     3
100
AcDbLine
 10
645.070987
 20
1004.993839
 30
0.0
 11
644.927387
 21
1004.851941
 31
0.0
  0
LINE
  5
1E6
330
19D
100
AcDbEntity
  8
CSLAYER2
  6
CONTINUOUS
 62
     3
100
AcDbLine
 10
644.927387
 20
1004.851941
 30
0.0
 11
644.782102
 21
1004.711761
 31
0.0
  0
LINE
  5
1E7
330
19D
100
AcDbEntity
  8
CSLAYER2
  6
CONTINUOUS
 62
     3
100
AcDbLine
 10
644.782102
 20
1004.711761
 30
0.0
 11
644.635148
 21
1004.573316
 31
0.0
  0
LINE
  5
1E8
330
19D
100
AcDbEntity
  8
CSLAYER2
  6
CONTINUOUS
 62
     3
100
AcDbLine
 10
644.635148
 20
1004.573316
 30
0.0
 11
644.486542
 21
1004.436622
 31
0.0
  0
LINE
  5
1E9
330
19D
100
AcDbEntity
  8
CSLAYER2
  6
CONTINUOUS
 62
     3
100
AcDbLine
 10
644.486542
 20
1004.436622
 30
0.0
 11
644.3363
 21
1004.301696
 31
0.0
  0
LINE
  5
1EA
330
19D
100
AcDbEntity
  8
CSLAYER2
  6
CONTINUOUS
 62
     3
100
AcDbLine
 10
644.3363
 20
1004.301696
 30
0.0
 11
644.184439
 21
1004.168555
 31
0.0
  0
LINE
  5
1EB
330
19D
100
AcDbEntity
  8
CSLAYER2
  6
CONTINUOUS
 62
     3
100
AcDbLine
 10
644.184439
 20
1004.168555
 30
0.0
 11
644.030976
 21
1004.037214
 31
0.0
  0
LINE
  5
1EC
330
19D
100
AcDbEntity
  8
CSLAYER2
  6
CONTINUOUS
 62
     3
100
AcDbLine
 10
644.030976
 20
1004.037214
 30
0.0
 11
643.875926
 21
1003.907691
 31
0.0
  0
LINE
  5
1ED
330
19D
100
AcDbEntity
  8
CSLAYER2
  6
CONTINUOUS
 62
     3
100
AcDbLine
 10
643.875926
 20
1003.907691
 30
0.0
 11
643.719307
 21
1003.780002
 31
0.0
  0
LINE
  5
1EE
330
19D
100
AcDbEntity
  8
CSLAYER2
  6
CONTINUOUS
 62
     3
100
AcDbLine
 10
643.719307
 20
1003.780002
 30
0.0
 11
643.561135
 21
1003.654163
 31
0.0
  0
LINE
  5
1EF
330
19D
100
AcDbEntity
  8
CSLAYER2
  6
CONTINUOUS
 62
     3
100
AcDbLine
 10
643.561135
 20
1003.654163
 30
0.0
 11
643.401426
 21
1003.530191
 31
0.0
  0
LINE
  5
1F0
330
19D
100
AcDbEntity
  8
CSLAYER2
  6
CONTINUOUS
 62
     3
100
AcDbLine
 10
643.401426
 20
1003.530191
 30
0.0
 11
643.240198
 21
1003.408103
 31
0.0
  0
LINE
  5
1F1
330
19D
100
AcDbEntity
  8
CSLAYER2
  6
CONTINUOUS
 62
     3
100
AcDbLine
 10
643.240198
 20
1003.408103
 30
0.0
 11
643.077465
 21
1003.287914
 31
0.0
  0
LINE
  5
1F2
330
19D
100
AcDbEntity
  8
CSLAYER2
  6
CONTINUOUS
 62
     3
100
AcDbLine
 10
643.077465
 20
1003.287914
 30
0.0
 11
642.913246
 21
1003.169643
 31
0.0
  0
LINE
  5
1F3
330
19D
100
AcDbEntity
  8
CSLAYER2
  6
CONTINUOUS
 62
     3
100
AcDbLine
 10
642.913246
 20
1003.169643
 30
0.0
 11
642.747557
 21
1003.053304
 31
0.0
  0
LINE
  5
1F4
330
19D
100
AcDbEntity
  8
CSLAYER2
  6
CONTINUOUS
 62
     3
100
AcDbLine
 10
642.747557
 20
1003.053304
 30
0.0
 11
642.580413
 21
1002.938915
 31
0.0
  0
LINE
  5
1F5
330
19D
100
AcDbEntity
  8
CSLAYER2
  6
CONTINUOUS
 62
     3
100
AcDbLine
 10
642.580413
 20
1002.938915
 30
0.0
 11
642.411832
 21
1002.826492
 31
0.0
  0
LINE
  5
1F6
330
19D
100
AcDbEntity
  8
CSLAYER2
  6
CONTINUOUS
 62
     3
100
AcDbLine
 10
642.411832
 20
1002.826492
 30
0.0
 11
642.241831
 21
1002.716051
 31
0.0
  0
LINE
  5
1F7
330
19D
100
AcDbEntity
  8
CSLAYER2
  6
CONTINUOUS
 62
     3
100
AcDbLine
 10
642.241831
 20
1002.716051
 30
0.0
 11
642.070425
 21
1002.60761
 31
0.0
  0
LINE
  5
1F8
330
19D
100
AcDbEntity
  8
CSLAYER2
  6
CONTINUOUS
 62
     3
100
AcDbLine
 10
642.070425
 20
1002.60761
 30
0.0
 11
641.897631
 21
1002.501185
 31
0.0
  0
LINE
  5
1F9
330
19D
100
AcDbEntity
  8
CSLAYER2
  6
CONTINUOUS
 62
     3
100
AcDbLine
 10
641.897631
 20
1002.501185
 30
0.0
 11
641.723466
 21
1002.396792
 31
0.0
  0
LINE
  5
1FA
330
19D
100
AcDbEntity
  8
CSLAYER2
  6
CONTINUOUS
 62
     3
100
AcDbLine
 10
641.723466
 20
1002.396792
 30
0.0
 11
641.547946
 21
1002.294447
 31
0.0
  0
LINE
  5
1FB
330
19D
100
AcDbEntity
  8
CSLAYER2
  6
CONTINUOUS
 62
     3
100
AcDbLine
 10
641.547946
 20
1002.294447
 30
0.0
 11
641.371088
 21
1002.194168
 31
0.0
  0
LINE
  5
1FC
330
19D
100
AcDbEntity
  8
CSLAYER2
  6
CONTINUOUS
 62
     3
100
AcDbLine
 10
641.371088
 20
1002.194168
 30
0.0
 11
641.192908
 21
1002.095971
 31
0.0
  0
LINE
  5
1FD
330
19D
100
AcDbEntity
  8
CSLAYER2
  6
CONTINUOUS
 62
     3
100
AcDbLine
 10
641.192908
 20
1002.095971
 30
0.0
 11
641.013423
 21
1001.999871
 31
0.0
  0
LINE
  5
1FE
330
19D
100
AcDbEntity
  8
CSLAYER2
  6
CONTINUOUS
 62
     3
100
AcDbLine
 10
641.013423
 20
1001.999871
 30
0.0
 11
640.832649
 21
1001.905887
 31
0.0
  0
LINE
  5
1FF
330
19D
100
AcDbEntity
  8
CSLAYER2
  6
CONTINUOUS
 62
     3
100
AcDbLine
 10
640.832649
 20
1001.905887
 30
0.0
 11
640.650603
 21
1001.814034
 31
0.0
  0
LINE
  5
200
330
19D
100
AcDbEntity
  8
CSLAYER2
  6
CONTINUOUS
 62
     3
100
AcDbLine
 10
640.650603
 20
1001.814034
 30
0.0
 11
640.467301
 21
1001.724329
 31
0.0
  0
LINE
  5
201
330
19D
100
AcDbEntity
  8
CSLAYER2
  6
CONTINUOUS
 62
     3
100
AcDbLine
 10
640.467301
 20
1001.724329
 30
0.0
 11
640.282761
 21
1001.636789
 31
0.0
  0
LINE
  5
202
330
19D
100
AcDbEntity
  8
CSLAYER2
  6
CONTINUOUS
 62
     3
100
AcDbLine
 10
640.282761
 20
1001.636789
 30
0.0
 11
640.096998
 21
1001.551429
 31
0.0
  0
LINE
  5
203
330
19D
100
AcDbEntity
  8
CSLAYER2
  6
CONTINUOUS
 62
     3
100
AcDbLine
 10
640.096998
 20
1001.551429
 30
0.0
 11
639.910028
 21
1001.468267
 31
0.0
  0
LINE
  5
204
330
19D
100
AcDbEntity
  8
CSLAYER2
  6
CONTINUOUS
 62
     3
100
AcDbLine
 10
639.910028
 20
1001.468267
 30
0.0
 11
639.72187
 21
1001.387318
 31
0.0
  0
LINE
  5
205
330
19D
100
AcDbEntity
  8
CSLAYER2
  6
CONTINUOUS
 62
     3
100
AcDbLine
 10
639.72187
 20
1001.387318
 30
0.0
 11
639.532538
 21
1001.308601
 31
0.0
  0
LINE
  5
206
330
19D
100
AcDbEntity
  8
CSLAYER2
  6
CONTINUOUS
 62
     3
100
AcDbLine
 10
639.532538
 20
1001.308601
 30
0.0
 11
639.342049
 21
1001.23213
 31
0.0
  0
LINE
  5
207
330
19D
100
AcDbEntity
  8
CSLAYER2
  6
CONTINUOUS
 62
     3
100
AcDbLine
 10
639.342049
 20
1001.23213
 30
0.0
 11
639.150421
 21
1001.157923
 31
0.0
  0
LINE
  5
208
330
19D
100
AcDbEntity
  8
CSLAYER2
  6
CONTINUOUS
 62
     3
100
AcDbLine
 10
639.150421
 20
1001.157923
 30
0.0
 11
638.95767
 21
1001.085995
 31
0.0
  0
LINE
  5
209
330
19D
100
AcDbEntity
  8
CSLAYER2
  6
CONTINUOUS
 62
     3
100
AcDbLine
 10
638.95767
 20
1001.085995
 30
0.0
 11
638.763811
 21
1001.016365
 31
0.0
  0
LINE
  5
20A
330
19D
100
AcDbEntity
  8
CSLAYER2
  6
CONTINUOUS
 62
     3
100
AcDbLine
 10
638.763811
 20
1001.016365
 30
0.0
 11
638.568862
 21
1000.949047
 31
0.0
  0
LINE
  5
20B
330
19D
100
AcDbEntity
  8
CSLAYER2
  6
CONTINUOUS
 62
     3
100
AcDbLine
 10
638.568862
 20
1000.949047
 30
0.0
 11
638.372839
 21
1000.88406
 31
0.0
  0
LINE
  5
20C
330
19D
100
AcDbEntity
  8
CSLAYER2
  6
CONTINUOUS
 62
     3
100
AcDbLine
 10
638.372839
 20
1000.88406
 30
0.0
 11
638.175759
 21
1000.821418
 31
0.0
  0
LINE
  5
20D
330
19D
100
AcDbEntity
  8
CSLAYER2
  6
CONTINUOUS
 62
     3
100
AcDbLine
 10
638.175759
 20
1000.821418
 30
0.0
 11
637.977638
 21
1000.761139
 31
0.0
  0
LINE
  5
20E
330
19D
100
AcDbEntity
  8
CSLAYER2
  6
CONTINUOUS
 62
     3
100
AcDbLine
 10
637.977638
 20
1000.761139
 30
0.0
 11
637.778492
 21
1000.703239
 31
0.0
  0
LINE
  5
20F
330
19D
100
AcDbEntity
  8
CSLAYER2
  6
CONTINUOUS
 62
     3
100
AcDbLine
 10
637.778492
 20
1000.703239
 30
0.0
 11
637.578339
 21
1000.647735
 31
0.0
  0
LINE
  5
210
330
19D
100
AcDbEntity
  8
CSLAYER2
  6
CONTINUOUS
 62
     3
100
AcDbLine
 10
637.578339
 20
1000.647735
 30
0.0
 11
637.377195
 21
1000.594643
 31
0.0
  0
LINE
  5
211
330
19D
100
AcDbEntity
  8
CSLAYER2
  6
CONTINUOUS
 62
     3
100
AcDbLine
 10
637.377195
 20
1000.594643
 30
0.0
 11
637.175076
 21
1000.54398
 31
0.0
  0
LINE
  5
212
330
19D
100
AcDbEntity
  8
CSLAYER2
  6
CONTINUOUS
 62
     3
100
AcDbLine
 10
637.175076
 20
1000.54398
 30
0.0
 11
636.971998
 21
1000.495763
 31
0.0
  0
LINE
  5
213
330
19D
100
AcDbEntity
  8
CSLAYER2
  6
CONTINUOUS
 62
     3
100
AcDbLine
 10
636.971998
 20
1000.495763
 30
0.0
 11
636.767979
 21
1000.450007
 31
0.0
  0
LINE
  5
214
330
19D
100
AcDbEntity
  8
CSLAYER2
  6
CONTINUOUS
 62
     3
100
AcDbLine
 10
636.767979
 20
1000.450007
 30
0.0
 11
636.563035
 21
1000.406729
 31
0.0
  0
LINE
  5
215
330
19D
100
AcDbEntity
  8
CSLAYER2
  6
CONTINUOUS
 62
     3
100
AcDbLine
 10
636.563035
 20
1000.406729
 30
0.0
 11
636.357182
 21
1000.365946
 31
0.0
  0
LINE
  5
216
330
19D
100
AcDbEntity
  8
CSLAYER2
  6
CONTINUOUS
 62
     3
100
AcDbLine
 10
636.357182
 20
1000.365946
 30
0.0
 11
636.150437
 21
1000.327675
 31
0.0
  0
LINE
  5
217
330
19D
100
AcDbEntity
  8
CSLAYER2
  6
CONTINUOUS
 62
     3
100
AcDbLine
 10
636.150437
 20
1000.327675
 30
0.0
 11
635.942817
 21
1000.291932
 31
0.0
  0
LINE
  5
218
330
19D
100
AcDbEntity
  8
CSLAYER2
  6
CONTINUOUS
 62
     3
100
AcDbLine
 10
635.942817
 20
1000.291932
 30
0.0
 11
635.734337
 21
1000.258733
 31
0.0
  0
LINE
  5
219
330
19D
100
AcDbEntity
  8
CSLAYER2
  6
CONTINUOUS
 62
     3
100
AcDbLine
 10
635.734337
 20
1000.258733
 30
0.0
 11
635.525015
 21
1000.228095
 31
0.0
  0
LINE
  5
21A
330
19D
100
AcDbEntity
  8
CSLAYER2
  6
CONTINUOUS
 62
     3
100
AcDbLine
 10
635.525015
 20
1000.228095
 30
0.0
 11
635.314867
 21
1000.200034
 31
0.0
  0
LINE
  5
21B
330
19D
100
AcDbEntity
  8
CSLAYER2
  6
CONTINUOUS
 62
     3
100
AcDbLine
 10
635.314867
 20
1000.200034
 30
0.0
 11
635.103909
 21
1000.174568
 31
0.0
  0
LINE
  5
21C
330
19D
100
AcDbEntity
  8
CSLAYER2
  6
CONTINUOUS
 62
     3
100
AcDbLine
 10
635.103909
 20
1000.174568
 30
0.0
 11
634.892158
 21
1000.151712
 31
0.0
  0
LINE
  5
21D
330
19D
100
AcDbEntity
  8
CSLAYER2
  6
CONTINUOUS
 62
     3
100
AcDbLine
 10
634.892158
 20
1000.151712
 30
0.0
 11
634.679631
 21
1000.131483
 31
0.0
  0
LINE
  5
21E
330
19D
100
AcDbEntity
  8
CSLAYER2
  6
CONTINUOUS
 62
     3
100
AcDbLine
 10
634.679631
 20
1000.131483
 30
0.0
 11
634.466344
 21
1000.113898
 31
0.0
  0
LINE
  5
21F
330
19D
100
AcDbEntity
  8
CSLAYER2
  6
CONTINUOUS
 62
     3
100
AcDbLine
 10
634.466344
 20
1000.113898
 30
0.0
 11
634.252314
 21
1000.098973
 31
0.0
  0
LINE
  5
220
330
19D
100
AcDbEntity
  8
CSLAYER2
  6
CONTINUOUS
 62
     3
100
AcDbLine
 10
634.252314
 20
1000.098973
 30
0.0
 11
634.037556
 21
1000.086724
 31
0.0
  0
LINE
  5
221
330
19D
100
AcDbEntity
  8
CSLAYER2
  6
CONTINUOUS
 62
     3
100
AcDbLine
 10
634.037556
 20
1000.086724
 30
0.0
 11
633.822089
 21
1000.077169
 31
0.0
  0
LINE
  5
222
330
19D
100
AcDbEntity
  8
CSLAYER2
  6
CONTINUOUS
 62
     3
100
AcDbLine
 10
633.822089
 20
1000.077169
 30
0.0
 11
633.605927
 21
1000.070323
 31
0.0
  0
LINE
  5
223
330
19D
100
AcDbEntity
  8
CSLAYER2
  6
CONTINUOUS
 62
     3
100
AcDbLine
 10
633.605927
 20
1000.070323
 30
0.0
 11
633.389088
 21
1000.066203
 31
0.0
  0
LINE
  5
224
330
19D
100
AcDbEntity
  8
CSLAYER2
  6
CONTINUOUS
 62
     3
100
AcDbLine
 10
633.389088
 20
1000.066203
 30
0.0
 11
633.171589
 21
1000.064826
 31
0.0
  0
LINE
  5
225
330
19D
100
AcDbEntity
  8
CSLAYER2
  6
CONTINUOUS
 62
     3
100
AcDbLine
 10
633.171589
 20
1000.064826
 30
0.0
 11
627.440224
 21
1000.064826
 31
0.0
  0
LINE
  5
226
330
19D
100
AcDbEntity
  8
CSLAYER2
  6
CONTINUOUS
 62
     3
100
AcDbLine
 10
627.440224
 20
1000.064826
 30
0.0
 11
606.068087
 21
1000.064826
 31
0.0
  0
LINE
  5
227
330
19D
100
AcDbEntity
  8
CSLAYER2
  6
CONTINUOUS
 62
     3
100
AcDbLine
 10
606.068087
 20
1000.064826
 30
0.0
 11
586.476828
 21
1000.064826
 31
0.0
  0
LINE
  5
228
330
19D
100
AcDbEntity
  8
CSLAYER2
  6
CONTINUOUS
 62
     3
100
AcDbLine
 10
586.476828
 20
1000.064826
 30
0.0
 11
560.948969
 21
1000.064826
 31
0.0
  0
LINE
  5
229
330
19D
100
AcDbEntity
  8
CSLAYER2
  6
CONTINUOUS
 62
     3
100
AcDbLine
 10
560.948969
 20
1000.064826
 30
0.0
 11
549.280859
 21
1000.064826
 31
0.0
  0
LINE
  5
22A
330
19D
100
AcDbEntity
  8
CSLAYER2
  6
CONTINUOUS
 62
     3
100
AcDbLine
 10
549.280859
 20
1000.064826
 30
0.0
 11
549.06336
 21
1000.066203
 31
0.0
  0
LINE
  5
22B
330
19D
100
AcDbEntity
  8
CSLAYER2
  6
CONTINUOUS
 62
     3
100
AcDbLine
 10
549.06336
 20
1000.066203
 30
0.0
 11
548.846521
 21
1000.070323
 31
0.0
  0
LINE
  5
22C
330
19D
100
AcDbEntity
  8
CSLAYER2
  6
CONTINUOUS
 62
     3
100
AcDbLine
 10
548.846521
 20
1000.070323
 30
0.0
 11
548.630359
 21
1000.077169
 31
0.0
  0
LINE
  5
22D
330
19D
100
AcDbEntity
  8
CSLAYER2
  6
CONTINUOUS
 62
     3
100
AcDbLine
 10
548.630359
 20
1000.077169
 30
0.0
 11
548.414891
 21
1000.086724
 31
0.0
  0
LINE
  5
22E
330
19D
100
AcDbEntity
  8
CSLAYER2
  6
CONTINUOUS
 62
     3
100
AcDbLine
 10
548.414891
 20
1000.086724
 30
0.0
 11
548.200134
 21
1000.098973
 31
0.0
  0
LINE
  5
22F
330
19D
100
AcDbEntity
  8
CSLAYER2
  6
CONTINUOUS
 62
     3
100
AcDbLine
 10
548.200134
 20
1000.098973
 30
0.0
 11
547.986104
 21
1000.113898
 31
0.0
  0
LINE
  5
230
330
19D
100
AcDbEntity
  8
CSLAYER2
  6
CONTINUOUS
 62
     3
100
AcDbLine
 10
547.986104
 20
1000.113898
 30
0.0
 11
547.772817
 21
1000.131483
 31
0.0
  0
LINE
  5
231
330
19D
100
AcDbEntity
  8
CSLAYER2
  6
CONTINUOUS
 62
     3
100
AcDbLine
 10
547.772817
 20
1000.131483
 30
0.0
 11
547.560289
 21
1000.151712
 31
0.0
  0
LINE
  5
232
330
19D
100
AcDbEntity
  8
CSLAYER2
  6
CONTINUOUS
 62
     3
100
AcDbLine
 10
547.560289
 20
1000.151712
 30
0.0
 11
547.348539
 21
1000.174568
 31
0.0
  0
LINE
  5
233
330
19D
100
AcDbEntity
  8
CSLAYER2
  6
CONTINUOUS
 62
     3
100
AcDbLine
 10
547.348539
 20
1000.174568
 30
0.0
 11
547.137581
 21
1000.200034
 31
0.0
  0
LINE
  5
234
330
19D
100
AcDbEntity
  8
CSLAYER2
  6
CONTINUOUS
 62
     3
100
AcDbLine
 10
547.137581
 20
1000.200034
 30
0.0
 11
546.927433
 21
1000.228095
 31
0.0
  0
LINE
  5
235
330
19D
100
AcDbEntity
  8
CSLAYER2
  6
CONTINUOUS
 62
     3
100
AcDbLine
 10
546.927433
 20
1000.228095
 30
0.0
 11
546.718111
 21
1000.258733
 31
0.0
  0
LINE
  5
236
330
19D
100
AcDbEntity
  8
CSLAYER2
  6
CONTINUOUS
 62
     3
100
AcDbLine
 10
546.718111
 20
1000.258733
 30
0.0
 11
546.509631
 21
1000.291932
 31
0.0
  0
LINE
  5
237
330
19D
100
AcDbEntity
  8
CSLAYER2
  6
CONTINUOUS
 62
     3
100
AcDbLine
 10
546.509631
 20
1000.291932
 30
0.0
 11
546.302011
 21
1000.327675
 31
0.0
  0
LINE
  5
238
330
19D
100
AcDbEntity
  8
CSLAYER2
  6
CONTINUOUS
 62
     3
100
AcDbLine
 10
546.302011
 20
1000.327675
 30
0.0
 11
546.095266
 21
1000.365946
 31
0.0
  0
LINE
  5
239
330
19D
100
AcDbEntity
  8
CSLAYER2
  6
CONTINUOUS
 62
     3
100
AcDbLine
 10
546.095266
 20
1000.365946
 30
0.0
 11
545.889413
 21
1000.406729
 31
0.0
  0
LINE
  5
23A
330
19D
100
AcDbEntity
  8
CSLAYER2
  6
CONTINUOUS
 62
     3
100
AcDbLine
 10
545.889413
 20
1000.406729
 30
0.0
 11
545.684469
 21
1000.450007
 31
0.0
  0
LINE
  5
23B
330
19D
100
AcDbEntity
  8
CSLAYER2
  6
CONTINUOUS
 62
     3
100
AcDbLine
 10
545.684469
 20
1000.450007
 30
0.0
 11
545.48045
 21
1000.495763
 31
0.0
  0
LINE
  5
23C
330
19D
100
AcDbEntity
  8
CSLAYER2
  6
CONTINUOUS
 62
     3
100
AcDbLine
 10
545.48045
 20
1000.495763
 30
0.0
 11
545.277372
 21
1000.54398
 31
0.0
  0
LINE
  5
23D
330
19D
100
AcDbEntity
  8
CSLAYER2
  6
CONTINUOUS
 62
     3
100
AcDbLine
 10
545.277372
 20
1000.54398
 30
0.0
 11
545.075253
 21
1000.594643
 31
0.0
  0
LINE
  5
23E
330
19D
100
AcDbEntity
  8
CSLAYER2
  6
CONTINUOUS
 62
     3
100
AcDbLine
 10
545.075253
 20
1000.594643
 30
0.0
 11
544.874109
 21
1000.647735
 31
0.0
  0
LINE
  5
23F
330
19D
100
AcDbEntity
  8
CSLAYER2
  6
CONTINUOUS
 62
     3
100
AcDbLine
 10
544.874109
 20
1000.647735
 30
0.0
 11
544.673956
 21
1000.703239
 31
0.0
  0
LINE
  5
240
330
19D
100
AcDbEntity
  8
CSLAYER2
  6
CONTINUOUS
 62
     3
100
AcDbLine
 10
544.673956
 20
1000.703239
 30
0.0
 11
544.47481
 21
1000.761139
 31
0.0
  0
LINE
  5
241
330
19D
100
AcDbEntity
  8
CSLAYER2
  6
CONTINUOUS
 62
     3
100
AcDbLine
 10
544.47481
 20
1000.761139
 30
0.0
 11
544.276689
 21
1000.821418
 31
0.0
  0
LINE
  5
242
330
19D
100
AcDbEntity
  8
CSLAYER2
  6
CONTINUOUS
 62
     3
100
AcDbLine
 10
544.276689
 20
1000.821418
 30
0.0
 11
544.079609
 21
1000.88406
 31
0.0
  0
LINE
  5
243
330
19D
100
AcDbEntity
  8
CSLAYER2
  6
CONTINUOUS
 62
     3
100
AcDbLine
 10
544.079609
 20
1000.88406
 30
0.0
 11
543.883586
 21
1000.949047
 31
0.0
  0
LINE
  5
244
330
19D
100
AcDbEntity
  8
CSLAYER2
  6
CONTINUOUS
 62
     3
100
AcDbLine
 10
543.883586
 20
1000.949047
 30
0.0
 11
543.688637
 21
1001.016365
 31
0.0
  0
LINE
  5
245
330
19D
100
AcDbEntity
  8
CSLAYER2
  6
CONTINUOUS
 62
     3
100
AcDbLine
 10
543.688637
 20
1001.016365
 30
0.0
 11
543.494778
 21
1001.085995
 31
0.0
  0
LINE
  5
246
330
19D
100
AcDbEntity
  8
CSLAYER2
  6
CONTINUOUS
 62
     3
100
AcDbLine
 10
543.494778
 20
1001.085995
 30
0.0
 11
543.302027
 21
1001.157923
 31
0.0
  0
LINE
  5
247
330
19D
100
AcDbEntity
  8
CSLAYER2
  6
CONTINUOUS
 62
     3
100
AcDbLine
 10
543.302027
 20
1001.157923
 30
0.0
 11
543.110398
 21
1001.23213
 31
0.0
  0
LINE
  5
248
330
19D
100
AcDbEntity
  8
CSLAYER2
  6
CONTINUOUS
 62
     3
100
AcDbLine
 10
543.110398
 20
1001.23213
 30
0.0
 11
542.91991
 21
1001.308601
 31
0.0
  0
LINE
  5
249
330
19D
100
AcDbEntity
  8
CSLAYER2
  6
CONTINUOUS
 62
     3
100
AcDbLine
 10
542.91991
 20
1001.308601
 30
0.0
 11
542.730578
 21
1001.387318
 31
0.0
  0
LINE
  5
24A
330
19D
100
AcDbEntity
  8
CSLAYER2
  6
CONTINUOUS
 62
     3
100
AcDbLine
 10
542.730578
 20
1001.387318
 30
0.0
 11
542.54242
 21
1001.468267
 31
0.0
  0
LINE
  5
24B
330
19D
100
AcDbEntity
  8
CSLAYER2
  6
CONTINUOUS
 62
     3
100
AcDbLine
 10
542.54242
 20
1001.468267
 30
0.0
 11
542.35545
 21
1001.551429
 31
0.0
  0
LINE
  5
24C
330
19D
100
AcDbEntity
  8
CSLAYER2
  6
CONTINUOUS
 62
     3
100
AcDbLine
 10
542.35545
 20
1001.551429
 30
0.0
 11
542.169687
 21
1001.636789
 31
0.0
  0
LINE
  5
24D
330
19D
100
AcDbEntity
  8
CSLAYER2
  6
CONTINUOUS
 62
     3
100
AcDbLine
 10
542.169687
 20
1001.636789
 30
0.0
 11
541.985146
 21
1001.724329
 31
0.0
  0
LINE
  5
24E
330
19D
100
AcDbEntity
  8
CSLAYER2
  6
CONTINUOUS
 62
     3
100
AcDbLine
 10
541.985146
 20
1001.724329
 30
0.0
 11
541.801845
 21
1001.814034
 31
0.0
  0
LINE
  5
24F
330
19D
100
AcDbEntity
  8
CSLAYER2
  6
CONTINUOUS
 62
     3
100
AcDbLine
 10
541.801845
 20
1001.814034
 30
0.0
 11
541.619799
 21
1001.905887
 31
0.0
  0
LINE
  5
250
330
19D
100
AcDbEntity
  8
CSLAYER2
  6
CONTINUOUS
 62
     3
100
AcDbLine
 10
541.619799
 20
1001.905887
 30
0.0
 11
541.439025
 21
1001.999871
 31
0.0
  0
LINE
  5
251
330
19D
100
AcDbEntity
  8
CSLAYER2
  6
CONTINUOUS
 62
     3
100
AcDbLine
 10
541.439025
 20
1001.999871
 30
0.0
 11
541.25954
 21
1002.095971
 31
0.0
  0
LINE
  5
252
330
19D
100
AcDbEntity
  8
CSLAYER2
  6
CONTINUOUS
 62
     3
100
AcDbLine
 10
541.25954
 20
1002.095971
 30
0.0
 11
541.08136
 21
1002.194168
 31
0.0
  0
LINE
  5
253
330
19D
100
AcDbEntity
  8
CSLAYER2
  6
CONTINUOUS
 62
     3
100
AcDbLine
 10
541.08136
 20
1002.194168
 30
0.0
 11
540.904502
 21
1002.294447
 31
0.0
  0
LINE
  5
254
330
19D
100
AcDbEntity
  8
CSLAYER2
  6
CONTINUOUS
 62
     3
100
AcDbLine
 10
540.904502
 20
1002.294447
 30
0.0
 11
540.728982
 21
1002.396792
 31
0.0
  0
LINE
  5
255
330
19D
100
AcDbEntity
  8
CSLAYER2
  6
CONTINUOUS
 62
     3
100
AcDbLine
 10
540.728982
 20
1002.396792
 30
0.0
 11
540.554817
 21
1002.501185
 31
0.0
  0
LINE
  5
256
330
19D
100
AcDbEntity
  8
CSLAYER2
  6
CONTINUOUS
 62
     3
100
AcDbLine
 10
540.554817
 20
1002.501185
 30
0.0
 11
540.382023
 21
1002.60761
 31
0.0
  0
LINE
  5
257
330
19D
100
AcDbEntity
  8
CSLAYER2
  6
CONTINUOUS
 62
     3
100
AcDbLine
 10
540.382023
 20
1002.60761
 30
0.0
 11
540.210617
 21
1002.716051
 31
0.0
  0
LINE
  5
258
330
19D
100
AcDbEntity
  8
CSLAYER2
  6
CONTINUOUS
 62
     3
100
AcDbLine
 10
540.210617
 20
1002.716051
 30
0.0
 11
540.040616
 21
1002.826492
 31
0.0
  0
LINE
  5
259
330
19D
100
AcDbEntity
  8
CSLAYER2
  6
CONTINUOUS
 62
     3
100
AcDbLine
 10
540.040616
 20
1002.826492
 30
0.0
 11
539.872035
 21
1002.938915
 31
0.0
  0
LINE
  5
25A
330
19D
100
AcDbEntity
  8
CSLAYER2
  6
CONTINUOUS
 62
     3
100
AcDbLine
 10
539.872035
 20
1002.938915
 30
0.0
 11
539.704891
 21
1003.053304
 31
0.0
  0
LINE
  5
25B
330
19D
100
AcDbEntity
  8
CSLAYER2
  6
CONTINUOUS
 62
     3
100
AcDbLine
 10
539.704891
 20
1003.053304
 30
0.0
 11
539.539202
 21
1003.169643
 31
0.0
  0
LINE
  5
25C
330
19D
100
AcDbEntity
  8
CSLAYER2
  6
CONTINUOUS
 62
     3
100
AcDbLine
 10
539.539202
 20
1003.169643
 30
0.0
 11
539.374983
 21
1003.287914
 31
0.0
  0
LINE
  5
25D
330
19D
100
AcDbEntity
  8
CSLAYER2
  6
CONTINUOUS
 62
     3
100
AcDbLine
 10
539.374983
 20
1003.287914
 30
0.0
 11
539.21225
 21
1003.408103
 31
0.0
  0
LINE
  5
25E
330
19D
100
AcDbEntity
  8
CSLAYER2
  6
CONTINUOUS
 62
     3
100
AcDbLine
 10
539.21225
 20
1003.408103
 30
0.0
 11
539.051022
 21
1003.530191
 31
0.0
  0
LINE
  5
25F
330
19D
100
AcDbEntity
  8
CSLAYER2
  6
CONTINUOUS
 62
     3
100
AcDbLine
 10
539.051022
 20
1003.530191
 30
0.0
 11
538.891313
 21
1003.654163
 31
0.0
  0
LINE
  5
260
330
19D
100
AcDbEntity
  8
CSLAYER2
  6
CONTINUOUS
 62
     3
100
AcDbLine
 10
538.891313
 20
1003.654163
 30
0.0
 11
538.733141
 21
1003.780002
 31
0.0
  0
LINE
  5
261
330
19D
100
AcDbEntity
  8
CSLAYER2
  6
CONTINUOUS
 62
     3
100
AcDbLine
 10
538.733141
 20
1003.780002
 30
0.0
 11
538.576522
 21
1003.907691
 31
0.0
  0
LINE
  5
262
330
19D
100
AcDbEntity
  8
CSLAYER2
  6
CONTINUOUS
 62
     3
100
AcDbLine
 10
538.576522
 20
1003.907691
 30
0.0
 11
538.421472
 21
1004.037214
 31
0.0
  0
LINE
  5
263
330
19D
100
AcDbEntity
  8
CSLAYER2
  6
CONTINUOUS
 62
     3
100
AcDbLine
 10
538.421472
 20
1004.037214
 30
0.0
 11
538.268009
 21
1004.168555
 31
0.0
  0
LINE
  5
264
330
19D
100
AcDbEntity
  8
CSLAYER2
  6
CONTINUOUS
 62
     3
100
AcDbLine
 10
538.268009
 20
1004.168555
 30
0.0
 11
538.116148
 21
1004.301696
 31
0.0
  0
LINE
  5
265
330
19D
100
AcDbEntity
  8
CSLAYER2
  6
CONTINUOUS
 62
     3
100
AcDbLine
 10
538.116148
 20
1004.301696
 30
0.0
 11
537.965906
 21
1004.436622
 31
0.0
  0
LINE
  5
266
330
19D
100
AcDbEntity
  8
CSLAYER2
  6
CONTINUOUS
 62
     3
100
AcDbLine
 10
537.965906
 20
1004.436622
 30
0.0
 11
537.8173
 21
1004.573316
 31
0.0
  0
LINE
  5
267
330
19D
100
AcDbEntity
  8
CSLAYER2
  6
CONTINUOUS
 62
     3
100
AcDbLine
 10
537.8173
 20
1004.573316
 30
0.0
 11
537.670346
 21
1004.711761
 31
0.0
  0
LINE
  5
268
330
19D
100
AcDbEntity
  8
CSLAYER2
  6
CONTINUOUS
 62
     3
100
AcDbLine
 10
537.670346
 20
1004.711761
 30
0.0
 11
537.525061
 21
1004.851941
 31
0.0
  0
LINE
  5
269
330
19D
100
AcDbEntity
  8
CSLAYER2
  6
CONTINUOUS
 62
     3
100
AcDbLine
 10
537.525061
 20
1004.851941
 30
0.0
 11
537.381461
 21
1004.993839
 31
0.0
  0
LINE
  5
26A
330
19D
100
AcDbEntity
  8
CSLAYER2
  6
CONTINUOUS
 62
     3
100
AcDbLine
 10
537.381461
 20
1004.993839
 30
0.0
 11
537.239563
 21
1005.137439
 31
0.0
  0
LINE
  5
26B
330
19D
100
AcDbEntity
  8
CSLAYER2
  6
CONTINUOUS
 62
     3
100
AcDbLine
 10
537.239563
 20
1005.137439
 30
0.0
 11
537.099383
 21
1005.282724
 31
0.0
  0
LINE
  5
26C
330
19D
100
AcDbEntity
  8
CSLAYER2
  6
CONTINUOUS
 62
     3
100
AcDbLine
 10
537.099383
 20
1005.282724
 30
0.0
 11
536.960938
 21
1005.429678
 31
0.0
  0
LINE
  5
26D
330
19D
100
AcDbEntity
  8
CSLAYER2
  6
CONTINUOUS
 62
     3
100
AcDbLine
 10
536.960938
 20
1005.429678
 30
0.0
 11
536.824244
 21
1005.578284
 31
0.0
  0
LINE
  5
26E
330
19D
100
AcDbEntity
  8
CSLAYER2
  6
CONTINUOUS
 62
     3
100
AcDbLine
 10
536.824244
 20
1005.578284
 30
0.0
 11
536.689318
 21
1005.728526
 31
0.0
  0
LINE
  5
26F
330
19D
100
AcDbEntity
  8
CSLAYER2
  6
CONTINUOUS
 62
     3
100
AcDbLine
 10
536.689318
 20
1005.728526
 30
0.0
 11
536.556177
 21
1005.880387
 31
0.0
  0
LINE
  5
270
330
19D
100
AcDbEntity
  8
CSLAYER2
  6
CONTINUOUS
 62
     3
100
AcDbLine
 10
536.556177
 20
1005.880387
 30
0.0
 11
536.424836
 21
1006.03385
 31
0.0
  0
LINE
  5
271
330
19D
100
AcDbEntity
  8
CSLAYER2
  6
CONTINUOUS
 62
     3
100
AcDbLine
 10
536.424836
 20
1006.03385
 30
0.0
 11
536.295313
 21
1006.1889
 31
0.0
  0
LINE
  5
272
330
19D
100
AcDbEntity
  8
CSLAYER2
  6
CONTINUOUS
 62
     3
100
AcDbLine
 10
536.295313
 20
1006.1889
 30
0.0
 11
536.167623
 21
1006.345519
 31
0.0
  0
LINE
  5
273
330
19D
100
AcDbEntity
  8
CSLAYER2
  6
CONTINUOUS
 62
     3
100
AcDbLine
 10
536.167623
 20
1006.345519
 30
0.0
 11
536.041785
 21
1006.503691
 31
0.0
  0
LINE
  5
274
330
19D
100
AcDbEntity
  8
CSLAYER2
  6
CONTINUOUS
 62
     3
100
AcDbLine
 10
536.041785
 20
1006.503691
 30
0.0
 11
535.917813
 21
1006.6634
 31
0.0
  0
LINE
  5
275
330
19D
100
AcDbEntity
  8
CSLAYER2
  6
CONTINUOUS
 62
     3
100
AcDbLine
 10
535.917813
 20
1006.6634
 30
0.0
 11
535.795724
 21
1006.824629
 31
0.0
  0
LINE
  5
276
330
19D
100
AcDbEntity
  8
CSLAYER2
  6
CONTINUOUS
 62
     3
100
AcDbLine
 10
535.795724
 20
1006.824629
 30
0.0
 11
535.675536
 21
1006.987361
 31
0.0
  0
LINE
  5
277
330
19D
100
AcDbEntity
  8
CSLAYER2
  6
CONTINUOUS
 62
     3
100
AcDbLine
 10
535.675536
 20
1006.987361
 30
0.0
 11
535.557264
 21
1007.15158
 31
0.0
  0
LINE
  5
278
330
19D
100
AcDbEntity
  8
CSLAYER2
  6
CONTINUOUS
 62
     3
100
AcDbLine
 10
535.557264
 20
1007.15158
 30
0.0
 11
535.440926
 21
1007.317269
 31
0.0
  0
LINE
  5
279
330
19D
100
AcDbEntity
  8
CSLAYER2
  6
CONTINUOUS
 62
     3
100
AcDbLine
 10
535.440926
 20
1007.317269
 30
0.0
 11
535.326537
 21
1007.484413
 31
0.0
  0
LINE
  5
27A
330
19D
100
AcDbEntity
  8
CSLAYER2
  6
CONTINUOUS
 62
     3
100
AcDbLine
 10
535.326537
 20
1007.484413
 30
0.0
 11
535.214114
 21
1007.652994
 31
0.0
  0
LINE
  5
27B
330
19D
100
AcDbEntity
  8
CSLAYER2
  6
CONTINUOUS
 62
     3
100
AcDbLine
 10
535.214114
 20
1007.652994
 30
0.0
 11
535.103673
 21
1007.822995
 31
0.0
  0
LINE
  5
27C
330
19D
100
AcDbEntity
  8
CSLAYER2
  6
CONTINUOUS
 62
     3
100
AcDbLine
 10
535.103673
 20
1007.822995
 30
0.0
 11
534.995232
 21
1007.994402
 31
0.0
  0
LINE
  5
27D
330
19D
100
AcDbEntity
  8
CSLAYER2
  6
CONTINUOUS
 62
     3
100
AcDbLine
 10
534.995232
 20
1007.994402
 30
0.0
 11
534.888807
 21
1008.167195
 31
0.0
  0
LINE
  5
27E
330
19D
100
AcDbEntity
  8
CSLAYER2
  6
CONTINUOUS
 62
     3
100
AcDbLine
 10
534.888807
 20
1008.167195
 30
0.0
 11
534.784413
 21
1008.341361
 31
0.0
  0
LINE
  5
27F
330
19D
100
AcDbEntity
  8
CSLAYER2
  6
CONTINUOUS
 62
     3
100
AcDbLine
 10
534.784413
 20
1008.341361
 30
0.0
 11
534.682069
 21
1008.51688
 31
0.0
  0
LINE
  5
280
330
19D
100
AcDbEntity
  8
CSLAYER2
  6
CONTINUOUS
 62
     3
100
AcDbLine
 10
534.682069
 20
1008.51688
 30
0.0
 11
534.58179
 21
1008.693739
 31
0.0
  0
LINE
  5
281
330
19D
100
AcDbEntity
  8
CSLAYER2
  6
CONTINUOUS
 62
     3
100
AcDbLine
 10
534.58179
 20
1008.693739
 30
0.0
 11
534.483592
 21
1008.871918
 31
0.0
  0
LINE
  5
282
330
19D
100
AcDbEntity
  8
CSLAYER2
  6
CONTINUOUS
 62
     3
100
AcDbLine
 10
534.483592
 20
1008.871918
 30
0.0
 11
534.387493
 21
1009.051404
 31
0.0
  0
LINE
  5
283
330
19D
100
AcDbEntity
  8
CSLAYER2
  6
CONTINUOUS
 62
     3
100
AcDbLine
 10
534.387493
 20
1009.051404
 30
0.0
 11
534.293509
 21
1009.232177
 31
0.0
  0
LINE
  5
284
330
19D
100
AcDbEntity
  8
CSLAYER2
  6
CONTINUOUS
 62
     3
100
AcDbLine
 10
534.293509
 20
1009.232177
 30
0.0
 11
534.201656
 21
1009.414223
 31
0.0
  0
LINE
  5
285
330
19D
100
AcDbEntity
  8
CSLAYER2
  6
CONTINUOUS
 62
     3
100
AcDbLine
 10
534.201656
 20
1009.414223
 30
0.0
 11
534.111951
 21
1009.597525
 31
0.0
  0
LINE
  5
286
330
19D
100
AcDbEntity
  8
CSLAYER2
  6
CONTINUOUS
 62
     3
100
AcDbLine
 10
534.111951
 20
1009.597525
 30
0.0
 11
534.02441
 21
1009.782065
 31
0.0
  0
LINE
  5
287
330
19D
100
AcDbEntity
  8
CSLAYER2
  6
CONTINUOUS
 62
     3
100
AcDbLine
 10
534.02441
 20
1009.782065
 30
0.0
 11
533.939051
 21
1009.967829
 31
0.0
  0
LINE
  5
288
330
19D
100
AcDbEntity
  8
CSLAYER2
  6
CONTINUOUS
 62
     3
100
AcDbLine
 10
533.939051
 20
1009.967829
 30
0.0
 11
533.855888
 21
1010.154798
 31
0.0
  0
LINE
  5
289
330
19D
100
AcDbEntity
  8
CSLAYER2
  6
CONTINUOUS
 62
     3
100
AcDbLine
 10
533.855888
 20
1010.154798
 30
0.0
 11
533.77494
 21
1010.342957
 31
0.0
  0
LINE
  5
28A
330
19D
100
AcDbEntity
  8
CSLAYER2
  6
CONTINUOUS
 62
     3
100
AcDbLine
 10
533.77494
 20
1010.342957
 30
0.0
 11
533.696222
 21
1010.532288
 31
0.0
  0
LINE
  5
28B
330
19D
100
AcDbEntity
  8
CSLAYER2
  6
CONTINUOUS
 62
     3
100
AcDbLine
 10
533.696222
 20
1010.532288
 30
0.0
 11
533.619752
 21
1010.722777
 31
0.0
  0
LINE
  5
28C
330
19D
100
AcDbEntity
  8
CSLAYER2
  6
CONTINUOUS
 62
     3
100
AcDbLine
 10
533.619752
 20
1010.722777
 30
0.0
 11
533.545544
 21
1010.914405
 31
0.0
  0
LINE
  5
28D
330
19D
100
AcDbEntity
  8
CSLAYER2
  6
CONTINUOUS
 62
     3
100
AcDbLine
 10
533.545544
 20
1010.914405
 30
0.0
 11
533.473617
 21
1011.107157
 31
0.0
  0
LINE
  5
28E
330
19D
100
AcDbEntity
  8
CSLAYER2
  6
CONTINUOUS
 62
     3
100
AcDbLine
 10
533.473617
 20
1011.107157
 30
0.0
 11
533.403987
 21
1011.301015
 31
0.0
  0
LINE
  5
28F
330
19D
100
AcDbEntity
  8
CSLAYER2
  6
CONTINUOUS
 62
     3
100
AcDbLine
 10
533.403987
 20
1011.301015
 30
0.0
 11
533.336669
 21
1011.495964
 31
0.0
  0
LINE
  5
290
330
19D
100
AcDbEntity
  8
CSLAYER2
  6
CONTINUOUS
 62
     3
100
AcDbLine
 10
533.336669
 20
1011.495964
 30
0.0
 11
533.271681
 21
1011.691987
 31
0.0
  0
LINE
  5
291
330
19D
100
AcDbEntity
  8
CSLAYER2
  6
CONTINUOUS
 62
     3
100
AcDbLine
 10
533.271681
 20
1011.691987
 30
0.0
 11
533.20904
 21
1011.889067
 31
0.0
  0
LINE
  5
292
330
19D
100
AcDbEntity
  8
CSLAYER2
  6
CONTINUOUS
 62
     3
100
AcDbLine
 10
533.20904
 20
1011.889067
 30
0.0
 11
533.148761
 21
1012.087188
 31
0.0
  0
LINE
  5
293
330
19D
100
AcDbEntity
  8
CSLAYER2
  6
CONTINUOUS
 62
     3
100
AcDbLine
 10
533.148761
 20
1012.087188
 30
0.0
 11
533.090861
 21
1012.286334
 31
0.0
  0
LINE
  5
294
330
19D
100
AcDbEntity
  8
CSLAYER2
  6
CONTINUOUS
 62
     3
100
AcDbLine
 10
533.090861
 20
1012.286334
 30
0.0
 11
533.035357
 21
1012.486487
 31
0.0
  0
LINE
  5
295
330
19D
100
AcDbEntity
  8
CSLAYER2
  6
CONTINUOUS
 62
     3
100
AcDbLine
 10
533.035357
 20
1012.486487
 30
0.0
 11
532.982265
 21
1012.687631
 31
0.0
  0
LINE
  5
296
330
19D
100
AcDbEntity
  8
CSLAYER2
  6
CONTINUOUS
 62
     3
100
AcDbLine
 10
532.982265
 20
1012.687631
 30
0.0
 11
532.931602
 21
1012.889751
 31
0.0
  0
LINE
  5
297
330
19D
100
AcDbEntity
  8
CSLAYER2
  6
CONTINUOUS
 62
     3
100
AcDbLine
 10
532.931602
 20
1012.889751
 30
0.0
 11
532.883384
 21
1013.092828
 31
0.0
  0
LINE
  5
298
330
19D
100
AcDbEntity
  8
CSLAYER2
  6
CONTINUOUS
 62
     3
100
AcDbLine
 10
532.883384
 20
1013.092828
 30
0.0
 11
532.837628
 21
1013.296847
 31
0.0
  0
LINE
  5
299
330
19D
100
AcDbEntity
  8
CSLAYER2
  6
CONTINUOUS
 62
     3
100
AcDbLine
 10
532.837628
 20
1013.296847
 30
0.0
 11
532.794351
 21
1013.501791
 31
0.0
  0
LINE
  5
29A
330
19D
100
AcDbEntity
  8
CSLAYER2
  6
CONTINUOUS
 62
     3
100
AcDbLine
 10
532.794351
 20
1013.501791
 30
0.0
 11
532.753568
 21
1013.707644
 31
0.0
  0
LINE
  5
29B
330
19D
100
AcDbEntity
  8
CSLAYER2
  6
CONTINUOUS
 62
     3
100
AcDbLine
 10
532.753568
 20
1013.707644
 30
0.0
 11
532.715297
 21
1013.914389
 31
0.0
  0
LINE
  5
29C
330
19D
100
AcDbEntity
  8
CSLAYER2
  6
CONTINUOUS
 62
     3
100
AcDbLine
 10
532.715297
 20
1013.914389
 30
0.0
 11
532.679554
 21
1014.122009
 31
0.0
  0
LINE
  5
29D
330
19D
100
AcDbEntity
  8
CSLAYER2
  6
CONTINUOUS
 62
     3
100
AcDbLine
 10
532.679554
 20
1014.122009
 30
0.0
 11
532.646355
 21
1014.330489
 31
0.0
  0
LINE
  5
29E
330
19D
100
AcDbEntity
  8
CSLAYER2
  6
CONTINUOUS
 62
     3
100
AcDbLine
 10
532.646355
 20
1014.330489
 30
0.0
 11
532.615717
 21
1014.539811
 31
0.0
  0
LINE
  5
29F
330
19D
100
AcDbEntity
  8
CSLAYER2
  6
CONTINUOUS
 62
     3
100
AcDbLine
 10
532.615717
 20
1014.539811
 30
0.0
 11
532.587656
 21
1014.749959
 31
0.0
  0
LINE
  5
2A0
330
19D
100
AcDbEntity
  8
CSLAYER2
  6
CONTINUOUS
 62
     3
100
AcDbLine
 10
532.587656
 20
1014.749959
 30
0.0
 11
532.56219
 21
1014.960917
 31
0.0
  0
LINE
  5
2A1
330
19D
100
AcDbEntity
  8
CSLAYER2
  6
CONTINUOUS
 62
     3
100
AcDbLine
 10
532.56219
 20
1014.960917
 30
0.0
 11
532.539334
 21
1015.172668
 31
0.0
  0
LINE
  5
2A2
330
19D
100
AcDbEntity
  8
CSLAYER2
  6
CONTINUOUS
 62
     3
100
AcDbLine
 10
532.539334
 20
1015.172668
 30
0.0
 11
532.519105
 21
1015.385195
 31
0.0
  0
LINE
  5
2A3
330
19D
100
AcDbEntity
  8
CSLAYER2
  6
CONTINUOUS
 62
     3
100
AcDbLine
 10
532.519105
 20
1015.385195
 30
0.0
 11
532.50152
 21
1015.598482
 31
0.0
  0
LINE
  5
2A4
330
19D
100
AcDbEntity
  8
CSLAYER2
  6
CONTINUOUS
 62
     3
100
AcDbLine
 10
532.50152
 20
1015.598482
 30
0.0
 11
532.486594
 21
1015.812512
 31
0.0
  0
LINE
  5
2A5
330
19D
100
AcDbEntity
  8
CSLAYER2
  6
CONTINUOUS
 62
     3
100
AcDbLine
 10
532.486594
 20
1015.812512
 30
0.0
 11
532.474346
 21
1016.02727
 31
0.0
  0
LINE
  5
2A6
330
19D
100
AcDbEntity
  8
CSLAYER2
  6
CONTINUOUS
 62
     3
100
AcDbLine
 10
532.474346
 20
1016.02727
 30
0.0
 11
532.46479
 21
1016.242737
 31
0.0
  0
LINE
  5
2A7
330
19D
100
AcDbEntity
  8
CSLAYER2
  6
CONTINUOUS
 62
     3
100
AcDbLine
 10
532.46479
 20
1016.242737
 30
0.0
 11
532.457945
 21
1016.458899
 31
0.0
  0
LINE
  5
2A8
330
19D
100
AcDbEntity
  8
CSLAYER2
  6
CONTINUOUS
 62
     3
100
AcDbLine
 10
532.457945
 20
1016.458899
 30
0.0
 11
532.453825
 21
1016.675738
 31
0.0
  0
LINE
  5
2A9
330
19D
100
AcDbEntity
  8
CSLAYER2
  6
CONTINUOUS
 62
     3
100
AcDbLine
 10
532.453825
 20
1016.675738
 30
0.0
 11
532.452448
 21
1016.893237
 31
0.0
  0
LINE
  5
2AA
330
19D
100
AcDbEntity
  8
CSLAYER2
  6
CONTINUOUS
 62
     3
100
AcDbLine
 10
532.452448
 20
1016.893237
 30
0.0
 11
532.452448
 21
1042.5943
 31
0.0
  0
ENDBLK
  5
19F
330
19D
100
AcDbEntity
  8
0
100
AcDbBlockEnd
  0
ENDSEC
  0
SECTION
  2
ENTITIES
  0
LINE
  5
8E
330
1F
100
AcDbEntity
  8
CSLAYER2
  6
CONTINUOUS
 62
     3
100
AcDbLine
 10
20.0
 20
1377.703623
 30
0.0
 11
900.0
 21
1377.703623
 31
0.0
  0
LINE
  5
8F
330
1F
100
AcDbEntity
  8
CSLAYER2
  6
CONTINUOUS
 62
     3
100
AcDbLine
 10
20.0
 20
1377.703623
 30
0.0
 11
20.0
 21
527.703623
 31
0.0
  0
LINE
  5
90
330
1F
100
AcDbEntity
  8
CSLAYER2
  6
CONTINUOUS
 62
     3
100
AcDbLine
 10
900.0
 20
1377.703623
 30
0.0
 11
900.0
 21
527.703623
 31
0.0
  0
LINE
  5
91
330
1F
100
AcDbEntity
  8
CSLAYER2
  6
CONTINUOUS
 62
     3
100
AcDbLine
 10
20.0
 20
527.703623
 30
0.0
 11
900.0
 21
527.703623
 31
0.0
  0
LINE
  5
92
330
1F
100
AcDbEntity
  8
CSLAYER2
  6
CONTINUOUS
 62
     3
100
AcDbLine
 10
20.0
 20
1077.703623
 30
0.0
 11
900.0
 21
1077.703623
 31
0.0
  0
LINE
  5
93
330
1F
100
AcDbEntity
  8
CSLAYER2
  6
CONTINUOUS
 62
     3
100
AcDbLine
 10
20.0
 20
627.703623
 30
0.0
 11
900.0
 21
627.703623
 31
0.0
  0
INSERT
  5
97
330
1F
100
AcDbEntity
  8
0
100
AcDbBlockReference
  2
BLKF014
 10
0.0
 20
0.0
 30
0.0
  0
INSERT
  5
1A0
330
1F
100
AcDbEntity
  8
0
100
AcDbBlockReference
  2
BLKF015
 10
0.0
 20
0.0
 30
0.0
  0
LINE
  5
2AB
330
1F
100
AcDbEntity
  8
CSLAYER2
  6
CONTINUOUS
 62
     3
100
AcDbLine
 10
1170.925996
 20
1377.703623
 30
0.0
 11
1470.925996
 21
1377.703623
 31
0.0
  0
LINE
  5
2AC
330
1F
100
AcDbEntity
  8
CSLAYER2
  6
CONTINUOUS
 62
     3
100
AcDbLine
 10
1470.925996
 20
527.703623
 30
0.0
 11
1470.925996
 21
1377.703623
 31
0.0
  0
LINE
  5
2AD
330
1F
100
AcDbEntity
  8
CSLAYER2
  6
CONTINUOUS
 62
     3
100
AcDbLine
 10
1190.925996
 20
527.703623
 30
0.0
 11
1470.925996
 21
527.703623
 31
0.0
  0
LINE
  5
2AE
330
1F
100
AcDbEntity
  8
CSLAYER2
  6
CONTINUOUS
 62
     3
100
AcDbLine
 10
1190.925996
 20
527.703623
 30
0.0
 11
1190.925996
 21
1357.703623
 31
0.0
  0
LINE
  5
2AF
330
1F
100
AcDbEntity
  8
CSLAYER2
  6
CONTINUOUS
 62
     3
100
AcDbLine
 10
1178.925996
 20
627.703623
 30
0.0
 11
1190.925996
 21
627.703623
 31
0.0
  0
LINE
  5
2B0
330
1F
100
AcDbEntity
  8
CSLAYER2
  6
CONTINUOUS
 62
     3
100
AcDbLine
 10
1470.925996
 20
627.703623
 30
0.0
 11
1190.925996
 21
627.703623
 31
0.0
  0
LINE
  5
2B1
330
1F
100
AcDbEntity
  8
CSLAYER2
  6
CONTINUOUS
 62
     3
100
AcDbLine
 10
20.0
 20
20.0
 30
0.0
 11
20.0
 21
320.0
 31
0.0
  0
LINE
  5
2B2
330
1F
100
AcDbEntity
  8
CSLAYER2
  6
CONTINUOUS
 62
     3
100
AcDbLine
 10
20.0
 20
320.0
 30
0.0
 11
900.0
 21
320.0
 31
0.0
  0
LINE
  5
2B3
330
1F
100
AcDbEntity
  8
CSLAYER2
  6
CONTINUOUS
 62
     3
100
AcDbLine
 10
20.0
 20
40.0
 30
0.0
 11
900.0
 21
40.0
 31
0.0
  0
LINE
  5
2B4
330
1F
100
AcDbEntity
  8
CSLAYER2
  6
CONTINUOUS
 62
     3
100
AcDbLine
 10
900.0
 20
320.0
 30
0.0
 11
900.0
 21
20.0
 31
0.0
  0
LINE
  5
2B5
330
1F
100
AcDbEntity
  8
CSLAYER2
  6
CONTINUOUS
 62
     3
100
AcDbLine
 10
20.0
 20
20.0
 30
0.0
 11
900.0
 21
20.0
 31
0.0
  0
LINE
  5
2B6
330
1F
100
AcDbEntity
  8
CSLAYER2
  6
CONTINUOUS
 62
     3
100
AcDbLine
 10
20.0
 20
1357.703623
 30
0.0
 11
900.0
 21
1357.703623
 31
0.0
  0
LINE
  5
2B7
330
1F
100
AcDbEntity
  8
CSLAYER2
  6
CONTINUOUS
 62
     3
100
AcDbLine
 10
1470.925996
 20
1357.703623
 30
0.0
 11
1170.925996
 21
1357.703623
 31
0.0
  0
LINE
  5
2B8
330
1F
100
AcDbEntity
  8
CSLAYER2
  6
CONTINUOUS
 62
     3
100
AcDbLine
 10
1170.925996
 20
1377.703623
 30
0.0
 11
1170.925996
 21
1357.703623
 31
0.0
  0
LINE
  5
2B9
330
1F
100
AcDbEntity
  8
CSLAYER2
  6
CONTINUOUS
 62
     3
100
AcDbLine
 10
1170.925996
 20
1357.703623
 30
0.0
 11
1170.925996
 21
1077.703623
 31
0.0
  0
LINE
  5
2BA
330
1F
100
AcDbEntity
  8
CSLAYER2
  6
CONTINUOUS
 62
     3
100
AcDbLine
 10
1170.925996
 20
1077.703623
 30
0.0
 11
1190.925996
 21
1077.703623
 31
0.0
  0
LINE
  5
2BB
330
1F
100
AcDbEntity
  8
CSLAYER2
  6
CONTINUOUS
 62
     3
100
AcDbLine
 10
1178.925996
 20
627.703623
 30
0.0
 11
1178.925996
 21
1077.703623
 31
0.0
  0
ENDSEC
  0
SECTION
  2
OBJECTS
  0
DICTIONARY
  5
C
330
0
100
AcDbDictionary
  3
ACAD_GROUP
350
D
  3
ACAD_LAYOUT
350
1A
  3
ACAD_MATERIAL
350
3B
  3
ACAD_MLEADERSTYLE
350
2BE
  3
ACAD_MLINESTYLE
350
17
  3
ACAD_PLOTSETTINGS
350
19
  3
ACAD_VISUALSTYLE
350
2A
  3
ACDBVARIABLEDICTIONARY
350
2BC
1001
ACAD
1000
TREAT_AS_HARD
1070
     0
  0
DICTIONARY
  5
D
102
{ACAD_REACTORS
330
C
102
}
330
C
100
AcDbDictionary
1001
ACAD
1000
TREAT_AS_HARD
1070
     0
  0
DICTIONARY
  5
1A
102
{ACAD_REACTORS
330
C
102
}
330
C
100
AcDbDictionary
1001
ACAD
1000
TREAT_AS_HARD
1070
     0
  0
DICTIONARY
  5
3B
102
{ACAD_REACTORS
330
C
102
}
330
C
100
AcDbDictionary
  3
BYBLOCK
350
3D
  3
BYLAYER
350
3C
  3
GLOBAL
350
3E
1001
ACAD
1000
TREAT_AS_HARD
1070
     0
  0
DICTIONARY
  5
2BE
102
{ACAD_REACTORS
330
C
102
}
330
C
100
AcDbDictionary
1001
ACAD
1000
TREAT_AS_HARD
1070
     0
  0
DICTIONARY
  5
17
102
{ACAD_REACTORS
330
C
102
}
330
C
100
AcDbDictionary
  3
STANDARD
350
18
1001
ACAD
1000
TREAT_AS_HARD
1070
     0
  0
DICTIONARY
  5
19
102
{ACAD_REACTORS
330
C
102
}
330
C
100
AcDbDictionary
1001
ACAD
1000
TREAT_AS_HARD
1070
     0
  0
DICTIONARY
  5
2A
102
{ACAD_REACTORS
330
C
102
}
330
C
100
AcDbDictionary
  3
2DWIREFRAME
350
2F
  3
3D_HIDDEN
350
31
  3
3DWIREFRAME
350
30
  3
BASIC
350
32
  3
BRIGHTEN
350
36
  3
COLORCHANGE
350
3A
  3
CONCEPTUAL
350
34
  3
DIM
350
35
  3
FACEPATTERN
350
39
  3
FLAT
350
2B
  3
FLATWITHEDGES
350
2C
  3
GOURAUD
350
2D
  3
GOURAUDWITHEDGES
350
2E
  3
LINEPATTERN
350
38
  3
REALISTIC
350
33
  3
THICKEN
350
37
1001
ACAD
1000
TREAT_AS_HARD
1070
     0
  0
DICTIONARY
  5
2BC
102
{ACAD_REACTORS
330
C
102
}
330
C
100
AcDbDictionary
  3
DIMASSOC
350
2C1
  3
HIDETEXT
350
2C2
  3
PSOLHEIGHT
350
2C0
  3
PSOLWIDTH
350
2BF
1001
ACAD
1000
TREAT_AS_HARD
1070
     0
  0
MATERIAL
  5
3D
102
{ACAD_REACTORS
330
3B
102
}
102
{ACAD_XDICTIONARY
360
2C5
102
}
330
3B
100
AcDbMaterial
  1
ByBlock
  0
MATERIAL
  5
3C
102
{ACAD_REACTORS
330
3B
102
}
102
{ACAD_XDICTIONARY
360
2C3
102
}
330
3B
100
AcDbMaterial
  1
ByLayer
  0
MATERIAL
  5
3E
102
{ACAD_REACTORS
330
3B
102
}
102
{ACAD_XDICTIONARY
360
2C7
102
}
330
3B
100
AcDbMaterial
  1
Global
  0
MLINESTYLE
  5
18
102
{ACAD_REACTORS
330
17
102
}
330
17
100
AcDbMlineStyle
  2
Standard
 70
     0
  3

 62
   256
 51
90.0
 52
90.0
 71
     2
 49
0.5
 62
   256
  6
BYLAYER
 49
-0.5
 62
   256
  6
BYLAYER
  0
ACAD_PROXY_OBJECT
  5
2F
102
{ACAD_REACTORS
330
2A
102
}
330
2A
100
AcDbZombieObject
 90
      499
 91
      501
 93
      436
310
42CC9915DA5C99599C985B595049028333333333333E3BF0000000000000FB0107901411070040501600405405064090741402480A0340
1001
ACAD
1000
AcDbSavedByObjectVersion
1070
     0
  0
ACAD_PROXY_OBJECT
  5
31
102
{ACAD_REACTORS
330
2A
102
}
330
2A
100
AcDbZombieObject
 90
      499
 91
      501
 93
      500
310
424CD108121A5919195B90640502408333333333333E3BF0000000000000FB01079024090700405020000000000001110200405405064090740C02480A0340
1001
ACAD
1000
AcDbSavedByObjectVersion
1070
     0
  0
ACAD_PROXY_OBJECT
  5
30
102
{ACAD_REACTORS
330
2A
102
}
330
2A
100
AcDbZombieObject
 90
      499
 91
      501
 93
      436
310
42CCD915DA5C99599C985B595059028333333333333E3BF0000000000000FB0107901411070040501600405405064090741402480A0340
1001
ACAD
1000
AcDbSavedByObjectVersion
1070
     0
  0
ACAD_PROXY_OBJECT
  5
32
102
{ACAD_REACTORS
330
2A
102
}
330
2A
100
AcDbZombieObject
 90
      499
 91
      501
 93
      388
310
4150985CDA58D07406404333333333333E3BF0000000000000FB0107A41107004050150841D405064090741402480A0350
1001
ACAD
1000
AcDbSavedByObjectVersion
1070
     0
  0
ACAD_PROXY_OBJECT
  5
36
102
{ACAD_REACTORS
330
2A
102
}
330
2A
100
AcDbZombieObject
 90
      499
 91
      501
 93
      428
310
42109C9A59DA1D195B90C409028333333333333E3BF0000000000000FB010790141107004050150841D405064090741402480A029950
1001
ACAD
1000
AcDbSavedByObjectVersion
1070
     0
  0
ACAD_PROXY_OBJECT
  5
3A
102
{ACAD_REACTORS
330
2A
102
}
330
2A
100
AcDbZombieObject
 90
      499
 91
      501
 93
      452
310
42D0DBDB1BDC90DA185B99D95104090240C333333333333E3BF0000000000000FB0108901411070040501508421405064090741402480A0350
1001
ACAD
1000
AcDbSavedByObjectVersion
1070
     0
  0
ACAD_PROXY_OBJECT
  5
34
102
{ACAD_REACTORS
330
2A
102
}
330
2A
100
AcDbZombieObject
 90
      499
 91
      501
 93
      500
310
4290DBDB98D95C1D1D585B10940D028333333333333E3BF0000000000000FB0107902409070040501000000000000111010841D405064090740C02480A0340
1001
ACAD
1000
AcDbSavedByObjectVersion
1070
     0
  0
ACAD_PROXY_OBJECT
  5
35
102
{ACAD_REACTORS
330
2A
102
}
330
2A
100
AcDbZombieObject
 90
      499
 91
      501
 93
      412
310
40D11A5B50B409028333333333333E3BF0000000000000FB010790141107004050150841D405064090741402480A02677FFFFFD0
1001
ACAD
1000
AcDbSavedByObjectVersion
1070
     0
  0
ACAD_PROXY_OBJECT
  5
39
102
{ACAD_REACTORS
330
2A
102
}
330
2A
100
AcDbZombieObject
 90
      499
 91
      501
 93
      444
310
42D19858D95C185D1D195C9B90F409028333333333333E3BF0000000000000FB010790141107004050150841D405064090741402480A0350
1001
ACAD
1000
AcDbSavedByObjectVersion
1070
     0
  0
ACAD_PROXY_OBJECT
  5
2B
102
{ACAD_REACTORS
330
2A
102
}
330
2A
100
AcDbZombieObject
 90
      499
 91
      501
 93
      388
310
41119B185D240901404333333333333E3BF0000000000000F9010740A41107004050150841D405064090741402480A1B50
1001
ACAD
1000
AcDbSavedByObjectVersion
1070
     0
  0
ACAD_PROXY_OBJECT
  5
2C
102
{ACAD_REACTORS
330
2A
102
}
330
2A
100
AcDbZombieObject
 90
      499
 91
      501
 93
      476
310
43519B185D15DA5D1A115919D95CD0140901404333333333333E3BF0000000000000F9010740901411070040501600405405064090741402480A1B50
1001
ACAD
1000
AcDbSavedByObjectVersion
1070
     0
  0
ACAD_PROXY_OBJECT
  5
2D
102
{ACAD_REACTORS
330
2A
102
}
330
2A
100
AcDbZombieObject
 90
      499
 91
      501
 93
      412
310
41D1DBDD5C985D5910240902404333333333333E3BF0000000000000F9010740A411070040501641D405064090741402480A1B50
1001
ACAD
1000
AcDbSavedByObjectVersion
1070
     0
  0
ACAD_PROXY_OBJECT
  5
2E
102
{ACAD_REACTORS
330
2A
102
}
330
2A
100
AcDbZombieObject
 90
      499
 91
      501
 93
      500
310
4411DBDD5C985D5915DA5D1A115919D95CD0340902404333333333333E3BF0000000000000F9010740901411070040501600405405064090741402480A1B50
1001
ACAD
1000
AcDbSavedByObjectVersion
1070
     0
  0
ACAD_PROXY_OBJECT
  5
38
102
{ACAD_REACTORS
330
2A
102
}
330
2A
100
AcDbZombieObject
 90
      499
 91
      501
 93
      444
310
42D31A5B995C185D1D195C9B90E409028333333333333E3BF0000000000000FB010790141107004050750841D405064090741402483A0350
1001
ACAD
1000
AcDbSavedByObjectVersion
1070
     0
  0
ACAD_PROXY_OBJECT
  5
33
102
{ACAD_REACTORS
330
2A
102
}
330
2A
100
AcDbZombieObject
 90
      499
 91
      501
 93
      420
310
425499585B1A5CDD1A58D08409028333333333333E3BF0000000000000FB01079019070040501508421405064090741402480A1B40
1001
ACAD
1000
AcDbSavedByObjectVersion
1070
     0
  0
ACAD_PROXY_OBJECT
  5
37
102
{ACAD_REACTORS
330
2A
102
}
330
2A
100
AcDbZombieObject
 90
      499
 91
      501
 93
      412
310
41D51A1A58DAD95B90D409028333333333333E3BF0000000000000FB010790141107004050150C41D405064090741402480A0350
1001
ACAD
1000
AcDbSavedByObjectVersion
1070
     0
  0
DICTIONARYVAR
  5
2C1
102
{ACAD_REACTORS
330
2BC
102
}
330
2BC
100
DictionaryVariables
280
     0
  1
2
  0
DICTIONARYVAR
  5
2C2
102
{ACAD_REACTORS
330
2BC
102
}
330
2BC
100
DictionaryVariables
280
     0
  1
1
  0
DICTIONARYVAR
  5
2C0
102
{ACAD_REACTORS
330
2BC
102
}
330
2BC
100
DictionaryVariables
280
     0
  1
80.000000
  0
DICTIONARYVAR
  5
2BF
102
{ACAD_REACTORS
330
2BC
102
}
330
2BC
100
DictionaryVariables
280
     0
  1
5.000000
  0
DICTIONARY
  5
2C5
330
3D
100
AcDbDictionary
  3
ACAD_XREC_ROUNDTRIP
360
2C6
1001
ACAD
1000
TREAT_AS_HARD
1070
     1
  0
DICTIONARY
  5
2C3
330
3C
100
AcDbDictionary
  3
ACAD_XREC_ROUNDTRIP
360
2C4
1001
ACAD
1000
TREAT_AS_HARD
1070
     1
  0
DICTIONARY
  5
2C7
330
3E
100
AcDbDictionary
  3
ACAD_XREC_ROUNDTRIP
360
2C8
1001
ACAD
1000
TREAT_AS_HARD
1070
     1
  0
XRECORD
  5
2C6
102
{ACAD_REACTORS
330
2C5
102
}
330
2C5
100
AcDbXrecord
102
MATERIAL
148
0.0
149
0.0
149
0.0
 93
        0
 94
      127
282
     0
 72
     1
 77
     1
171
     1
175
     1
179
     1
273
     0
  0
XRECORD
  5
2C4
102
{ACAD_REACTORS
330
2C3
102
}
330
2C3
100
AcDbXrecord
102
MATERIAL
148
0.0
149
0.0
149
0.0
 93
        0
 94
      127
282
     0
 72
     1
 77
     1
171
     1
175
     1
179
     1
273
     0
  0
XRECORD
  5
2C8
102
{ACAD_REACTORS
330
2C7
102
}
330
2C7
100
AcDbXrecord
102
MATERIAL
148
0.0
149
0.0
149
0.0
 93
        0
 94
      127
282
     0
 72
     1
 77
     1
171
     1
175
     1
179
     1
273
     0
  0
ENDSEC
  0
EOF
