  0
SECTION
  2
HEADER
  9
$ACADVER
  1
AC1009
  9
$EXTMIN
 10
0.0
 20
0.0
 30
0.0
  9
$EXTMAX
 10
1000.0
 20
1000.0
 30
0.0
  9
$FILLMODE
 70
 0
  9
$SPLFRAME
 70
 1
  0
ENDSEC
  0
SECTION
  2
TABLES
  0
TABLE
  2
LAYER
 70
1
  0
LAYER
  2
0
 70
     0
 62
     7
  6
CONTINUOUS
  0
ENDTAB
  0
ENDSEC
  0
SECTION
  2
ENTITIES
  0
LINE
  8
0
 62
     250
 10
1892.29
 20
324.85
 30
0.0
 11
1892.25
 21
323.171
 31
0.0
  0
LINE
  8
0
 62
     250
 10
1892.25
 20
323.171
 30
0.0
 11
1892.1
 21
318.127
 31
0.0
  0
LINE
  8
0
 62
     250
 10
1892.1
 20
318.127
 30
0.0
 11
1891.82
 21
310.855
 31
0.0
  0
LINE
  8
0
 62
     250
 10
1891.82
 20
310.855
 30
0.0
 11
1891.39
 21
303.021
 31
0.0
  0
LINE
  8
0
 62
     250
 10
1891.39
 20
303.021
 30
0.0
 11
1890.77
 21
294.609
 31
0.0
  0
LINE
  8
0
 62
     250
 10
1890.77
 20
294.609
 30
0.0
 11
1889.88
 21
285.605
 31
0.0
  0
LINE
  8
0
 62
     250
 10
1889.88
 20
285.605
 30
0.0
 11
1888.67
 21
275.994
 31
0.0
  0
LINE
  8
0
 62
     250
 10
1888.67
 20
275.994
 30
0.0
 11
1887.07
 21
265.762
 31
0.0
  0
LINE
  8
0
 62
     250
 10
1887.07
 20
265.762
 30
0.0
 11
1885.59
 21
257.601
 31
0.0
  0
LINE
  8
0
 62
     250
 10
1885.59
 20
257.601
 30
0.0
 11
1885.04
 21
254.891
 31
0.0
  0
LINE
  8
0
 62
     250
 10
1885.04
 20
254.891
 30
0.0
 11
1884.49
 21
252.196
 31
0.0
  0
LINE
  8
0
 62
     250
 10
1884.49
 20
252.196
 30
0.0
 11
1882.75
 21
244.128
 31
0.0
  0
LINE
  8
0
 62
     250
 10
1882.75
 20
244.128
 30
0.0
 11
1880.37
 21
234.083
 31
0.0
  0
LINE
  8
0
 62
     250
 10
1880.37
 20
234.083
 30
0.0
 11
1877.79
 21
224.55
 31
0.0
  0
LINE
  8
0
 62
     250
 10
1877.79
 20
224.55
 30
0.0
 11
1874.94
 21
215.324
 31
0.0
  0
LINE
  8
0
 62
     250
 10
1874.94
 20
215.324
 30
0.0
 11
1871.71
 21
206.2
 31
0.0
  0
LINE
  8
0
 62
     250
 10
1871.71
 20
206.2
 30
0.0
 11
1868.01
 21
196.971
 31
0.0
  0
LINE
  8
0
 62
     250
 10
1868.01
 20
196.971
 30
0.0
 11
1863.75
 21
187.43
 31
0.0
  0
LINE
  8
0
 62
     250
 10
1863.75
 20
187.43
 30
0.0
 11
1860.11
 21
179.868
 31
0.0
  0
LINE
  8
0
 62
     250
 10
1860.11
 20
179.868
 30
0.0
 11
1858.84
 21
177.373
 31
0.0
  0
LINE
  8
0
 62
     250
 10
1858.84
 20
177.373
 30
0.0
 11
1856.21
 21
172.205
 31
0.0
  0
LINE
  8
0
 62
     250
 10
1856.21
 20
172.205
 30
0.0
 11
1847.56
 21
157.095
 31
0.0
  0
LINE
  8
0
 62
     250
 10
1847.56
 20
157.095
 30
0.0
 11
1834.84
 21
137.492
 31
0.0
  0
LINE
  8
0
 62
     250
 10
1834.84
 20
137.492
 30
0.0
 11
1820.72
 21
118.109
 31
0.0
  0
LINE
  8
0
 62
     250
 10
1820.72
 20
118.109
 30
0.0
 11
1809.18
 21
103.338
 31
0.0
  0
LINE
  8
0
 62
     250
 10
1809.18
 20
103.338
 30
0.0
 11
1805.24
 21
98.4871
 31
0.0
  0
LINE
  8
0
 62
     250
 10
1805.24
 20
98.4871
 30
0.0
 11
1803.18
 21
95.9527
 31
0.0
  0
LINE
  8
0
 62
     250
 10
1803.18
 20
95.9527
 30
0.0
 11
1796.67
 21
88.6273
 31
0.0
  0
LINE
  8
0
 62
     250
 10
1796.67
 20
88.6273
 30
0.0
 11
1787.26
 21
79.0166
 31
0.0
  0
LINE
  8
0
 62
     250
 10
1787.26
 20
79.0166
 30
0.0
 11
1777.27
 21
69.7727
 31
0.0
  0
LINE
  8
0
 62
     250
 10
1777.27
 20
69.7727
 30
0.0
 11
1766.97
 21
61.0126
 31
0.0
  0
LINE
  8
0
 62
     250
 10
1766.97
 20
61.0126
 30
0.0
 11
1756.6
 21
52.8532
 31
0.0
  0
LINE
  8
0
 62
     250
 10
1756.6
 20
52.8532
 30
0.0
 11
1746.42
 21
45.4106
 31
0.0
  0
LINE
  8
0
 62
     250
 10
1746.42
 20
45.4106
 30
0.0
 11
1736.7
 21
38.8041
 31
0.0
  0
LINE
  8
0
 62
     250
 10
1736.7
 20
38.8041
 30
0.0
 11
1729.97
 21
34.5157
 31
0.0
  0
LINE
  8
0
 62
     250
 10
1729.97
 20
34.5157
 30
0.0
 11
1727.69
 21
33.1473
 31
0.0
  0
LINE
  8
0
 62
     250
 10
1727.69
 20
33.1473
 30
0.0
 11
1725.49
 21
31.8258
 31
0.0
  0
LINE
  8
0
 62
     250
 10
1725.49
 20
31.8258
 30
0.0
 11
1718.68
 21
28.1767
 31
0.0
  0
LINE
  8
0
 62
     250
 10
1718.68
 20
28.1767
 30
0.0
 11
1708.99
 21
23.5686
 31
0.0
  0
LINE
  8
0
 62
     250
 10
1708.99
 20
23.5686
 30
0.0
 11
1698.88
 21
19.3669
 31
0.0
  0
LINE
  8
0
 62
     250
 10
1698.88
 20
19.3669
 30
0.0
 11
1688.63
 21
15.609
 31
0.0
  0
LINE
  8
0
 62
     250
 10
1688.63
 20
15.609
 30
0.0
 11
1678.5
 21
12.3376
 31
0.0
  0
LINE
  8
0
 62
     250
 10
1678.5
 20
12.3376
 30
0.0
 11
1668.77
 21
9.58977
 31
0.0
  0
LINE
  8
0
 62
     250
 10
1668.77
 20
9.58977
 30
0.0
 11
1659.69
 21
7.40833
 31
0.0
  0
LINE
  8
0
 62
     250
 10
1659.69
 20
7.40833
 30
0.0
 11
1653.59
 21
6.17224
 31
0.0
  0
LINE
  8
0
 62
     250
 10
1653.59
 20
6.17224
 30
0.0
 11
1651.55
 21
5.83188
 31
0.0
  0
LINE
  8
0
 62
     250
 10
1651.55
 20
5.83188
 30
0.0
 11
1647.91
 21
5.22827
 31
0.0
  0
LINE
  8
0
 62
     250
 10
1647.91
 20
5.22827
 30
0.0
 11
1636.95
 21
3.79236
 31
0.0
  0
LINE
  8
0
 62
     250
 10
1636.95
 20
3.79236
 30
0.0
 11
1623.34
 21
2.61276
 31
0.0
  0
LINE
  8
0
 62
     250
 10
1623.34
 20
2.61276
 30
0.0
 11
1610.47
 21
2.14147
 31
0.0
  0
LINE
  8
0
 62
     250
 10
1610.47
 20
2.14147
 30
0.0
 11
1601.2
 21
2.14974
 31
0.0
  0
LINE
  8
0
 62
     250
 10
1601.2
 20
2.14974
 30
0.0
 11
1598.12
 21
2.22966
 31
0.0
  0
LINE
  8
0
 62
     250
 10
1598.12
 20
2.22966
 30
0.0
 11
1596.57
 21
2.27101
 31
0.0
  0
LINE
  8
0
 62
     250
 10
1596.57
 20
2.27101
 30
0.0
 11
1591.92
 21
2.4846
 31
0.0
  0
LINE
  8
0
 62
     250
 10
1591.92
 20
2.4846
 30
0.0
 11
1585.48
 21
2.96278
 31
0.0
  0
LINE
  8
0
 62
     250
 10
1585.48
 20
2.96278
 30
0.0
 11
1578.75
 21
3.71242
 31
0.0
  0
LINE
  8
0
 62
     250
 10
1578.75
 20
3.71242
 30
0.0
 11
1571.67
 21
4.7818
 31
0.0
  0
LINE
  8
0
 62
     250
 10
1571.67
 20
4.7818
 30
0.0
 11
1564.18
 21
6.21908
 31
0.0
  0
LINE
  8
0
 62
     250
 10
1564.18
 20
6.21908
 30
0.0
 11
1556.25
 21
8.07392
 31
0.0
  0
LINE
  8
0
 62
     250
 10
1556.25
 20
8.07392
 30
0.0
 11
1547.81
 21
10.3945
 31
0.0
  0
LINE
  8
0
 62
     250
 10
1547.81
 20
10.3945
 30
0.0
 11
1541.05
 21
12.4823
 31
0.0
  0
LINE
  8
0
 62
     250
 10
1541.05
 20
12.4823
 30
0.0
 11
1538.81
 21
13.2292
 31
0.0
  0
LINE
  8
0
 62
     250
 10
1538.81
 20
13.2292
 30
0.0
 11
1537.68
 21
13.6081
 31
0.0
  0
LINE
  8
0
 62
     250
 10
1537.68
 20
13.6081
 30
0.0
 11
1534.3
 21
14.7726
 31
0.0
  0
LINE
  8
0
 62
     250
 10
1534.3
 20
14.7726
 30
0.0
 11
1530.02
 21
16.3105
 31
0.0
  0
LINE
  8
0
 62
     250
 10
1530.02
 20
16.3105
 30
0.0
 11
1525.95
 21
17.8663
 31
0.0
  0
LINE
  8
0
 62
     250
 10
1525.95
 20
17.8663
 30
0.0
 11
1522.04
 21
19.4662
 31
0.0
  0
LINE
  8
0
 62
     250
 10
1522.04
 20
19.4662
 30
0.0
 11
1518.25
 21
21.1336
 31
0.0
  0
LINE
  8
0
 62
     250
 10
1518.25
 20
21.1336
 30
0.0
 11
1514.55
 21
22.892
 31
0.0
  0
LINE
  8
0
 62
     250
 10
1514.55
 20
22.892
 30
0.0
 11
1510.89
 21
24.7675
 31
0.0
  0
LINE
  8
0
 62
     250
 10
1510.89
 20
24.7675
 30
0.0
 11
1507.24
 21
26.7836
 31
0.0
  0
LINE
  8
0
 62
     250
 10
1507.24
 20
26.7836
 30
0.0
 11
1503.55
 21
28.9664
 31
0.0
  0
LINE
  8
0
 62
     250
 10
1503.55
 20
28.9664
 30
0.0
 11
1499.79
 21
31.3366
 31
0.0
  0
LINE
  8
0
 62
     250
 10
1499.79
 20
31.3366
 30
0.0
 11
1495.92
 21
33.9218
 31
0.0
  0
LINE
  8
0
 62
     250
 10
1495.92
 20
33.9218
 30
0.0
 11
1491.9
 21
36.7467
 31
0.0
  0
LINE
  8
0
 62
     250
 10
1491.9
 20
36.7467
 30
0.0
 11
1487.7
 21
39.8336
 31
0.0
  0
LINE
  8
0
 62
     250
 10
1487.7
 20
39.8336
 30
0.0
 11
1483.26
 21
43.2082
 31
0.0
  0
LINE
  8
0
 62
     250
 10
1483.26
 20
43.2082
 30
0.0
 11
1478.55
 21
46.8947
 31
0.0
  0
LINE
  8
0
 62
     250
 10
1478.55
 20
46.8947
 30
0.0
 11
1474.79
 21
49.9043
 31
0.0
  0
LINE
  8
0
 62
     250
 10
1474.79
 20
49.9043
 30
0.0
 11
1473.54
 21
50.9157
 31
0.0
  0
LINE
  8
0
 62
     250
 10
1473.54
 20
50.9157
 30
0.0
 11
1472.22
 21
51.9878
 31
0.0
  0
LINE
  8
0
 62
     250
 10
1472.22
 20
51.9878
 30
0.0
 11
1468.35
 21
55.3131
 31
0.0
  0
LINE
  8
0
 62
     250
 10
1468.35
 20
55.3131
 30
0.0
 11
1463.14
 21
60.0576
 31
0.0
  0
LINE
  8
0
 62
     250
 10
1463.14
 20
60.0576
 30
0.0
 11
1457.95
 21
65.0861
 31
0.0
  0
LINE
  8
0
 62
     250
 10
1457.95
 20
65.0861
 30
0.0
 11
1452.82
 21
70.3255
 31
0.0
  0
LINE
  8
0
 62
     250
 10
1452.82
 20
70.3255
 30
0.0
 11
1447.79
 21
75.7107
 31
0.0
  0
LINE
  8
0
 62
     250
 10
1447.79
 20
75.7107
 30
0.0
 11
1442.88
 21
81.1735
 31
0.0
  0
LINE
  8
0
 62
     250
 10
1442.88
 20
81.1735
 30
0.0
 11
1438.12
 21
86.644
 31
0.0
  0
LINE
  8
0
 62
     250
 10
1438.12
 20
86.644
 30
0.0
 11
1433.57
 21
92.0542
 31
0.0
  0
LINE
  8
0
 62
     250
 10
1433.57
 20
92.0542
 30
0.0
 11
1429.25
 21
97.3377
 31
0.0
  0
LINE
  8
0
 62
     250
 10
1429.25
 20
97.3377
 30
0.0
 11
1425.19
 21
102.423
 31
0.0
  0
LINE
  8
0
 62
     250
 10
1425.19
 20
102.423
 30
0.0
 11
1421.44
 21
107.244
 31
0.0
  0
LINE
  8
0
 62
     250
 10
1421.44
 20
107.244
 30
0.0
 11
1418.02
 21
111.733
 31
0.0
  0
LINE
  8
0
 62
     250
 10
1418.02
 20
111.733
 30
0.0
 11
1414.97
 21
115.82
 31
0.0
  0
LINE
  8
0
 62
     250
 10
1414.97
 20
115.82
 30
0.0
 11
1412.32
 21
119.439
 31
0.0
  0
LINE
  8
0
 62
     250
 10
1412.32
 20
119.439
 30
0.0
 11
1410.12
 21
122.519
 31
0.0
  0
LINE
  8
0
 62
     250
 10
1410.12
 20
122.519
 30
0.0
 11
1408.82
 21
124.372
 31
0.0
  0
LINE
  8
0
 62
     250
 10
1408.82
 20
124.372
 30
0.0
 11
1408.39
 21
124.992
 31
0.0
  0
LINE
  8
0
 62
     250
 10
1408.39
 20
124.992
 30
0.0
 11
1407.98
 21
125.586
 31
0.0
  0
LINE
  8
0
 62
     250
 10
1407.98
 20
125.586
 30
0.0
 11
1406.84
 21
127.424
 31
0.0
  0
LINE
  8
0
 62
     250
 10
1406.84
 20
127.424
 30
0.0
 11
1405.16
 21
130.377
 31
0.0
  0
LINE
  8
0
 62
     250
 10
1405.16
 20
130.377
 30
0.0
 11
1403.37
 21
133.781
 31
0.0
  0
LINE
  8
0
 62
     250
 10
1403.37
 20
133.781
 30
0.0
 11
1401.51
 21
137.567
 31
0.0
  0
LINE
  8
0
 62
     250
 10
1401.51
 20
137.567
 30
0.0
 11
1399.59
 21
141.664
 31
0.0
  0
LINE
  8
0
 62
     250
 10
1399.59
 20
141.664
 30
0.0
 11
1397.65
 21
146.004
 31
0.0
  0
LINE
  8
0
 62
     250
 10
1397.65
 20
146.004
 30
0.0
 11
1395.7
 21
150.519
 31
0.0
  0
LINE
  8
0
 62
     250
 10
1395.7
 20
150.519
 30
0.0
 11
1393.78
 21
155.137
 31
0.0
  0
LINE
  8
0
 62
     250
 10
1393.78
 20
155.137
 30
0.0
 11
1391.9
 21
159.789
 31
0.0
  0
LINE
  8
0
 62
     250
 10
1391.9
 20
159.789
 30
0.0
 11
1390.1
 21
164.407
 31
0.0
  0
LINE
  8
0
 62
     250
 10
1390.1
 20
164.407
 30
0.0
 11
1388.4
 21
168.92
 31
0.0
  0
LINE
  8
0
 62
     250
 10
1388.4
 20
168.92
 30
0.0
 11
1386.82
 21
173.259
 31
0.0
  0
LINE
  8
0
 62
     250
 10
1386.82
 20
173.259
 30
0.0
 11
1385.39
 21
177.356
 31
0.0
  0
LINE
  8
0
 62
     250
 10
1385.39
 20
177.356
 30
0.0
 11
1384.13
 21
181.139
 31
0.0
  0
LINE
  8
0
 62
     250
 10
1384.13
 20
181.139
 30
0.0
 11
1383.08
 21
184.541
 31
0.0
  0
LINE
  8
0
 62
     250
 10
1383.08
 20
184.541
 30
0.0
 11
1382.44
 21
186.75
 31
0.0
  0
LINE
  8
0
 62
     250
 10
1382.44
 20
186.75
 30
0.0
 11
1382.25
 21
187.49
 31
0.0
  0
LINE
  8
0
 62
     250
 10
1382.25
 20
187.49
 30
0.0
 11
1382.05
 21
188.24
 31
0.0
  0
LINE
  8
0
 62
     250
 10
1382.05
 20
188.24
 30
0.0
 11
1381.51
 21
190.504
 31
0.0
  0
LINE
  8
0
 62
     250
 10
1381.51
 20
190.504
 30
0.0
 11
1380.73
 21
194.105
 31
0.0
  0
LINE
  8
0
 62
     250
 10
1380.73
 20
194.105
 30
0.0
 11
1379.92
 21
198.236
 31
0.0
  0
LINE
  8
0
 62
     250
 10
1379.92
 20
198.236
 30
0.0
 11
1379.09
 21
202.843
 31
0.0
  0
LINE
  8
0
 62
     250
 10
1379.09
 20
202.843
 30
0.0
 11
1378.24
 21
207.87
 31
0.0
  0
LINE
  8
0
 62
     250
 10
1378.24
 20
207.87
 30
0.0
 11
1377.38
 21
213.26
 31
0.0
  0
LINE
  8
0
 62
     250
 10
1377.38
 20
213.26
 30
0.0
 11
1376.52
 21
218.958
 31
0.0
  0
LINE
  8
0
 62
     250
 10
1376.52
 20
218.958
 30
0.0
 11
1375.67
 21
224.908
 31
0.0
  0
LINE
  8
0
 62
     250
 10
1375.67
 20
224.908
 30
0.0
 11
1374.85
 21
231.056
 31
0.0
  0
LINE
  8
0
 62
     250
 10
1374.85
 20
231.056
 30
0.0
 11
1374.05
 21
237.342
 31
0.0
  0
LINE
  8
0
 62
     250
 10
1374.05
 20
237.342
 30
0.0
 11
1373.29
 21
243.716
 31
0.0
  0
LINE
  8
0
 62
     250
 10
1373.29
 20
243.716
 30
0.0
 11
1372.58
 21
250.117
 31
0.0
  0
LINE
  8
0
 62
     250
 10
1372.58
 20
250.117
 30
0.0
 11
1371.92
 21
256.492
 31
0.0
  0
LINE
  8
0
 62
     250
 10
1371.92
 20
256.492
 30
0.0
 11
1371.32
 21
262.783
 31
0.0
  0
LINE
  8
0
 62
     250
 10
1371.32
 20
262.783
 30
0.0
 11
1370.8
 21
268.938
 31
0.0
  0
LINE
  8
0
 62
     250
 10
1370.8
 20
268.938
 30
0.0
 11
1370.47
 21
273.408
 31
0.0
  0
LINE
  8
0
 62
     250
 10
1370.47
 20
273.408
 30
0.0
 11
1370.37
 21
274.898
 31
0.0
  0
LINE
  8
0
 62
     250
 10
1370.37
 20
274.898
 30
0.0
 11
1370.16
 21
277.879
 31
0.0
  0
LINE
  8
0
 62
     250
 10
1370.16
 20
277.879
 30
0.0
 11
1369.68
 21
286.828
 31
0.0
  0
LINE
  8
0
 62
     250
 10
1369.68
 20
286.828
 30
0.0
 11
1369.21
 21
299.142
 31
0.0
  0
LINE
  8
0
 62
     250
 10
1369.21
 20
299.142
 30
0.0
 11
1368.96
 21
311.699
 31
0.0
  0
LINE
  8
0
 62
     250
 10
1368.96
 20
311.699
 30
0.0
 11
1368.92
 21
324.353
 31
0.0
  0
LINE
  8
0
 62
     250
 10
1368.92
 20
324.353
 30
0.0
 11
1369.1
 21
336.962
 31
0.0
  0
LINE
  8
0
 62
     250
 10
1369.1
 20
336.962
 30
0.0
 11
1369.5
 21
349.384
 31
0.0
  0
LINE
  8
0
 62
     250
 10
1369.5
 20
349.384
 30
0.0
 11
1370.13
 21
361.474
 31
0.0
  0
LINE
  8
0
 62
     250
 10
1370.13
 20
361.474
 30
0.0
 11
1370.74
 21
370.191
 31
0.0
  0
LINE
  8
0
 62
     250
 10
1370.74
 20
370.191
 30
0.0
 11
1370.99
 21
373.087
 31
0.0
  0
LINE
  8
0
 62
     250
 10
1370.99
 20
373.087
 30
0.0
 11
1371.25
 21
376.051
 31
0.0
  0
LINE
  8
0
 62
     250
 10
1371.25
 20
376.051
 30
0.0
 11
1372.15
 21
384.93
 31
0.0
  0
LINE
  8
0
 62
     250
 10
1372.15
 20
384.93
 30
0.0
 11
1373.64
 21
397.521
 31
0.0
  0
LINE
  8
0
 62
     250
 10
1373.64
 20
397.521
 30
0.0
 11
1375.38
 21
410.478
 31
0.0
  0
LINE
  8
0
 62
     250
 10
1375.38
 20
410.478
 30
0.0
 11
1377.31
 21
423.4
 31
0.0
  0
LINE
  8
0
 62
     250
 10
1377.31
 20
423.4
 30
0.0
 11
1379.36
 21
435.896
 31
0.0
  0
LINE
  8
0
 62
     250
 10
1379.36
 20
435.896
 30
0.0
 11
1381.46
 21
447.573
 31
0.0
  0
LINE
  8
0
 62
     250
 10
1381.46
 20
447.573
 30
0.0
 11
1383.54
 21
458.033
 31
0.0
  0
LINE
  8
0
 62
     250
 10
1383.54
 20
458.033
 30
0.0
 11
1385
 21
464.682
 31
0.0
  0
LINE
  8
0
 62
     250
 10
1385
 20
464.682
 30
0.0
 11
1385.53
 21
466.887
 31
0.0
  0
LINE
  8
0
 62
     250
 10
1385.53
 20
466.887
 30
0.0
 11
1386.01
 21
468.877
 31
0.0
  0
LINE
  8
0
 62
     250
 10
1386.01
 20
468.877
 30
0.0
 11
1387.72
 21
474.775
 31
0.0
  0
LINE
  8
0
 62
     250
 10
1387.72
 20
474.775
 30
0.0
 11
1390.4
 21
482.565
 31
0.0
  0
LINE
  8
0
 62
     250
 10
1390.4
 20
482.565
 30
0.0
 11
1393.49
 21
490.185
 31
0.0
  0
LINE
  8
0
 62
     250
 10
1393.49
 20
490.185
 30
0.0
 11
1396.95
 21
497.582
 31
0.0
  0
LINE
  8
0
 62
     250
 10
1396.95
 20
497.582
 30
0.0
 11
1400.7
 21
504.694
 31
0.0
  0
LINE
  8
0
 62
     250
 10
1400.7
 20
504.694
 30
0.0
 11
1404.69
 21
511.454
 31
0.0
  0
LINE
  8
0
 62
     250
 10
1404.69
 20
511.454
 30
0.0
 11
1408.86
 21
517.8
 31
0.0
  0
LINE
  8
0
 62
     250
 10
1408.86
 20
517.8
 30
0.0
 11
1412.03
 21
522.231
 31
0.0
  0
LINE
  8
0
 62
     250
 10
1412.03
 20
522.231
 30
0.0
 11
1413.14
 21
523.674
 31
0.0
  0
LINE
  8
0
 62
     250
 10
1413.14
 20
523.674
 30
0.0
 11
1414.24
 21
525.117
 31
0.0
  0
LINE
  8
0
 62
     250
 10
1414.24
 20
525.117
 30
0.0
 11
1417.71
 21
529.343
 31
0.0
  0
LINE
  8
0
 62
     250
 10
1417.71
 20
529.343
 30
0.0
 11
1422.83
 21
535.051
 31
0.0
  0
LINE
  8
0
 62
     250
 10
1422.83
 20
535.051
 30
0.0
 11
1428.51
 21
540.688
 31
0.0
  0
LINE
  8
0
 62
     250
 10
1428.51
 20
540.688
 30
0.0
 11
1434.76
 21
546.149
 31
0.0
  0
LINE
  8
0
 62
     250
 10
1434.76
 20
546.149
 30
0.0
 11
1441.61
 21
551.328
 31
0.0
  0
LINE
  8
0
 62
     250
 10
1441.61
 20
551.328
 30
0.0
 11
1449.07
 21
556.115
 31
0.0
  0
LINE
  8
0
 62
     250
 10
1449.07
 20
556.115
 30
0.0
 11
1457.15
 21
560.412
 31
0.0
  0
LINE
  8
0
 62
     250
 10
1457.15
 20
560.412
 30
0.0
 11
1463.65
 21
563.28
 31
0.0
  0
LINE
  8
0
 62
     250
 10
1463.65
 20
563.28
 30
0.0
 11
1465.87
 21
564.102
 31
0.0
  0
LINE
  8
0
 62
     250
 10
1465.87
 20
564.102
 30
0.0
 11
1467.04
 21
564.54
 31
0.0
  0
LINE
  8
0
 62
     250
 10
1467.04
 20
564.54
 30
0.0
 11
1470.62
 21
565.739
 31
0.0
  0
LINE
  8
0
 62
     250
 10
1470.62
 20
565.739
 30
0.0
 11
1475.79
 21
567.291
 31
0.0
  0
LINE
  8
0
 62
     250
 10
1475.79
 20
567.291
 30
0.0
 11
1481.29
 21
568.759
 31
0.0
  0
LINE
  8
0
 62
     250
 10
1481.29
 20
568.759
 30
0.0
 11
1487.05
 21
570.138
 31
0.0
  0
LINE
  8
0
 62
     250
 10
1487.05
 20
570.138
 30
0.0
 11
1493
 21
571.436
 31
0.0
  0
LINE
  8
0
 62
     250
 10
1493
 20
571.436
 30
0.0
 11
1499.06
 21
572.647
 31
0.0
  0
LINE
  8
0
 62
     250
 10
1499.06
 20
572.647
 30
0.0
 11
1505.15
 21
573.772
 31
0.0
  0
LINE
  8
0
 62
     250
 10
1505.15
 20
573.772
 30
0.0
 11
1511.2
 21
574.809
 31
0.0
  0
LINE
  8
0
 62
     250
 10
1511.2
 20
574.809
 30
0.0
 11
1517.14
 21
575.762
 31
0.0
  0
LINE
  8
0
 62
     250
 10
1517.14
 20
575.762
 30
0.0
 11
1522.89
 21
576.629
 31
0.0
  0
LINE
  8
0
 62
     250
 10
1522.89
 20
576.629
 30
0.0
 11
1528.38
 21
577.405
 31
0.0
  0
LINE
  8
0
 62
     250
 10
1528.38
 20
577.405
 30
0.0
 11
1533.53
 21
578.097
 31
0.0
  0
LINE
  8
0
 62
     250
 10
1533.53
 20
578.097
 30
0.0
 11
1538.26
 21
578.7
 31
0.0
  0
LINE
  8
0
 62
     250
 10
1538.26
 20
578.7
 30
0.0
 11
1542.5
 21
579.215
 31
0.0
  0
LINE
  8
0
 62
     250
 10
1542.5
 20
579.215
 30
0.0
 11
1546.17
 21
579.642
 31
0.0
  0
LINE
  8
0
 62
     250
 10
1546.17
 20
579.642
 30
0.0
 11
1548.45
 21
579.896
 31
0.0
  0
LINE
  8
0
 62
     250
 10
1548.45
 20
579.896
 30
0.0
 11
1549.21
 21
579.981
 31
0.0
  0
LINE
  8
0
 62
     250
 10
1549.21
 20
579.981
 30
0.0
 11
1550.73
 21
580.147
 31
0.0
  0
LINE
  8
0
 62
     250
 10
1550.73
 20
580.147
 30
0.0
 11
1555.3
 21
580.535
 31
0.0
  0
LINE
  8
0
 62
     250
 10
1555.3
 20
580.535
 30
0.0
 11
1562.57
 21
581.014
 31
0.0
  0
LINE
  8
0
 62
     250
 10
1562.57
 20
581.014
 30
0.0
 11
1570.62
 21
581.417
 31
0.0
  0
LINE
  8
0
 62
     250
 10
1570.62
 20
581.417
 30
0.0
 11
1579.05
 21
581.734
 31
0.0
  0
LINE
  8
0
 62
     250
 10
1579.05
 20
581.734
 30
0.0
 11
1587.48
 21
581.96
 31
0.0
  0
LINE
  8
0
 62
     250
 10
1587.48
 20
581.96
 30
0.0
 11
1595.52
 21
582.087
 31
0.0
  0
LINE
  8
0
 62
     250
 10
1595.52
 20
582.087
 30
0.0
 11
1602.77
 21
582.112
 31
0.0
  0
LINE
  8
0
 62
     250
 10
1602.77
 20
582.112
 30
0.0
 11
1607.33
 21
582.069
 31
0.0
  0
LINE
  8
0
 62
     250
 10
1607.33
 20
582.069
 30
0.0
 11
1608.85
 21
582.027
 31
0.0
  0
LINE
  8
0
 62
     250
 10
1608.85
 20
582.027
 30
0.0
 11
1609.6
 21
582.009
 31
0.0
  0
LINE
  8
0
 62
     250
 10
1609.6
 20
582.009
 30
0.0
 11
1611.86
 21
581.914
 31
0.0
  0
LINE
  8
0
 62
     250
 10
1611.86
 20
581.914
 30
0.0
 11
1615.46
 21
581.713
 31
0.0
  0
LINE
  8
0
 62
     250
 10
1615.46
 20
581.713
 30
0.0
 11
1619.59
 21
581.431
 31
0.0
  0
LINE
  8
0
 62
     250
 10
1619.59
 20
581.431
 30
0.0
 11
1624.16
 21
581.078
 31
0.0
  0
LINE
  8
0
 62
     250
 10
1624.16
 20
581.078
 30
0.0
 11
1629.1
 21
580.655
 31
0.0
  0
LINE
  8
0
 62
     250
 10
1629.1
 20
580.655
 30
0.0
 11
1634.33
 21
580.175
 31
0.0
  0
LINE
  8
0
 62
     250
 10
1634.33
 20
580.175
 30
0.0
 11
1639.79
 21
579.639
 31
0.0
  0
LINE
  8
0
 62
     250
 10
1639.79
 20
579.639
 30
0.0
 11
1645.37
 21
579.06
 31
0.0
  0
LINE
  8
0
 62
     250
 10
1645.37
 20
579.06
 30
0.0
 11
1651.03
 21
578.436
 31
0.0
  0
LINE
  8
0
 62
     250
 10
1651.03
 20
578.436
 30
0.0
 11
1656.67
 21
577.779
 31
0.0
  0
LINE
  8
0
 62
     250
 10
1656.67
 20
577.779
 30
0.0
 11
1662.23
 21
577.095
 31
0.0
  0
LINE
  8
0
 62
     250
 10
1662.23
 20
577.095
 30
0.0
 11
1667.62
 21
576.389
 31
0.0
  0
LINE
  8
0
 62
     250
 10
1667.62
 20
576.389
 30
0.0
 11
1672.77
 21
575.666
 31
0.0
  0
LINE
  8
0
 62
     250
 10
1672.77
 20
575.666
 30
0.0
 11
1677.6
 21
574.94
 31
0.0
  0
LINE
  8
0
 62
     250
 10
1677.6
 20
574.94
 30
0.0
 11
1682.03
 21
574.209
 31
0.0
  0
LINE
  8
0
 62
     250
 10
1682.03
 20
574.209
 30
0.0
 11
1685.01
 21
573.673
 31
0.0
  0
LINE
  8
0
 62
     250
 10
1685.01
 20
573.673
 30
0.0
 11
1686
 21
573.479
 31
0.0
  0
LINE
  8
0
 62
     250
 10
1686
 20
573.479
 30
0.0
 11
1687.95
 21
573.102
 31
0.0
  0
LINE
  8
0
 62
     250
 10
1687.95
 20
573.102
 30
0.0
 11
1693.81
 21
571.93
 31
0.0
  0
LINE
  8
0
 62
     250
 10
1693.81
 20
571.93
 30
0.0
 11
1702.3
 21
570.191
 31
0.0
  0
LINE
  8
0
 62
     250
 10
1702.3
 20
570.191
 30
0.0
 11
1711.24
 21
568.286
 31
0.0
  0
LINE
  8
0
 62
     250
 10
1711.24
 20
568.286
 30
0.0
 11
1720.43
 21
566.24
 31
0.0
  0
LINE
  8
0
 62
     250
 10
1720.43
 20
566.24
 30
0.0
 11
1729.66
 21
564.085
 31
0.0
  0
LINE
  8
0
 62
     250
 10
1729.66
 20
564.085
 30
0.0
 11
1738.71
 21
561.844
 31
0.0
  0
LINE
  8
0
 62
     250
 10
1738.71
 20
561.844
 30
0.0
 11
1747.37
 21
559.548
 31
0.0
  0
LINE
  8
0
 62
     250
 10
1747.37
 20
559.548
 30
0.0
 11
1753.43
 21
557.826
 31
0.0
  0
LINE
  8
0
 62
     250
 10
1753.43
 20
557.826
 30
0.0
 11
1755.44
 21
557.216
 31
0.0
  0
LINE
  8
0
 62
     250
 10
1755.44
 20
557.216
 30
0.0
 11
1757.44
 21
556.609
 31
0.0
  0
LINE
  8
0
 62
     250
 10
1757.44
 20
556.609
 30
0.0
 11
1763.39
 21
554.665
 31
0.0
  0
LINE
  8
0
 62
     250
 10
1763.39
 20
554.665
 30
0.0
 11
1771.7
 21
551.706
 31
0.0
  0
LINE
  8
0
 62
     250
 10
1771.7
 20
551.706
 30
0.0
 11
1780.19
 21
548.351
 31
0.0
  0
LINE
  8
0
 62
     250
 10
1780.19
 20
548.351
 30
0.0
 11
1788.66
 21
544.625
 31
0.0
  0
LINE
  8
0
 62
     250
 10
1788.66
 20
544.625
 30
0.0
 11
1796.91
 21
540.547
 31
0.0
  0
LINE
  8
0
 62
     250
 10
1796.91
 20
540.547
 30
0.0
 11
1804.74
 21
536.138
 31
0.0
  0
LINE
  8
0
 62
     250
 10
1804.74
 20
536.138
 30
0.0
 11
1811.97
 21
531.414
 31
0.0
  0
LINE
  8
0
 62
     250
 10
1811.97
 20
531.414
 30
0.0
 11
1816.85
 21
527.727
 31
0.0
  0
LINE
  8
0
 62
     250
 10
1816.85
 20
527.727
 30
0.0
 11
1818.39
 21
526.394
 31
0.0
  0
LINE
  8
0
 62
     250
 10
1818.39
 20
526.394
 30
0.0
 11
1819.92
 21
525.067
 31
0.0
  0
LINE
  8
0
 62
     250
 10
1819.92
 20
525.067
 30
0.0
 11
1824.45
 21
520.996
 31
0.0
  0
LINE
  8
0
 62
     250
 10
1824.45
 20
520.996
 30
0.0
 11
1830.61
 21
515.158
 31
0.0
  0
LINE
  8
0
 62
     250
 10
1830.61
 20
515.158
 30
0.0
 11
1836.73
 21
508.967
 31
0.0
  0
LINE
  8
0
 62
     250
 10
1836.73
 20
508.967
 30
0.0
 11
1842.66
 21
502.493
 31
0.0
  0
LINE
  8
0
 62
     250
 10
1842.66
 20
502.493
 30
0.0
 11
1848.27
 21
495.822
 31
0.0
  0
LINE
  8
0
 62
     250
 10
1848.27
 20
495.822
 30
0.0
 11
1853.39
 21
489.031
 31
0.0
  0
LINE
  8
0
 62
     250
 10
1853.39
 20
489.031
 30
0.0
 11
1857.9
 21
482.194
 31
0.0
  0
LINE
  8
0
 62
     250
 10
1857.9
 20
482.194
 30
0.0
 11
1860.79
 21
477.135
 31
0.0
  0
LINE
  8
0
 62
     250
 10
1860.79
 20
477.135
 30
0.0
 11
1861.64
 21
475.396
 31
0.0
  0
LINE
  8
0
 62
     250
 10
1861.64
 20
475.396
 30
0.0
 11
1862.48
 21
473.696
 31
0.0
  0
LINE
  8
0
 62
     250
 10
1862.48
 20
473.696
 30
0.0
 11
1864.98
 21
468.602
 31
0.0
  0
LINE
  8
0
 62
     250
 10
1864.98
 20
468.602
 30
0.0
 11
1868.34
 21
461.638
 31
0.0
  0
LINE
  8
0
 62
     250
 10
1868.34
 20
461.638
 30
0.0
 11
1871.64
 21
454.385
 31
0.0
  0
LINE
  8
0
 62
     250
 10
1871.64
 20
454.385
 30
0.0
 11
1874.82
 21
446.712
 31
0.0
  0
LINE
  8
0
 62
     250
 10
1874.82
 20
446.712
 30
0.0
 11
1877.81
 21
438.503
 31
0.0
  0
LINE
  8
0
 62
     250
 10
1877.81
 20
438.503
 30
0.0
 11
1880.56
 21
429.62
 31
0.0
  0
LINE
  8
0
 62
     250
 10
1880.56
 20
429.62
 30
0.0
 11
1883
 21
419.947
 31
0.0
  0
LINE
  8
0
 62
     250
 10
1883
 20
419.947
 30
0.0
 11
1884.61
 21
412.016
 31
0.0
  0
LINE
  8
0
 62
     250
 10
1884.61
 20
412.016
 30
0.0
 11
1885.06
 21
409.356
 31
0.0
  0
LINE
  8
0
 62
     250
 10
1885.06
 20
409.356
 30
0.0
 11
1885.52
 21
406.545
 31
0.0
  0
LINE
  8
0
 62
     250
 10
1885.52
 20
406.545
 30
0.0
 11
1886.8
 21
398.082
 31
0.0
  0
LINE
  8
0
 62
     250
 10
1886.8
 20
398.082
 30
0.0
 11
1888.34
 21
386.584
 31
0.0
  0
LINE
  8
0
 62
     250
 10
1888.34
 20
386.584
 30
0.0
 11
1889.65
 21
375.073
 31
0.0
  0
LINE
  8
0
 62
     250
 10
1889.65
 20
375.073
 30
0.0
 11
1890.72
 21
363.77
 31
0.0
  0
LINE
  8
0
 62
     250
 10
1890.72
 20
363.77
 30
0.0
 11
1891.54
 21
352.88
 31
0.0
  0
LINE
  8
0
 62
     250
 10
1891.54
 20
352.88
 30
0.0
 11
1892.08
 21
342.622
 31
0.0
  0
LINE
  8
0
 62
     250
 10
1892.08
 20
342.622
 30
0.0
 11
1892.34
 21
333.207
 31
0.0
  0
LINE
  8
0
 62
     250
 10
1892.34
 20
333.207
 30
0.0
 11
1892.35
 21
326.938
 31
0.0
  0
LINE
  8
0
 62
     250
 10
1892.35
 20
326.938
 30
0.0
 11
1892.29
 21
324.85
 31
0.0
  0
LINE
  8
0
 62
     250
 10
1408.21
 20
478.935
 30
0.0
 11
1408.48
 21
480.042
 31
0.0
  0
LINE
  8
0
 62
     250
 10
1408.48
 20
480.042
 30
0.0
 11
1409.3
 21
483.369
 31
0.0
  0
LINE
  8
0
 62
     250
 10
1409.3
 20
483.369
 30
0.0
 11
1410.59
 21
488.438
 31
0.0
  0
LINE
  8
0
 62
     250
 10
1410.59
 20
488.438
 30
0.0
 11
1412.07
 21
493.868
 31
0.0
  0
LINE
  8
0
 62
     250
 10
1412.07
 20
493.868
 30
0.0
 11
1413.69
 21
499.385
 31
0.0
  0
LINE
  8
0
 62
     250
 10
1413.69
 20
499.385
 30
0.0
 11
1415.43
 21
504.712
 31
0.0
  0
LINE
  8
0
 62
     250
 10
1415.43
 20
504.712
 30
0.0
 11
1417.25
 21
509.573
 31
0.0
  0
LINE
  8
0
 62
     250
 10
1417.25
 20
509.573
 30
0.0
 11
1419.12
 21
513.694
 31
0.0
  0
LINE
  8
0
 62
     250
 10
1419.12
 20
513.694
 30
0.0
 11
1420.47
 21
516.079
 31
0.0
  0
LINE
  8
0
 62
     250
 10
1420.47
 20
516.079
 30
0.0
 11
1421.01
 21
516.798
 31
0.0
  0
LINE
  8
0
 62
     250
 10
1421.01
 20
516.798
 30
0.0
 11
1421.61
 21
517.592
 31
0.0
  0
LINE
  8
0
 62
     250
 10
1421.61
 20
517.592
 30
0.0
 11
1423.51
 21
519.892
 31
0.0
  0
LINE
  8
0
 62
     250
 10
1423.51
 20
519.892
 30
0.0
 11
1427.11
 21
523.946
 31
0.0
  0
LINE
  8
0
 62
     250
 10
1427.11
 20
523.946
 30
0.0
 11
1431.61
 21
528.648
 31
0.0
  0
LINE
  8
0
 62
     250
 10
1431.61
 20
528.648
 30
0.0
 11
1436.84
 21
533.679
 31
0.0
  0
LINE
  8
0
 62
     250
 10
1436.84
 20
533.679
 30
0.0
 11
1442.6
 21
538.723
 31
0.0
  0
LINE
  8
0
 62
     250
 10
1442.6
 20
538.723
 30
0.0
 11
1448.7
 21
543.461
 31
0.0
  0
LINE
  8
0
 62
     250
 10
1448.7
 20
543.461
 30
0.0
 11
1454.97
 21
547.575
 31
0.0
  0
LINE
  8
0
 62
     250
 10
1454.97
 20
547.575
 30
0.0
 11
1459.6
 21
550.072
 31
0.0
  0
LINE
  8
0
 62
     250
 10
1459.6
 20
550.072
 30
0.0
 11
1461.21
 21
550.75
 31
0.0
  0
LINE
  8
0
 62
     250
 10
1461.21
 20
550.75
 30
0.0
 11
1462.82
 21
551.43
 31
0.0
  0
LINE
  8
0
 62
     250
 10
1462.82
 20
551.43
 30
0.0
 11
1467.73
 21
553.311
 31
0.0
  0
LINE
  8
0
 62
     250
 10
1467.73
 20
553.311
 30
0.0
 11
1474.93
 21
555.777
 31
0.0
  0
LINE
  8
0
 62
     250
 10
1474.93
 20
555.777
 30
0.0
 11
1482.73
 21
558.126
 31
0.0
  0
LINE
  8
0
 62
     250
 10
1482.73
 20
558.126
 30
0.0
 11
1491.06
 21
560.335
 31
0.0
  0
LINE
  8
0
 62
     250
 10
1491.06
 20
560.335
 30
0.0
 11
1499.87
 21
562.384
 31
0.0
  0
LINE
  8
0
 62
     250
 10
1499.87
 20
562.384
 30
0.0
 11
1509.09
 21
564.247
 31
0.0
  0
LINE
  8
0
 62
     250
 10
1509.09
 20
564.247
 30
0.0
 11
1518.64
 21
565.901
 31
0.0
  0
LINE
  8
0
 62
     250
 10
1518.64
 20
565.901
 30
0.0
 11
1526
 21
567.002
 31
0.0
  0
LINE
  8
0
 62
     250
 10
1526
 20
567.002
 30
0.0
 11
1528.46
 21
567.327
 31
0.0
  0
LINE
  8
0
 62
     250
 10
1528.46
 20
567.327
 30
0.0
 11
1531.03
 21
567.665
 31
0.0
  0
LINE
  8
0
 62
     250
 10
1531.03
 20
567.665
 30
0.0
 11
1538.78
 21
568.565
 31
0.0
  0
LINE
  8
0
 62
     250
 10
1538.78
 20
568.565
 30
0.0
 11
1549.74
 21
569.659
 31
0.0
  0
LINE
  8
0
 62
     250
 10
1549.74
 20
569.659
 30
0.0
 11
1561.07
 21
570.569
 31
0.0
  0
LINE
  8
0
 62
     250
 10
1561.07
 20
570.569
 30
0.0
 11
1572.56
 21
571.26
 31
0.0
  0
LINE
  8
0
 62
     250
 10
1572.56
 20
571.26
 30
0.0
 11
1583.94
 21
571.701
 31
0.0
  0
LINE
  8
0
 62
     250
 10
1583.94
 20
571.701
 30
0.0
 11
1594.99
 21
571.856
 31
0.0
  0
LINE
  8
0
 62
     250
 10
1594.99
 20
571.856
 30
0.0
 11
1605.45
 21
571.691
 31
0.0
  0
LINE
  8
0
 62
     250
 10
1605.45
 20
571.691
 30
0.0
 11
1612.69
 21
571.355
 31
0.0
  0
LINE
  8
0
 62
     250
 10
1612.69
 20
571.355
 30
0.0
 11
1615.1
 21
571.168
 31
0.0
  0
LINE
  8
0
 62
     250
 10
1615.1
 20
571.168
 30
0.0
 11
1617.64
 21
570.971
 31
0.0
  0
LINE
  8
0
 62
     250
 10
1617.64
 20
570.971
 30
0.0
 11
1625.28
 21
570.202
 31
0.0
  0
LINE
  8
0
 62
     250
 10
1625.28
 20
570.202
 30
0.0
 11
1637.15
 21
568.766
 31
0.0
  0
LINE
  8
0
 62
     250
 10
1637.15
 20
568.766
 30
0.0
 11
1650.14
 21
566.932
 31
0.0
  0
LINE
  8
0
 62
     250
 10
1650.14
 20
566.932
 30
0.0
 11
1663.7
 21
564.776
 31
0.0
  0
LINE
  8
0
 62
     250
 10
1663.7
 20
564.776
 30
0.0
 11
1677.26
 21
562.363
 31
0.0
  0
LINE
  8
0
 62
     250
 10
1677.26
 20
562.363
 30
0.0
 11
1690.25
 21
559.767
 31
0.0
  0
LINE
  8
0
 62
     250
 10
1690.25
 20
559.767
 30
0.0
 11
1702.12
 21
557.061
 31
0.0
  0
LINE
  8
0
 62
     250
 10
1702.12
 20
557.061
 30
0.0
 11
1709.78
 21
555.071
 31
0.0
  0
LINE
  8
0
 62
     250
 10
1709.78
 20
555.071
 30
0.0
 11
1712.31
 21
554.316
 31
0.0
  0
LINE
  8
0
 62
     250
 10
1712.31
 20
554.316
 30
0.0
 11
1714.65
 21
553.614
 31
0.0
  0
LINE
  8
0
 62
     250
 10
1714.65
 20
553.614
 30
0.0
 11
1721.62
 21
551.307
 31
0.0
  0
LINE
  8
0
 62
     250
 10
1721.62
 20
551.307
 30
0.0
 11
1731.17
 21
547.793
 31
0.0
  0
LINE
  8
0
 62
     250
 10
1731.17
 20
547.793
 30
0.0
 11
1740.82
 21
543.828
 31
0.0
  0
LINE
  8
0
 62
     250
 10
1740.82
 20
543.828
 30
0.0
 11
1750.44
 21
539.461
 31
0.0
  0
LINE
  8
0
 62
     250
 10
1750.44
 20
539.461
 30
0.0
 11
1759.89
 21
534.748
 31
0.0
  0
LINE
  8
0
 62
     250
 10
1759.89
 20
534.748
 30
0.0
 11
1769.03
 21
529.742
 31
0.0
  0
LINE
  8
0
 62
     250
 10
1769.03
 20
529.742
 30
0.0
 11
1777.72
 21
524.492
 31
0.0
  0
LINE
  8
0
 62
     250
 10
1777.72
 20
524.492
 30
0.0
 11
1783.84
 21
520.467
 31
0.0
  0
LINE
  8
0
 62
     250
 10
1783.84
 20
520.467
 30
0.0
 11
1785.84
 21
519.053
 31
0.0
  0
LINE
  8
0
 62
     250
 10
1785.84
 20
519.053
 30
0.0
 11
1787.74
 21
517.698
 31
0.0
  0
LINE
  8
0
 62
     250
 10
1787.74
 20
517.698
 30
0.0
 11
1793.27
 21
513.341
 31
0.0
  0
LINE
  8
0
 62
     250
 10
1793.27
 20
513.341
 30
0.0
 11
1800.05
 21
507.263
 31
0.0
  0
LINE
  8
0
 62
     250
 10
1800.05
 20
507.263
 30
0.0
 11
1806.21
 21
500.842
 31
0.0
  0
LINE
  8
0
 62
     250
 10
1806.21
 20
500.842
 30
0.0
 11
1811.78
 21
494.118
 31
0.0
  0
LINE
  8
0
 62
     250
 10
1811.78
 20
494.118
 30
0.0
 11
1816.8
 21
487.112
 31
0.0
  0
LINE
  8
0
 62
     250
 10
1816.8
 20
487.112
 30
0.0
 11
1821.3
 21
479.859
 31
0.0
  0
LINE
  8
0
 62
     250
 10
1821.3
 20
479.859
 30
0.0
 11
1825.3
 21
472.387
 31
0.0
  0
LINE
  8
0
 62
     250
 10
1825.3
 20
472.387
 30
0.0
 11
1828.02
 21
466.661
 31
0.0
  0
LINE
  8
0
 62
     250
 10
1828.02
 20
466.661
 30
0.0
 11
1828.86
 21
464.725
 31
0.0
  0
LINE
  8
0
 62
     250
 10
1828.86
 20
464.725
 30
0.0
 11
1829.76
 21
462.65
 31
0.0
  0
LINE
  8
0
 62
     250
 10
1829.76
 20
462.65
 30
0.0
 11
1832.18
 21
456.315
 31
0.0
  0
LINE
  8
0
 62
     250
 10
1832.18
 20
456.315
 30
0.0
 11
1835.42
 21
446.867
 31
0.0
  0
LINE
  8
0
 62
     250
 10
1835.42
 20
446.867
 30
0.0
 11
1838.48
 21
436.806
 31
0.0
  0
LINE
  8
0
 62
     250
 10
1838.48
 20
436.806
 30
0.0
 11
1841.28
 21
426.565
 31
0.0
  0
LINE
  8
0
 62
     250
 10
1841.28
 20
426.565
 30
0.0
 11
1843.73
 21
416.574
 31
0.0
  0
LINE
  8
0
 62
     250
 10
1843.73
 20
416.574
 30
0.0
 11
1845.74
 21
407.264
 31
0.0
  0
LINE
  8
0
 62
     250
 10
1845.74
 20
407.264
 30
0.0
 11
1847.22
 21
399.066
 31
0.0
  0
LINE
  8
0
 62
     250
 10
1847.22
 20
399.066
 30
0.0
 11
1847.93
 21
394.077
 31
0.0
  0
LINE
  8
0
 62
     250
 10
1847.93
 20
394.077
 30
0.0
 11
1848.08
 21
392.405
 31
0.0
  0
LINE
  8
0
 62
     250
 10
1848.08
 20
392.405
 30
0.0
 11
1848.22
 21
390.843
 31
0.0
  0
LINE
  8
0
 62
     250
 10
1848.22
 20
390.843
 30
0.0
 11
1848.52
 21
386.136
 31
0.0
  0
LINE
  8
0
 62
     250
 10
1848.52
 20
386.136
 30
0.0
 11
1848.81
 21
378.89
 31
0.0
  0
LINE
  8
0
 62
     250
 10
1848.81
 20
378.89
 30
0.0
 11
1848.97
 21
370.784
 31
0.0
  0
LINE
  8
0
 62
     250
 10
1848.97
 20
370.784
 30
0.0
 11
1849
 21
361.925
 31
0.0
  0
LINE
  8
0
 62
     250
 10
1849
 20
361.925
 30
0.0
 11
1848.93
 21
352.435
 31
0.0
  0
LINE
  8
0
 62
     250
 10
1848.93
 20
352.435
 30
0.0
 11
1848.78
 21
342.421
 31
0.0
  0
LINE
  8
0
 62
     250
 10
1848.78
 20
342.421
 30
0.0
 11
1848.57
 21
331.997
 31
0.0
  0
LINE
  8
0
 62
     250
 10
1848.57
 20
331.997
 30
0.0
 11
1848.37
 21
323.959
 31
0.0
  0
LINE
  8
0
 62
     250
 10
1848.37
 20
323.959
 30
0.0
 11
1848.3
 21
321.279
 31
0.0
  0
LINE
  8
0
 62
     250
 10
1848.3
 20
321.279
 30
0.0
 11
1848.23
 21
318.647
 31
0.0
  0
LINE
  8
0
 62
     250
 10
1848.23
 20
318.647
 30
0.0
 11
1848.1
 21
310.745
 31
0.0
  0
LINE
  8
0
 62
     250
 10
1848.1
 20
310.745
 30
0.0
 11
1848.02
 21
300.776
 31
0.0
  0
LINE
  8
0
 62
     250
 10
1848.02
 20
300.776
 30
0.0
 11
1847.99
 21
291.348
 31
0.0
  0
LINE
  8
0
 62
     250
 10
1847.99
 20
291.348
 30
0.0
 11
1847.95
 21
282.429
 31
0.0
  0
LINE
  8
0
 62
     250
 10
1847.95
 20
282.429
 30
0.0
 11
1847.83
 21
273.995
 31
0.0
  0
LINE
  8
0
 62
     250
 10
1847.83
 20
273.995
 30
0.0
 11
1847.56
 21
266.018
 31
0.0
  0
LINE
  8
0
 62
     250
 10
1847.56
 20
266.018
 30
0.0
 11
1847.08
 21
258.469
 31
0.0
  0
LINE
  8
0
 62
     250
 10
1847.08
 20
258.469
 30
0.0
 11
1846.57
 21
253.103
 31
0.0
  0
LINE
  8
0
 62
     250
 10
1846.57
 20
253.103
 30
0.0
 11
1846.33
 21
251.321
 31
0.0
  0
LINE
  8
0
 62
     250
 10
1846.33
 20
251.321
 30
0.0
 11
1846.1
 21
249.523
 31
0.0
  0
LINE
  8
0
 62
     250
 10
1846.1
 20
249.523
 30
0.0
 11
1845.22
 21
244.144
 31
0.0
  0
LINE
  8
0
 62
     250
 10
1845.22
 20
244.144
 30
0.0
 11
1843.73
 21
236.56
 31
0.0
  0
LINE
  8
0
 62
     250
 10
1843.73
 20
236.56
 30
0.0
 11
1841.88
 21
228.615
 31
0.0
  0
LINE
  8
0
 62
     250
 10
1841.88
 20
228.615
 30
0.0
 11
1839.69
 21
220.363
 31
0.0
  0
LINE
  8
0
 62
     250
 10
1839.69
 20
220.363
 30
0.0
 11
1837.18
 21
211.851
 31
0.0
  0
LINE
  8
0
 62
     250
 10
1837.18
 20
211.851
 30
0.0
 11
1834.36
 21
203.133
 31
0.0
  0
LINE
  8
0
 62
     250
 10
1834.36
 20
203.133
 30
0.0
 11
1831.28
 21
194.254
 31
0.0
  0
LINE
  8
0
 62
     250
 10
1831.28
 20
194.254
 30
0.0
 11
1828.79
 21
187.504
 31
0.0
  0
LINE
  8
0
 62
     250
 10
1828.79
 20
187.504
 30
0.0
 11
1827.93
 21
185.266
 31
0.0
  0
LINE
  8
0
 62
     250
 10
1827.93
 20
185.266
 30
0.0
 11
1827.03
 21
182.911
 31
0.0
  0
LINE
  8
0
 62
     250
 10
1827.03
 20
182.911
 30
0.0
 11
1824.08
 21
175.934
 31
0.0
  0
LINE
  8
0
 62
     250
 10
1824.08
 20
175.934
 30
0.0
 11
1819.54
 21
166.091
 31
0.0
  0
LINE
  8
0
 62
     250
 10
1819.54
 20
166.091
 30
0.0
 11
1814.44
 21
155.899
 31
0.0
  0
LINE
  8
0
 62
     250
 10
1814.44
 20
155.899
 30
0.0
 11
1808.9
 21
145.517
 31
0.0
  0
LINE
  8
0
 62
     250
 10
1808.9
 20
145.517
 30
0.0
 11
1803.05
 21
135.103
 31
0.0
  0
LINE
  8
0
 62
     250
 10
1803.05
 20
135.103
 30
0.0
 11
1797.01
 21
124.817
 31
0.0
  0
LINE
  8
0
 62
     250
 10
1797.01
 20
124.817
 30
0.0
 11
1790.91
 21
114.821
 31
0.0
  0
LINE
  8
0
 62
     250
 10
1790.91
 20
114.821
 30
0.0
 11
1786.39
 21
107.647
 31
0.0
  0
LINE
  8
0
 62
     250
 10
1786.39
 20
107.647
 30
0.0
 11
1784.86
 21
105.271
 31
0.0
  0
LINE
  8
0
 62
     250
 10
1784.86
 20
105.271
 30
0.0
 11
1783.31
 21
102.866
 31
0.0
  0
LINE
  8
0
 62
     250
 10
1783.31
 20
102.866
 30
0.0
 11
1778.32
 21
95.873
 31
0.0
  0
LINE
  8
0
 62
     250
 10
1778.32
 20
95.873
 30
0.0
 11
1770.79
 21
86.3755
 31
0.0
  0
LINE
  8
0
 62
     250
 10
1770.79
 20
86.3755
 30
0.0
 11
1762.5
 21
77.016
 31
0.0
  0
LINE
  8
0
 62
     250
 10
1762.5
 20
77.016
 30
0.0
 11
1753.69
 21
68.0268
 31
0.0
  0
LINE
  8
0
 62
     250
 10
1753.69
 20
68.0268
 30
0.0
 11
1744.59
 21
59.6456
 31
0.0
  0
LINE
  8
0
 62
     250
 10
1744.59
 20
59.6456
 30
0.0
 11
1735.44
 21
52.1049
 31
0.0
  0
LINE
  8
0
 62
     250
 10
1735.44
 20
52.1049
 30
0.0
 11
1726.46
 21
45.642
 31
0.0
  0
LINE
  8
0
 62
     250
 10
1726.46
 20
45.642
 30
0.0
 11
1720.08
 21
41.6638
 31
0.0
  0
LINE
  8
0
 62
     250
 10
1720.08
 20
41.6638
 30
0.0
 11
1717.88
 21
40.4883
 31
0.0
  0
LINE
  8
0
 62
     250
 10
1717.88
 20
40.4883
 30
0.0
 11
1715.75
 21
39.3569
 31
0.0
  0
LINE
  8
0
 62
     250
 10
1715.75
 20
39.3569
 30
0.0
 11
1709.33
 21
36.0454
 31
0.0
  0
LINE
  8
0
 62
     250
 10
1709.33
 20
36.0454
 30
0.0
 11
1700.27
 21
31.6343
 31
0.0
  0
LINE
  8
0
 62
     250
 10
1700.27
 20
31.6343
 30
0.0
 11
1690.69
 21
27.3802
 31
0.0
  0
LINE
  8
0
 62
     250
 10
1690.69
 20
27.3802
 30
0.0
 11
1680.59
 21
23.4074
 31
0.0
  0
LINE
  8
0
 62
     250
 10
1680.59
 20
23.4074
 30
0.0
 11
1669.97
 21
19.8382
 31
0.0
  0
LINE
  8
0
 62
     250
 10
1669.97
 20
19.8382
 30
0.0
 11
1658.81
 21
16.7983
 31
0.0
  0
LINE
  8
0
 62
     250
 10
1658.81
 20
16.7983
 30
0.0
 11
1647.14
 21
14.4088
 31
0.0
  0
LINE
  8
0
 62
     250
 10
1647.14
 20
14.4088
 30
0.0
 11
1637.99
 21
13.0859
 31
0.0
  0
LINE
  8
0
 62
     250
 10
1637.99
 20
13.0859
 30
0.0
 11
1634.92
 21
12.7951
 31
0.0
  0
LINE
  8
0
 62
     250
 10
1634.92
 20
12.7951
 30
0.0
 11
1631.89
 21
12.5084
 31
0.0
  0
LINE
  8
0
 62
     250
 10
1631.89
 20
12.5084
 30
0.0
 11
1622.76
 21
11.8759
 31
0.0
  0
LINE
  8
0
 62
     250
 10
1622.76
 20
11.8759
 30
0.0
 11
1611.18
 21
11.4804
 31
0.0
  0
LINE
  8
0
 62
     250
 10
1611.18
 20
11.4804
 30
0.0
 11
1600.09
 21
11.6017
 31
0.0
  0
LINE
  8
0
 62
     250
 10
1600.09
 20
11.6017
 30
0.0
 11
1589.42
 21
12.2342
 31
0.0
  0
LINE
  8
0
 62
     250
 10
1589.42
 20
12.2342
 30
0.0
 11
1579.07
 21
13.3739
 31
0.0
  0
LINE
  8
0
 62
     250
 10
1579.07
 20
13.3739
 30
0.0
 11
1568.96
 21
15.0124
 31
0.0
  0
LINE
  8
0
 62
     250
 10
1568.96
 20
15.0124
 30
0.0
 11
1559.01
 21
17.1456
 31
0.0
  0
LINE
  8
0
 62
     250
 10
1559.01
 20
17.1456
 30
0.0
 11
1551.58
 21
19.0541
 31
0.0
  0
LINE
  8
0
 62
     250
 10
1551.58
 20
19.0541
 30
0.0
 11
1549.12
 21
19.7652
 31
0.0
  0
LINE
  8
0
 62
     250
 10
1549.12
 20
19.7652
 30
0.0
 11
1546.58
 21
20.5011
 31
0.0
  0
LINE
  8
0
 62
     250
 10
1546.58
 20
20.5011
 30
0.0
 11
1539.09
 21
23.1138
 31
0.0
  0
LINE
  8
0
 62
     250
 10
1539.09
 20
23.1138
 30
0.0
 11
1528.83
 21
27.3761
 31
0.0
  0
LINE
  8
0
 62
     250
 10
1528.83
 20
27.3761
 30
0.0
 11
1518.5
 21
32.4611
 31
0.0
  0
LINE
  8
0
 62
     250
 10
1518.5
 20
32.4611
 30
0.0
 11
1508.27
 21
38.2859
 31
0.0
  0
LINE
  8
0
 62
     250
 10
1508.27
 20
38.2859
 30
0.0
 11
1498.28
 21
44.7615
 31
0.0
  0
LINE
  8
0
 62
     250
 10
1498.28
 20
44.7615
 30
0.0
 11
1488.69
 21
51.8019
 31
0.0
  0
LINE
  8
0
 62
     250
 10
1488.69
 20
51.8019
 30
0.0
 11
1479.65
 21
59.3189
 31
0.0
  0
LINE
  8
0
 62
     250
 10
1479.65
 20
59.3189
 30
0.0
 11
1473.34
 21
65.1771
 31
0.0
  0
LINE
  8
0
 62
     250
 10
1473.34
 20
65.1771
 30
0.0
 11
1471.33
 21
67.225
 31
0.0
  0
LINE
  8
0
 62
     250
 10
1471.33
 20
67.225
 30
0.0
 11
1470.32
 21
68.253
 31
0.0
  0
LINE
  8
0
 62
     250
 10
1470.32
 20
68.253
 30
0.0
 11
1467.32
 21
71.3588
 31
0.0
  0
LINE
  8
0
 62
     250
 10
1467.32
 20
71.3588
 30
0.0
 11
1463.23
 21
75.6613
 31
0.0
  0
LINE
  8
0
 62
     250
 10
1463.23
 20
75.6613
 30
0.0
 11
1459.1
 21
80.0887
 31
0.0
  0
LINE
  8
0
 62
     250
 10
1459.1
 20
80.0887
 30
0.0
 11
1454.96
 21
84.6018
 31
0.0
  0
LINE
  8
0
 62
     250
 10
1454.96
 20
84.6018
 30
0.0
 11
1450.84
 21
89.1604
 31
0.0
  0
LINE
  8
0
 62
     250
 10
1450.84
 20
89.1604
 30
0.0
 11
1446.79
 21
93.7218
 31
0.0
  0
LINE
  8
0
 62
     250
 10
1446.79
 20
93.7218
 30
0.0
 11
1442.83
 21
98.2472
 31
0.0
  0
LINE
  8
0
 62
     250
 10
1442.83
 20
98.2472
 30
0.0
 11
1439.01
 21
102.695
 31
0.0
  0
LINE
  8
0
 62
     250
 10
1439.01
 20
102.695
 30
0.0
 11
1435.35
 21
107.025
 31
0.0
  0
LINE
  8
0
 62
     250
 10
1435.35
 20
107.025
 30
0.0
 11
1431.9
 21
111.195
 31
0.0
  0
LINE
  8
0
 62
     250
 10
1431.9
 20
111.195
 30
0.0
 11
1428.68
 21
115.165
 31
0.0
  0
LINE
  8
0
 62
     250
 10
1428.68
 20
115.165
 30
0.0
 11
1425.74
 21
118.896
 31
0.0
  0
LINE
  8
0
 62
     250
 10
1425.74
 20
118.896
 30
0.0
 11
1423.11
 21
122.344
 31
0.0
  0
LINE
  8
0
 62
     250
 10
1423.11
 20
122.344
 30
0.0
 11
1420.83
 21
125.469
 31
0.0
  0
LINE
  8
0
 62
     250
 10
1420.83
 20
125.469
 30
0.0
 11
1418.92
 21
128.232
 31
0.0
  0
LINE
  8
0
 62
     250
 10
1418.92
 20
128.232
 30
0.0
 11
1417.78
 21
129.99
 31
0.0
  0
LINE
  8
0
 62
     250
 10
1417.78
 20
129.99
 30
0.0
 11
1417.43
 21
130.59
 31
0.0
  0
LINE
  8
0
 62
     250
 10
1417.43
 20
130.59
 30
0.0
 11
1416.73
 21
131.757
 31
0.0
  0
LINE
  8
0
 62
     250
 10
1416.73
 20
131.757
 30
0.0
 11
1414.92
 21
135.418
 31
0.0
  0
LINE
  8
0
 62
     250
 10
1414.92
 20
135.418
 30
0.0
 11
1412.54
 21
141.108
 31
0.0
  0
LINE
  8
0
 62
     250
 10
1412.54
 20
141.108
 30
0.0
 11
1410.32
 21
147.325
 31
0.0
  0
LINE
  8
0
 62
     250
 10
1410.32
 20
147.325
 30
0.0
 11
1408.31
 21
153.731
 31
0.0
  0
LINE
  8
0
 62
     250
 10
1408.31
 20
153.731
 30
0.0
 11
1406.56
 21
159.996
 31
0.0
  0
LINE
  8
0
 62
     250
 10
1406.56
 20
159.996
 30
0.0
 11
1405.1
 21
165.781
 31
0.0
  0
LINE
  8
0
 62
     250
 10
1405.1
 20
165.781
 30
0.0
 11
1404
 21
170.754
 31
0.0
  0
LINE
  8
0
 62
     250
 10
1404
 20
170.754
 30
0.0
 11
1403.45
 21
173.618
 31
0.0
  0
LINE
  8
0
 62
     250
 10
1403.45
 20
173.618
 30
0.0
 11
1403.3
 21
174.577
 31
0.0
  0
LINE
  8
0
 62
     250
 10
1403.3
 20
174.577
 30
0.0
 11
1403.17
 21
175.405
 31
0.0
  0
LINE
  8
0
 62
     250
 10
1403.17
 20
175.405
 30
0.0
 11
1402.73
 21
177.877
 31
0.0
  0
LINE
  8
0
 62
     250
 10
1402.73
 20
177.877
 30
0.0
 11
1402.03
 21
181.408
 31
0.0
  0
LINE
  8
0
 62
     250
 10
1402.03
 20
181.408
 30
0.0
 11
1401.25
 21
185.033
 31
0.0
  0
LINE
  8
0
 62
     250
 10
1401.25
 20
185.033
 30
0.0
 11
1400.44
 21
188.612
 31
0.0
  0
LINE
  8
0
 62
     250
 10
1400.44
 20
188.612
 30
0.0
 11
1399.63
 21
192.009
 31
0.0
  0
LINE
  8
0
 62
     250
 10
1399.63
 20
192.009
 30
0.0
 11
1398.87
 21
195.086
 31
0.0
  0
LINE
  8
0
 62
     250
 10
1398.87
 20
195.086
 30
0.0
 11
1398.22
 21
197.704
 31
0.0
  0
LINE
  8
0
 62
     250
 10
1398.22
 20
197.704
 30
0.0
 11
1397.83
 21
199.222
 31
0.0
  0
LINE
  8
0
 62
     250
 10
1397.83
 20
199.222
 30
0.0
 11
1397.71
 21
199.726
 31
0.0
  0
LINE
  8
0
 62
     250
 10
1397.71
 20
199.726
 30
0.0
 11
1397.55
 21
200.346
 31
0.0
  0
LINE
  8
0
 62
     250
 10
1397.55
 20
200.346
 30
0.0
 11
1397.08
 21
202.208
 31
0.0
  0
LINE
  8
0
 62
     250
 10
1397.08
 20
202.208
 30
0.0
 11
1396.12
 21
206.094
 31
0.0
  0
LINE
  8
0
 62
     250
 10
1396.12
 20
206.094
 30
0.0
 11
1394.93
 21
211.085
 31
0.0
  0
LINE
  8
0
 62
     250
 10
1394.93
 20
211.085
 30
0.0
 11
1393.62
 21
216.885
 31
0.0
  0
LINE
  8
0
 62
     250
 10
1393.62
 20
216.885
 30
0.0
 11
1392.29
 21
223.194
 31
0.0
  0
LINE
  8
0
 62
     250
 10
1392.29
 20
223.194
 30
0.0
 11
1391.05
 21
229.711
 31
0.0
  0
LINE
  8
0
 62
     250
 10
1391.05
 20
229.711
 30
0.0
 11
1389.99
 21
236.138
 31
0.0
  0
LINE
  8
0
 62
     250
 10
1389.99
 20
236.138
 30
0.0
 11
1389.39
 21
240.663
 31
0.0
  0
LINE
  8
0
 62
     250
 10
1389.39
 20
240.663
 30
0.0
 11
1389.24
 21
242.176
 31
0.0
  0
LINE
  8
0
 62
     250
 10
1389.24
 20
242.176
 30
0.0
 11
1389.15
 21
242.981
 31
0.0
  0
LINE
  8
0
 62
     250
 10
1389.15
 20
242.981
 30
0.0
 11
1388.94
 21
245.397
 31
0.0
  0
LINE
  8
0
 62
     250
 10
1388.94
 20
245.397
 30
0.0
 11
1388.64
 21
249.262
 31
0.0
  0
LINE
  8
0
 62
     250
 10
1388.64
 20
249.262
 30
0.0
 11
1388.33
 21
253.697
 31
0.0
  0
LINE
  8
0
 62
     250
 10
1388.33
 20
253.697
 30
0.0
 11
1388.02
 21
258.627
 31
0.0
  0
LINE
  8
0
 62
     250
 10
1388.02
 20
258.627
 30
0.0
 11
1387.72
 21
263.98
 31
0.0
  0
LINE
  8
0
 62
     250
 10
1387.72
 20
263.98
 30
0.0
 11
1387.43
 21
269.677
 31
0.0
  0
LINE
  8
0
 62
     250
 10
1387.43
 20
269.677
 30
0.0
 11
1387.15
 21
275.645
 31
0.0
  0
LINE
  8
0
 62
     250
 10
1387.15
 20
275.645
 30
0.0
 11
1386.9
 21
281.809
 31
0.0
  0
LINE
  8
0
 62
     250
 10
1386.9
 20
281.809
 30
0.0
 11
1386.68
 21
288.095
 31
0.0
  0
LINE
  8
0
 62
     250
 10
1386.68
 20
288.095
 30
0.0
 11
1386.48
 21
294.428
 31
0.0
  0
LINE
  8
0
 62
     250
 10
1386.48
 20
294.428
 30
0.0
 11
1386.32
 21
300.732
 31
0.0
  0
LINE
  8
0
 62
     250
 10
1386.32
 20
300.732
 30
0.0
 11
1386.2
 21
306.933
 31
0.0
  0
LINE
  8
0
 62
     250
 10
1386.2
 20
306.933
 30
0.0
 11
1386.13
 21
312.957
 31
0.0
  0
LINE
  8
0
 62
     250
 10
1386.13
 20
312.957
 30
0.0
 11
1386.11
 21
318.728
 31
0.0
  0
LINE
  8
0
 62
     250
 10
1386.11
 20
318.728
 30
0.0
 11
1386.14
 21
324.171
 31
0.0
  0
LINE
  8
0
 62
     250
 10
1386.14
 20
324.171
 30
0.0
 11
1386.2
 21
327.952
 31
0.0
  0
LINE
  8
0
 62
     250
 10
1386.2
 20
327.952
 30
0.0
 11
1386.23
 21
329.212
 31
0.0
  0
LINE
  8
0
 62
     250
 10
1386.23
 20
329.212
 30
0.0
 11
1386.27
 21
330.489
 31
0.0
  0
LINE
  8
0
 62
     250
 10
1386.27
 20
330.489
 30
0.0
 11
1386.4
 21
334.322
 31
0.0
  0
LINE
  8
0
 62
     250
 10
1386.4
 20
334.322
 30
0.0
 11
1386.65
 21
339.959
 31
0.0
  0
LINE
  8
0
 62
     250
 10
1386.65
 20
339.959
 30
0.0
 11
1386.97
 21
346.031
 31
0.0
  0
LINE
  8
0
 62
     250
 10
1386.97
 20
346.031
 30
0.0
 11
1387.36
 21
352.446
 31
0.0
  0
LINE
  8
0
 62
     250
 10
1387.36
 20
352.446
 30
0.0
 11
1387.81
 21
359.11
 31
0.0
  0
LINE
  8
0
 62
     250
 10
1387.81
 20
359.11
 30
0.0
 11
1388.3
 21
365.936
 31
0.0
  0
LINE
  8
0
 62
     250
 10
1388.3
 20
365.936
 30
0.0
 11
1388.84
 21
372.826
 31
0.0
  0
LINE
  8
0
 62
     250
 10
1388.84
 20
372.826
 30
0.0
 11
1389.42
 21
379.691
 31
0.0
  0
LINE
  8
0
 62
     250
 10
1389.42
 20
379.691
 30
0.0
 11
1390.01
 21
386.436
 31
0.0
  0
LINE
  8
0
 62
     250
 10
1390.01
 20
386.436
 30
0.0
 11
1390.64
 21
392.977
 31
0.0
  0
LINE
  8
0
 62
     250
 10
1390.64
 20
392.977
 30
0.0
 11
1391.27
 21
399.21
 31
0.0
  0
LINE
  8
0
 62
     250
 10
1391.27
 20
399.21
 30
0.0
 11
1391.91
 21
405.052
 31
0.0
  0
LINE
  8
0
 62
     250
 10
1391.91
 20
405.052
 30
0.0
 11
1392.55
 21
410.404
 31
0.0
  0
LINE
  8
0
 62
     250
 10
1392.55
 20
410.404
 30
0.0
 11
1393.18
 21
415.177
 31
0.0
  0
LINE
  8
0
 62
     250
 10
1393.18
 20
415.177
 30
0.0
 11
1393.79
 21
419.283
 31
0.0
  0
LINE
  8
0
 62
     250
 10
1393.79
 20
419.283
 30
0.0
 11
1394.21
 21
421.792
 31
0.0
  0
LINE
  8
0
 62
     250
 10
1394.21
 20
421.792
 30
0.0
 11
1394.38
 21
422.621
 31
0.0
  0
LINE
  8
0
 62
     250
 10
1394.38
 20
422.621
 30
0.0
 11
1394.9
 21
425.302
 31
0.0
  0
LINE
  8
0
 62
     250
 10
1394.9
 20
425.302
 30
0.0
 11
1396.51
 21
433.331
 31
0.0
  0
LINE
  8
0
 62
     250
 10
1396.51
 20
433.331
 30
0.0
 11
1398.39
 21
442.158
 31
0.0
  0
LINE
  8
0
 62
     250
 10
1398.39
 20
442.158
 30
0.0
 11
1400.07
 21
449.294
 31
0.0
  0
LINE
  8
0
 62
     250
 10
1400.07
 20
449.294
 30
0.0
 11
1401.19
 21
453.538
 31
0.0
  0
LINE
  8
0
 62
     250
 10
1401.19
 20
453.538
 30
0.0
 11
1401.61
 21
454.939
 31
0.0
  0
LINE
  8
0
 62
     250
 10
1401.61
 20
454.939
 30
0.0
 11
1402.03
 21
456.343
 31
0.0
  0
LINE
  8
0
 62
     250
 10
1402.03
 20
456.343
 30
0.0
 11
1403.26
 21
460.566
 31
0.0
  0
LINE
  8
0
 62
     250
 10
1403.26
 20
460.566
 30
0.0
 11
1405.07
 21
466.983
 31
0.0
  0
LINE
  8
0
 62
     250
 10
1405.07
 20
466.983
 30
0.0
 11
1406.8
 21
473.378
 31
0.0
  0
LINE
  8
0
 62
     250
 10
1406.8
 20
473.378
 30
0.0
 11
1407.88
 21
477.541
 31
0.0
  0
LINE
  8
0
 62
     250
 10
1407.88
 20
477.541
 30
0.0
 11
1408.21
 21
478.935
 31
0.0
  0
LINE
  8
0
 62
     250
 10
1425.78
 20
518.527
 30
0.0
 11
1425.78
 21
518.527
 31
0.0
  0
LINE
  8
0
 62
     250
 10
1425.78
 20
518.527
 30
0.0
 11
1426.24
 21
517.941
 31
0.0
  0
LINE
  8
0
 62
     250
 10
1426.24
 20
517.941
 30
0.0
 11
1427.54
 21
516.28
 31
0.0
  0
LINE
  8
0
 62
     250
 10
1427.54
 20
516.28
 30
0.0
 11
1429.54
 21
513.694
 31
0.0
  0
LINE
  8
0
 62
     250
 10
1429.54
 20
513.694
 30
0.0
 11
1432.13
 21
510.339
 31
0.0
  0
LINE
  8
0
 62
     250
 10
1432.13
 20
510.339
 30
0.0
 11
1435.16
 21
506.356
 31
0.0
  0
LINE
  8
0
 62
     250
 10
1435.16
 20
506.356
 30
0.0
 11
1438.51
 21
501.9
 31
0.0
  0
LINE
  8
0
 62
     250
 10
1438.51
 20
501.9
 30
0.0
 11
1442.05
 21
497.124
 31
0.0
  0
LINE
  8
0
 62
     250
 10
1442.05
 20
497.124
 30
0.0
 11
1444.76
 21
493.413
 31
0.0
  0
LINE
  8
0
 62
     250
 10
1444.76
 20
493.413
 30
0.0
 11
1445.65
 21
492.171
 31
0.0
  0
LINE
  8
0
 62
     250
 10
1445.65
 20
492.171
 30
0.0
 11
1446.58
 21
490.869
 31
0.0
  0
LINE
  8
0
 62
     250
 10
1446.58
 20
490.869
 30
0.0
 11
1449.29
 21
486.904
 31
0.0
  0
LINE
  8
0
 62
     250
 10
1449.29
 20
486.904
 30
0.0
 11
1453.02
 21
481.185
 31
0.0
  0
LINE
  8
0
 62
     250
 10
1453.02
 20
481.185
 30
0.0
 11
1456.74
 21
475.153
 31
0.0
  0
LINE
  8
0
 62
     250
 10
1456.74
 20
475.153
 30
0.0
 11
1460.4
 21
468.944
 31
0.0
  0
LINE
  8
0
 62
     250
 10
1460.4
 20
468.944
 30
0.0
 11
1463.91
 21
462.7
 31
0.0
  0
LINE
  8
0
 62
     250
 10
1463.91
 20
462.7
 30
0.0
 11
1467.2
 21
456.561
 31
0.0
  0
LINE
  8
0
 62
     250
 10
1467.2
 20
456.561
 30
0.0
 11
1470.21
 21
450.667
 31
0.0
  0
LINE
  8
0
 62
     250
 10
1470.21
 20
450.667
 30
0.0
 11
1472.21
 21
446.543
 31
0.0
  0
LINE
  8
0
 62
     250
 10
1472.21
 20
446.543
 30
0.0
 11
1472.85
 21
445.156
 31
0.0
  0
LINE
  8
0
 62
     250
 10
1472.85
 20
445.156
 30
0.0
 11
1474.15
 21
442.33
 31
0.0
  0
LINE
  8
0
 62
     250
 10
1474.15
 20
442.33
 30
0.0
 11
1477.62
 21
433.652
 31
0.0
  0
LINE
  8
0
 62
     250
 10
1477.62
 20
433.652
 30
0.0
 11
1482.2
 21
420.289
 31
0.0
  0
LINE
  8
0
 62
     250
 10
1482.2
 20
420.289
 30
0.0
 11
1486.51
 21
405.141
 31
0.0
  0
LINE
  8
0
 62
     250
 10
1486.51
 20
405.141
 30
0.0
 11
1489.6
 21
392.525
 31
0.0
  0
LINE
  8
0
 62
     250
 10
1489.6
 20
392.525
 30
0.0
 11
1490.52
 21
388.295
 31
0.0
  0
LINE
  8
0
 62
     250
 10
1490.52
 20
388.295
 30
0.0
 11
1491
 21
386.101
 31
0.0
  0
LINE
  8
0
 62
     250
 10
1491
 20
386.101
 30
0.0
 11
1492.23
 21
379.476
 31
0.0
  0
LINE
  8
0
 62
     250
 10
1492.23
 20
379.476
 30
0.0
 11
1493.52
 21
370.745
 31
0.0
  0
LINE
  8
0
 62
     250
 10
1493.52
 20
370.745
 30
0.0
 11
1494.44
 21
362.197
 31
0.0
  0
LINE
  8
0
 62
     250
 10
1494.44
 20
362.197
 30
0.0
 11
1495.07
 21
353.91
 31
0.0
  0
LINE
  8
0
 62
     250
 10
1495.07
 20
353.91
 30
0.0
 11
1495.43
 21
345.983
 31
0.0
  0
LINE
  8
0
 62
     250
 10
1495.43
 20
345.983
 30
0.0
 11
1495.58
 21
338.495
 31
0.0
  0
LINE
  8
0
 62
     250
 10
1495.58
 20
338.495
 30
0.0
 11
1495.57
 21
331.535
 31
0.0
  0
LINE
  8
0
 62
     250
 10
1495.57
 20
331.535
 30
0.0
 11
1495.49
 21
326.78
 31
0.0
  0
LINE
  8
0
 62
     250
 10
1495.49
 20
326.78
 30
0.0
 11
1495.45
 21
325.194
 31
0.0
  0
LINE
  8
0
 62
     250
 10
1495.45
 20
325.194
 30
0.0
 11
1495.4
 21
323.552
 31
0.0
  0
LINE
  8
0
 62
     250
 10
1495.4
 20
323.552
 30
0.0
 11
1495.21
 21
318.629
 31
0.0
  0
LINE
  8
0
 62
     250
 10
1495.21
 20
318.629
 30
0.0
 11
1494.8
 21
311.153
 31
0.0
  0
LINE
  8
0
 62
     250
 10
1494.8
 20
311.153
 30
0.0
 11
1494.25
 21
303.08
 31
0.0
  0
LINE
  8
0
 62
     250
 10
1494.25
 20
303.08
 30
0.0
 11
1493.55
 21
294.731
 31
0.0
  0
LINE
  8
0
 62
     250
 10
1493.55
 20
294.731
 30
0.0
 11
1492.72
 21
286.419
 31
0.0
  0
LINE
  8
0
 62
     250
 10
1492.72
 20
286.419
 30
0.0
 11
1491.76
 21
278.462
 31
0.0
  0
LINE
  8
0
 62
     250
 10
1491.76
 20
278.462
 30
0.0
 11
1490.69
 21
271.176
 31
0.0
  0
LINE
  8
0
 62
     250
 10
1490.69
 20
271.176
 30
0.0
 11
1489.85
 21
266.444
 31
0.0
  0
LINE
  8
0
 62
     250
 10
1489.85
 20
266.444
 30
0.0
 11
1489.52
 21
264.878
 31
0.0
  0
LINE
  8
0
 62
     250
 10
1489.52
 20
264.878
 30
0.0
 11
1489.2
 21
263.409
 31
0.0
  0
LINE
  8
0
 62
     250
 10
1489.2
 20
263.409
 30
0.0
 11
1488.15
 21
259.023
 31
0.0
  0
LINE
  8
0
 62
     250
 10
1488.15
 20
259.023
 30
0.0
 11
1486.55
 21
252.934
 31
0.0
  0
LINE
  8
0
 62
     250
 10
1486.55
 20
252.934
 30
0.0
 11
1484.77
 21
246.733
 31
0.0
  0
LINE
  8
0
 62
     250
 10
1484.77
 20
246.733
 30
0.0
 11
1482.87
 21
240.548
 31
0.0
  0
LINE
  8
0
 62
     250
 10
1482.87
 20
240.548
 30
0.0
 11
1480.91
 21
234.497
 31
0.0
  0
LINE
  8
0
 62
     250
 10
1480.91
 20
234.497
 30
0.0
 11
1478.95
 21
228.705
 31
0.0
  0
LINE
  8
0
 62
     250
 10
1478.95
 20
228.705
 30
0.0
 11
1477.04
 21
223.297
 31
0.0
  0
LINE
  8
0
 62
     250
 10
1477.04
 20
223.297
 30
0.0
 11
1475.7
 21
219.618
 31
0.0
  0
LINE
  8
0
 62
     250
 10
1475.7
 20
219.618
 30
0.0
 11
1475.24
 21
218.394
 31
0.0
  0
LINE
  8
0
 62
     250
 10
1475.24
 20
218.394
 30
0.0
 11
1474.79
 21
217.184
 31
0.0
  0
LINE
  8
0
 62
     250
 10
1474.79
 20
217.184
 30
0.0
 11
1473.31
 21
213.6
 31
0.0
  0
LINE
  8
0
 62
     250
 10
1473.31
 20
213.6
 30
0.0
 11
1471
 21
208.533
 31
0.0
  0
LINE
  8
0
 62
     250
 10
1471
 20
208.533
 30
0.0
 11
1468.44
 21
203.342
 31
0.0
  0
LINE
  8
0
 62
     250
 10
1468.44
 20
203.342
 30
0.0
 11
1465.73
 21
198.177
 31
0.0
  0
LINE
  8
0
 62
     250
 10
1465.73
 20
198.177
 30
0.0
 11
1462.97
 21
193.187
 31
0.0
  0
LINE
  8
0
 62
     250
 10
1462.97
 20
193.187
 30
0.0
 11
1460.26
 21
188.523
 31
0.0
  0
LINE
  8
0
 62
     250
 10
1460.26
 20
188.523
 30
0.0
 11
1457.73
 21
184.329
 31
0.0
  0
LINE
  8
0
 62
     250
 10
1457.73
 20
184.329
 30
0.0
 11
1456.03
 21
181.645
 31
0.0
  0
LINE
  8
0
 62
     250
 10
1456.03
 20
181.645
 30
0.0
 11
1455.46
 21
180.759
 31
0.0
  0
LINE
  8
0
 62
     250
 10
1434.55
 20
520.982
 30
0.0
 11
1434.55
 21
520.982
 31
0.0
  0
LINE
  8
0
 62
     250
 10
1434.55
 20
520.982
 30
0.0
 11
1434.55
 21
520.767
 31
0.0
  0
LINE
  8
0
 62
     250
 10
1434.55
 20
520.767
 30
0.0
 11
1434.6
 21
520.125
 31
0.0
  0
LINE
  8
0
 62
     250
 10
1434.6
 20
520.125
 30
0.0
 11
1434.79
 21
519.056
 31
0.0
  0
LINE
  8
0
 62
     250
 10
1434.79
 20
519.056
 30
0.0
 11
1435.2
 21
517.574
 31
0.0
  0
LINE
  8
0
 62
     250
 10
1435.2
 20
517.574
 30
0.0
 11
1435.91
 21
515.68
 31
0.0
  0
LINE
  8
0
 62
     250
 10
1435.91
 20
515.68
 30
0.0
 11
1437
 21
513.38
 31
0.0
  0
LINE
  8
0
 62
     250
 10
1437
 20
513.38
 30
0.0
 11
1438.57
 21
510.678
 31
0.0
  0
LINE
  8
0
 62
     250
 10
1438.57
 20
510.678
 30
0.0
 11
1440.13
 21
508.335
 31
0.0
  0
LINE
  8
0
 62
     250
 10
1440.13
 20
508.335
 30
0.0
 11
1440.68
 21
507.577
 31
0.0
  0
LINE
  8
0
 62
     250
 10
1440.68
 20
507.577
 30
0.0
 11
1441.34
 21
506.674
 31
0.0
  0
LINE
  8
0
 62
     250
 10
1441.34
 20
506.674
 30
0.0
 11
1443.49
 21
504.07
 31
0.0
  0
LINE
  8
0
 62
     250
 10
1443.49
 20
504.07
 30
0.0
 11
1446.94
 21
500.2
 31
0.0
  0
LINE
  8
0
 62
     250
 10
1446.94
 20
500.2
 30
0.0
 11
1450.86
 21
496.09
 31
0.0
  0
LINE
  8
0
 62
     250
 10
1450.86
 20
496.09
 30
0.0
 11
1455.02
 21
491.853
 31
0.0
  0
LINE
  8
0
 62
     250
 10
1455.02
 20
491.853
 30
0.0
 11
1459.27
 21
487.609
 31
0.0
  0
LINE
  8
0
 62
     250
 10
1459.27
 20
487.609
 30
0.0
 11
1463.37
 21
483.464
 31
0.0
  0
LINE
  8
0
 62
     250
 10
1463.37
 20
483.464
 30
0.0
 11
1467.15
 21
479.545
 31
0.0
  0
LINE
  8
0
 62
     250
 10
1467.15
 20
479.545
 30
0.0
 11
1469.62
 21
476.878
 31
0.0
  0
LINE
  8
0
 62
     250
 10
1469.62
 20
476.878
 30
0.0
 11
1470.41
 21
475.961
 31
0.0
  0
LINE
  8
0
 62
     250
 10
1470.41
 20
475.961
 30
0.0
 11
1471.25
 21
474.994
 31
0.0
  0
LINE
  8
0
 62
     250
 10
1471.25
 20
474.994
 30
0.0
 11
1473.63
 21
471.96
 31
0.0
  0
LINE
  8
0
 62
     250
 10
1473.63
 20
471.96
 30
0.0
 11
1477.33
 21
466.852
 31
0.0
  0
LINE
  8
0
 62
     250
 10
1477.33
 20
466.852
 30
0.0
 11
1481.37
 21
460.862
 31
0.0
  0
LINE
  8
0
 62
     250
 10
1481.37
 20
460.862
 30
0.0
 11
1485.62
 21
454.208
 31
0.0
  0
LINE
  8
0
 62
     250
 10
1485.62
 20
454.208
 30
0.0
 11
1489.94
 21
447.114
 31
0.0
  0
LINE
  8
0
 62
     250
 10
1489.94
 20
447.114
 30
0.0
 11
1494.19
 21
439.801
 31
0.0
  0
LINE
  8
0
 62
     250
 10
1494.19
 20
439.801
 30
0.0
 11
1498.25
 21
432.491
 31
0.0
  0
LINE
  8
0
 62
     250
 10
1498.25
 20
432.491
 30
0.0
 11
1501.06
 21
427.193
 31
0.0
  0
LINE
  8
0
 62
     250
 10
1501.06
 20
427.193
 30
0.0
 11
1501.96
 21
425.408
 31
0.0
  0
LINE
  8
0
 62
     250
 10
1501.96
 20
425.408
 30
0.0
 11
1502.83
 21
423.686
 31
0.0
  0
LINE
  8
0
 62
     250
 10
1502.83
 20
423.686
 30
0.0
 11
1505.27
 21
418.43
 31
0.0
  0
LINE
  8
0
 62
     250
 10
1505.27
 20
418.43
 30
0.0
 11
1508.24
 21
411.244
 31
0.0
  0
LINE
  8
0
 62
     250
 10
1508.24
 20
411.244
 30
0.0
 11
1510.91
 21
403.779
 31
0.0
  0
LINE
  8
0
 62
     250
 10
1510.91
 20
403.779
 30
0.0
 11
1513.31
 21
395.965
 31
0.0
  0
LINE
  8
0
 62
     250
 10
1513.31
 20
395.965
 30
0.0
 11
1515.49
 21
387.731
 31
0.0
  0
LINE
  8
0
 62
     250
 10
1515.49
 20
387.731
 30
0.0
 11
1517.48
 21
379.007
 31
0.0
  0
LINE
  8
0
 62
     250
 10
1517.48
 20
379.007
 30
0.0
 11
1519.33
 21
369.722
 31
0.0
  0
LINE
  8
0
 62
     250
 10
1519.33
 20
369.722
 30
0.0
 11
1520.67
 21
362.289
 31
0.0
  0
LINE
  8
0
 62
     250
 10
1520.67
 20
362.289
 30
0.0
 11
1521.08
 21
359.805
 31
0.0
  0
LINE
  8
0
 62
     250
 10
1521.08
 20
359.805
 30
0.0
 11
1521.5
 21
357.269
 31
0.0
  0
LINE
  8
0
 62
     250
 10
1521.5
 20
357.269
 30
0.0
 11
1522.44
 21
349.604
 31
0.0
  0
LINE
  8
0
 62
     250
 10
1522.44
 20
349.604
 30
0.0
 11
1523.19
 21
339.641
 31
0.0
  0
LINE
  8
0
 62
     250
 10
1523.19
 20
339.641
 30
0.0
 11
1523.43
 21
330.121
 31
0.0
  0
LINE
  8
0
 62
     250
 10
1523.43
 20
330.121
 30
0.0
 11
1523.29
 21
321.248
 31
0.0
  0
LINE
  8
0
 62
     250
 10
1523.29
 20
321.248
 30
0.0
 11
1522.88
 21
313.223
 31
0.0
  0
LINE
  8
0
 62
     250
 10
1522.88
 20
313.223
 30
0.0
 11
1522.33
 21
306.251
 31
0.0
  0
LINE
  8
0
 62
     250
 10
1522.33
 20
306.251
 30
0.0
 11
1521.76
 21
300.534
 31
0.0
  0
LINE
  8
0
 62
     250
 10
1521.76
 20
300.534
 30
0.0
 11
1521.39
 21
297.339
 31
0.0
  0
LINE
  8
0
 62
     250
 10
1521.39
 20
297.339
 30
0.0
 11
1521.27
 21
296.274
 31
0.0
  0
LINE
  8
0
 62
     250
 10
1521.27
 20
296.274
 30
0.0
 11
1521.15
 21
295.235
 31
0.0
  0
LINE
  8
0
 62
     250
 10
1521.15
 20
295.235
 30
0.0
 11
1520.64
 21
292.135
 31
0.0
  0
LINE
  8
0
 62
     250
 10
1520.64
 20
292.135
 30
0.0
 11
1519.6
 21
286.834
 31
0.0
  0
LINE
  8
0
 62
     250
 10
1519.6
 20
286.834
 30
0.0
 11
1518.2
 21
280.672
 31
0.0
  0
LINE
  8
0
 62
     250
 10
1518.2
 20
280.672
 30
0.0
 11
1516.51
 21
273.941
 31
0.0
  0
LINE
  8
0
 62
     250
 10
1516.51
 20
273.941
 30
0.0
 11
1514.59
 21
266.94
 31
0.0
  0
LINE
  8
0
 62
     250
 10
1514.59
 20
266.94
 30
0.0
 11
1512.5
 21
259.963
 31
0.0
  0
LINE
  8
0
 62
     250
 10
1512.5
 20
259.963
 30
0.0
 11
1510.3
 21
253.304
 31
0.0
  0
LINE
  8
0
 62
     250
 10
1510.3
 20
253.304
 30
0.0
 11
1508.64
 21
248.758
 31
0.0
  0
LINE
  8
0
 62
     250
 10
1508.64
 20
248.758
 30
0.0
 11
1508.04
 21
247.261
 31
0.0
  0
LINE
  8
0
 62
     250
 10
1508.04
 20
247.261
 30
0.0
 11
1507.44
 21
245.769
 31
0.0
  0
LINE
  8
0
 62
     250
 10
1507.44
 20
245.769
 30
0.0
 11
1505.49
 21
241.346
 31
0.0
  0
LINE
  8
0
 62
     250
 10
1505.49
 20
241.346
 30
0.0
 11
1502.48
 21
235.016
 31
0.0
  0
LINE
  8
0
 62
     250
 10
1502.48
 20
235.016
 30
0.0
 11
1499.14
 21
228.495
 31
0.0
  0
LINE
  8
0
 62
     250
 10
1499.14
 20
228.495
 30
0.0
 11
1495.58
 21
222.006
 31
0.0
  0
LINE
  8
0
 62
     250
 10
1495.58
 20
222.006
 30
0.0
 11
1491.95
 21
215.771
 31
0.0
  0
LINE
  8
0
 62
     250
 10
1491.95
 20
215.771
 30
0.0
 11
1488.38
 21
210.012
 31
0.0
  0
LINE
  8
0
 62
     250
 10
1488.38
 20
210.012
 30
0.0
 11
1484.99
 21
204.95
 31
0.0
  0
LINE
  8
0
 62
     250
 10
1484.99
 20
204.95
 30
0.0
 11
1482.71
 21
201.818
 31
0.0
  0
LINE
  8
0
 62
     250
 10
1482.71
 20
201.818
 30
0.0
 11
1481.91
 21
200.809
 31
0.0
  0
LINE
  8
0
 62
     250
 10
1481.91
 20
200.809
 30
0.0
 11
1481.52
 21
200.32
 31
0.0
  0
LINE
  8
0
 62
     250
 10
1481.52
 20
200.32
 30
0.0
 11
1480.34
 21
198.859
 31
0.0
  0
LINE
  8
0
 62
     250
 10
1480.34
 20
198.859
 30
0.0
 11
1478.51
 21
196.643
 31
0.0
  0
LINE
  8
0
 62
     250
 10
1478.51
 20
196.643
 30
0.0
 11
1476.48
 21
194.204
 31
0.0
  0
LINE
  8
0
 62
     250
 10
1476.48
 20
194.204
 30
0.0
 11
1474.28
 21
191.587
 31
0.0
  0
LINE
  8
0
 62
     250
 10
1474.28
 20
191.587
 30
0.0
 11
1471.95
 21
188.834
 31
0.0
  0
LINE
  8
0
 62
     250
 10
1471.95
 20
188.834
 30
0.0
 11
1469.53
 21
185.988
 31
0.0
  0
LINE
  8
0
 62
     250
 10
1469.53
 20
185.988
 30
0.0
 11
1467.08
 21
183.094
 31
0.0
  0
LINE
  8
0
 62
     250
 10
1467.08
 20
183.094
 30
0.0
 11
1464.61
 21
180.195
 31
0.0
  0
LINE
  8
0
 62
     250
 10
1464.61
 20
180.195
 30
0.0
 11
1462.18
 21
177.334
 31
0.0
  0
LINE
  8
0
 62
     250
 10
1462.18
 20
177.334
 30
0.0
 11
1459.83
 21
174.555
 31
0.0
  0
LINE
  8
0
 62
     250
 10
1459.83
 20
174.555
 30
0.0
 11
1457.59
 21
171.899
 31
0.0
  0
LINE
  8
0
 62
     250
 10
1457.59
 20
171.899
 30
0.0
 11
1455.51
 21
169.413
 31
0.0
  0
LINE
  8
0
 62
     250
 10
1455.51
 20
169.413
 30
0.0
 11
1453.63
 21
167.139
 31
0.0
  0
LINE
  8
0
 62
     250
 10
1453.63
 20
167.139
 30
0.0
 11
1451.99
 21
165.119
 31
0.0
  0
LINE
  8
0
 62
     250
 10
1451.99
 20
165.119
 30
0.0
 11
1450.64
 21
163.4
 31
0.0
  0
LINE
  8
0
 62
     250
 10
1450.64
 20
163.4
 30
0.0
 11
1449.85
 21
162.37
 31
0.0
  0
LINE
  8
0
 62
     250
 10
1449.85
 20
162.37
 30
0.0
 11
1449.6
 21
162.02
 31
0.0
  0
LINE
  8
0
 62
     250
 10
1449.6
 20
162.02
 30
0.0
 11
1449.13
 21
161.383
 31
0.0
  0
LINE
  8
0
 62
     250
 10
1449.13
 20
161.383
 30
0.0
 11
1447.76
 21
159.463
 31
0.0
  0
LINE
  8
0
 62
     250
 10
1447.76
 20
159.463
 30
0.0
 11
1445.76
 21
156.656
 31
0.0
  0
LINE
  8
0
 62
     250
 10
1445.76
 20
156.656
 30
0.0
 11
1443.7
 21
153.741
 31
0.0
  0
LINE
  8
0
 62
     250
 10
1443.7
 20
153.741
 30
0.0
 11
1441.68
 21
150.862
 31
0.0
  0
LINE
  8
0
 62
     250
 10
1441.68
 20
150.862
 30
0.0
 11
1439.78
 21
148.161
 31
0.0
  0
LINE
  8
0
 62
     250
 10
1439.78
 20
148.161
 30
0.0
 11
1438.12
 21
145.784
 31
0.0
  0
LINE
  8
0
 62
     250
 10
1438.12
 20
145.784
 30
0.0
 11
1436.77
 21
143.87
 31
0.0
  0
LINE
  8
0
 62
     250
 10
1436.77
 20
143.87
 30
0.0
 11
1436.08
 21
142.889
 31
0.0
  0
LINE
  8
0
 62
     250
 10
1436.08
 20
142.889
 30
0.0
 11
1435.84
 21
142.563
 31
0.0
  0
LINE
  8
0
 62
     250
 10
1435.84
 20
142.563
 30
0.0
 11
1435.54
 21
142.143
 31
0.0
  0
LINE
  8
0
 62
     250
 10
1435.54
 20
142.143
 30
0.0
 11
1434.83
 21
140.745
 31
0.0
  0
LINE
  8
0
 62
     250
 10
1434.83
 20
140.745
 30
0.0
 11
1434.55
 21
138.941
 31
0.0
  0
LINE
  8
0
 62
     250
 10
1434.55
 20
138.941
 30
0.0
 11
1435.02
 21
136.908
 31
0.0
  0
LINE
  8
0
 62
     250
 10
1435.02
 20
136.908
 30
0.0
 11
1435.93
 21
135.006
 31
0.0
  0
LINE
  8
0
 62
     250
 10
1435.93
 20
135.006
 30
0.0
 11
1436.28
 21
134.403
 31
0.0
  0
LINE
  8
0
 62
     250
 10
1436.28
 20
134.403
 30
0.0
 11
1436.6
 21
133.852
 31
0.0
  0
LINE
  8
0
 62
     250
 10
1436.6
 20
133.852
 30
0.0
 11
1437.67
 21
132.25
 31
0.0
  0
LINE
  8
0
 62
     250
 10
1437.67
 20
132.25
 30
0.0
 11
1440.07
 21
128.796
 31
0.0
  0
LINE
  8
0
 62
     250
 10
1440.07
 20
128.796
 30
0.0
 11
1443.33
 21
124.313
 31
0.0
  0
LINE
  8
0
 62
     250
 10
1443.33
 20
124.313
 30
0.0
 11
1447.27
 21
119.079
 31
0.0
  0
LINE
  8
0
 62
     250
 10
1447.27
 20
119.079
 30
0.0
 11
1451.73
 21
113.366
 31
0.0
  0
LINE
  8
0
 62
     250
 10
1451.73
 20
113.366
 30
0.0
 11
1456.56
 21
107.45
 31
0.0
  0
LINE
  8
0
 62
     250
 10
1456.56
 20
107.45
 30
0.0
 11
1461.6
 21
101.603
 31
0.0
  0
LINE
  8
0
 62
     250
 10
1461.6
 20
101.603
 30
0.0
 11
1465.37
 21
97.4492
 31
0.0
  0
LINE
  8
0
 62
     250
 10
1465.37
 20
97.4492
 30
0.0
 11
1466.67
 21
96.1016
 31
0.0
  0
LINE
  8
0
 62
     250
 10
1466.67
 20
96.1016
 30
0.0
 11
1467.98
 21
94.7346
 31
0.0
  0
LINE
  8
0
 62
     250
 10
1467.98
 20
94.7346
 30
0.0
 11
1471.95
 21
90.6515
 31
0.0
  0
LINE
  8
0
 62
     250
 10
1471.95
 20
90.6515
 30
0.0
 11
1477.72
 21
84.8596
 31
0.0
  0
LINE
  8
0
 62
     250
 10
1477.72
 20
84.8596
 30
0.0
 11
1483.94
 21
78.861
 31
0.0
  0
LINE
  8
0
 62
     250
 10
1483.94
 20
78.861
 30
0.0
 11
1490.59
 21
72.7879
 31
0.0
  0
LINE
  8
0
 62
     250
 10
1490.59
 20
72.7879
 30
0.0
 11
1497.63
 21
66.7741
 31
0.0
  0
LINE
  8
0
 62
     250
 10
1497.63
 20
66.7741
 30
0.0
 11
1505.04
 21
60.9519
 31
0.0
  0
LINE
  8
0
 62
     250
 10
1505.04
 20
60.9519
 30
0.0
 11
1512.79
 21
55.4549
 31
0.0
  0
LINE
  8
0
 62
     250
 10
1512.79
 20
55.4549
 30
0.0
 11
1518.8
 21
51.6103
 31
0.0
  0
LINE
  8
0
 62
     250
 10
1518.8
 20
51.6103
 30
0.0
 11
1520.85
 21
50.4169
 31
0.0
  0
LINE
  8
0
 62
     250
 10
1520.85
 20
50.4169
 30
0.0
 11
1522.9
 21
49.2305
 31
0.0
  0
LINE
  8
0
 62
     250
 10
1522.9
 20
49.2305
 30
0.0
 11
1529.12
 21
45.8033
 31
0.0
  0
LINE
  8
0
 62
     250
 10
1529.12
 20
45.8033
 30
0.0
 11
1537.44
 21
41.5188
 31
0.0
  0
LINE
  8
0
 62
     250
 10
1537.44
 20
41.5188
 30
0.0
 11
1545.76
 21
37.6121
 31
0.0
  0
LINE
  8
0
 62
     250
 10
1545.76
 20
37.6121
 30
0.0
 11
1553.99
 21
34.1313
 31
0.0
  0
LINE
  8
0
 62
     250
 10
1553.99
 20
34.1313
 30
0.0
 11
1562.06
 21
31.123
 31
0.0
  0
LINE
  8
0
 62
     250
 10
1562.06
 20
31.123
 30
0.0
 11
1569.89
 21
28.6356
 31
0.0
  0
LINE
  8
0
 62
     250
 10
1569.89
 20
28.6356
 30
0.0
 11
1577.41
 21
26.716
 31
0.0
  0
LINE
  8
0
 62
     250
 10
1577.41
 20
26.716
 30
0.0
 11
1582.76
 21
25.6673
 31
0.0
  0
LINE
  8
0
 62
     250
 10
1582.76
 20
25.6673
 30
0.0
 11
1584.55
 21
25.4124
 31
0.0
  0
LINE
  8
0
 62
     250
 10
1584.55
 20
25.4124
 30
0.0
 11
1586.4
 21
25.152
 31
0.0
  0
LINE
  8
0
 62
     250
 10
1586.4
 20
25.152
 30
0.0
 11
1591.96
 21
24.5208
 31
0.0
  0
LINE
  8
0
 62
     250
 10
1591.96
 20
24.5208
 30
0.0
 11
1600.17
 21
23.829
 31
0.0
  0
LINE
  8
0
 62
     250
 10
1600.17
 20
23.829
 30
0.0
 11
1608.91
 21
23.3757
 31
0.0
  0
LINE
  8
0
 62
     250
 10
1608.91
 20
23.3757
 30
0.0
 11
1617.94
 21
23.1965
 31
0.0
  0
LINE
  8
0
 62
     250
 10
1617.94
 20
23.1965
 30
0.0
 11
1626.97
 21
23.3302
 31
0.0
  0
LINE
  8
0
 62
     250
 10
1626.97
 20
23.3302
 30
0.0
 11
1635.76
 21
23.8125
 31
0.0
  0
LINE
  8
0
 62
     250
 10
1635.76
 20
23.8125
 30
0.0
 11
1644.03
 21
24.682
 31
0.0
  0
LINE
  8
0
 62
     250
 10
1644.03
 20
24.682
 30
0.0
 11
1649.66
 21
25.5736
 31
0.0
  0
LINE
  8
0
 62
     250
 10
1649.66
 20
25.5736
 30
0.0
 11
1651.52
 21
25.9746
 31
0.0
  0
LINE
  8
0
 62
     250
 10
1651.52
 20
25.9746
 30
0.0
 11
1653.38
 21
26.3784
 31
0.0
  0
LINE
  8
0
 62
     250
 10
1653.38
 20
26.3784
 30
0.0
 11
1658.94
 21
27.7413
 31
0.0
  0
LINE
  8
0
 62
     250
 10
1658.94
 20
27.7413
 30
0.0
 11
1667.03
 21
30.0137
 31
0.0
  0
LINE
  8
0
 62
     250
 10
1667.03
 20
30.0137
 30
0.0
 11
1675.57
 21
32.8138
 31
0.0
  0
LINE
  8
0
 62
     250
 10
1675.57
 20
32.8138
 30
0.0
 11
1684.36
 21
36.1583
 31
0.0
  0
LINE
  8
0
 62
     250
 10
1684.36
 20
36.1583
 30
0.0
 11
1693.19
 21
40.0664
 31
0.0
  0
LINE
  8
0
 62
     250
 10
1693.19
 20
40.0664
 30
0.0
 11
1701.86
 21
44.5562
 31
0.0
  0
LINE
  8
0
 62
     250
 10
1701.86
 20
44.5562
 30
0.0
 11
1710.15
 21
49.6454
 31
0.0
  0
LINE
  8
0
 62
     250
 10
1710.15
 20
49.6454
 30
0.0
 11
1716
 21
53.8357
 31
0.0
  0
LINE
  8
0
 62
     250
 10
1716
 20
53.8357
 30
0.0
 11
1717.85
 21
55.353
 31
0.0
  0
LINE
  8
0
 62
     250
 10
1717.85
 20
55.353
 30
0.0
 11
1719.74
 21
56.9048
 31
0.0
  0
LINE
  8
0
 62
     250
 10
1719.74
 20
56.9048
 30
0.0
 11
1725.23
 21
61.7873
 31
0.0
  0
LINE
  8
0
 62
     250
 10
1725.23
 20
61.7873
 30
0.0
 11
1732.6
 21
68.9268
 31
0.0
  0
LINE
  8
0
 62
     250
 10
1732.6
 20
68.9268
 30
0.0
 11
1739.84
 21
76.6092
 31
0.0
  0
LINE
  8
0
 62
     250
 10
1739.84
 20
76.6092
 30
0.0
 11
1746.85
 21
84.6667
 31
0.0
  0
LINE
  8
0
 62
     250
 10
1746.85
 20
84.6667
 30
0.0
 11
1753.52
 21
92.9337
 31
0.0
  0
LINE
  8
0
 62
     250
 10
1753.52
 20
92.9337
 30
0.0
 11
1759.72
 21
101.242
 31
0.0
  0
LINE
  8
0
 62
     250
 10
1759.72
 20
101.242
 30
0.0
 11
1765.36
 21
109.427
 31
0.0
  0
LINE
  8
0
 62
     250
 10
1765.36
 20
109.427
 30
0.0
 11
1769.12
 21
115.32
 31
0.0
  0
LINE
  8
0
 62
     250
 10
1769.12
 20
115.32
 30
0.0
 11
1770.31
 21
117.321
 31
0.0
  0
LINE
  8
0
 62
     250
 10
1770.31
 20
117.321
 30
0.0
 11
1770.93
 21
118.36
 31
0.0
  0
LINE
  8
0
 62
     250
 10
1770.93
 20
118.36
 30
0.0
 11
1772.69
 21
121.532
 31
0.0
  0
LINE
  8
0
 62
     250
 10
1772.69
 20
121.532
 30
0.0
 11
1775.22
 21
126.387
 31
0.0
  0
LINE
  8
0
 62
     250
 10
1775.22
 20
126.387
 30
0.0
 11
1777.84
 21
131.758
 31
0.0
  0
LINE
  8
0
 62
     250
 10
1777.84
 20
131.758
 30
0.0
 11
1780.54
 21
137.521
 31
0.0
  0
LINE
  8
0
 62
     250
 10
1780.54
 20
137.521
 30
0.0
 11
1783.26
 21
143.547
 31
0.0
  0
LINE
  8
0
 62
     250
 10
1783.26
 20
143.547
 30
0.0
 11
1785.96
 21
149.714
 31
0.0
  0
LINE
  8
0
 62
     250
 10
1785.96
 20
149.714
 30
0.0
 11
1788.6
 21
155.892
 31
0.0
  0
LINE
  8
0
 62
     250
 10
1788.6
 20
155.892
 30
0.0
 11
1791.14
 21
161.955
 31
0.0
  0
LINE
  8
0
 62
     250
 10
1791.14
 20
161.955
 30
0.0
 11
1793.53
 21
167.779
 31
0.0
  0
LINE
  8
0
 62
     250
 10
1793.53
 20
167.779
 30
0.0
 11
1795.74
 21
173.236
 31
0.0
  0
LINE
  8
0
 62
     250
 10
1795.74
 20
173.236
 30
0.0
 11
1797.73
 21
178.2
 31
0.0
  0
LINE
  8
0
 62
     250
 10
1797.73
 20
178.2
 30
0.0
 11
1799.45
 21
182.545
 31
0.0
  0
LINE
  8
0
 62
     250
 10
1799.45
 20
182.545
 30
0.0
 11
1800.86
 21
186.144
 31
0.0
  0
LINE
  8
0
 62
     250
 10
1800.86
 20
186.144
 30
0.0
 11
1801.91
 21
188.87
 31
0.0
  0
LINE
  8
0
 62
     250
 10
1801.91
 20
188.87
 30
0.0
 11
1802.58
 21
190.599
 31
0.0
  0
LINE
  8
0
 62
     250
 10
1802.58
 20
190.599
 30
0.0
 11
1802.81
 21
191.203
 31
0.0
  0
LINE
  8
0
 62
     250
 10
1802.81
 20
191.203
 30
0.0
 11
1802.81
 21
191.203
 31
0.0
  0
LINE
  8
0
 62
     250
 10
1798.46
 20
184.37
 30
0.0
 11
1798.46
 21
184.37
 31
0.0
  0
LINE
  8
0
 62
     250
 10
1798.46
 20
184.37
 30
0.0
 11
1798.28
 21
184.1
 31
0.0
  0
LINE
  8
0
 62
     250
 10
1798.28
 20
184.1
 30
0.0
 11
1797.77
 21
183.322
 31
0.0
  0
LINE
  8
0
 62
     250
 10
1797.77
 20
183.322
 30
0.0
 11
1796.93
 21
182.084
 31
0.0
  0
LINE
  8
0
 62
     250
 10
1796.93
 20
182.084
 30
0.0
 11
1795.82
 21
180.433
 31
0.0
  0
LINE
  8
0
 62
     250
 10
1795.82
 20
180.433
 30
0.0
 11
1794.44
 21
178.422
 31
0.0
  0
LINE
  8
0
 62
     250
 10
1794.44
 20
178.422
 30
0.0
 11
1792.82
 21
176.095
 31
0.0
  0
LINE
  8
0
 62
     250
 10
1792.82
 20
176.095
 30
0.0
 11
1791
 21
173.503
 31
0.0
  0
LINE
  8
0
 62
     250
 10
1791
 20
173.503
 30
0.0
 11
1789.01
 21
170.693
 31
0.0
  0
LINE
  8
0
 62
     250
 10
1789.01
 20
170.693
 30
0.0
 11
1786.85
 21
167.715
 31
0.0
  0
LINE
  8
0
 62
     250
 10
1786.85
 20
167.715
 30
0.0
 11
1784.57
 21
164.618
 31
0.0
  0
LINE
  8
0
 62
     250
 10
1784.57
 20
164.618
 30
0.0
 11
1782.19
 21
161.449
 31
0.0
  0
LINE
  8
0
 62
     250
 10
1782.19
 20
161.449
 30
0.0
 11
1779.73
 21
158.257
 31
0.0
  0
LINE
  8
0
 62
     250
 10
1779.73
 20
158.257
 30
0.0
 11
1777.22
 21
155.091
 31
0.0
  0
LINE
  8
0
 62
     250
 10
1777.22
 20
155.091
 30
0.0
 11
1774.69
 21
151.999
 31
0.0
  0
LINE
  8
0
 62
     250
 10
1774.69
 20
151.999
 30
0.0
 11
1772.17
 21
149.029
 31
0.0
  0
LINE
  8
0
 62
     250
 10
1772.17
 20
149.029
 30
0.0
 11
1770.31
 21
146.922
 31
0.0
  0
LINE
  8
0
 62
     250
 10
1770.31
 20
146.922
 30
0.0
 11
1769.68
 21
146.231
 31
0.0
  0
LINE
  8
0
 62
     250
 10
1769.68
 20
146.231
 30
0.0
 11
1768.44
 21
144.877
 31
0.0
  0
LINE
  8
0
 62
     250
 10
1768.44
 20
144.877
 30
0.0
 11
1764.5
 21
141.026
 31
0.0
  0
LINE
  8
0
 62
     250
 10
1764.5
 20
141.026
 30
0.0
 11
1758.87
 21
136.183
 31
0.0
  0
LINE
  8
0
 62
     250
 10
1758.87
 20
136.183
 30
0.0
 11
1752.84
 21
131.689
 31
0.0
  0
LINE
  8
0
 62
     250
 10
1752.84
 20
131.689
 30
0.0
 11
1746.48
 21
127.531
 31
0.0
  0
LINE
  8
0
 62
     250
 10
1746.48
 20
127.531
 30
0.0
 11
1739.84
 21
123.691
 31
0.0
  0
LINE
  8
0
 62
     250
 10
1739.84
 20
123.691
 30
0.0
 11
1732.98
 21
120.157
 31
0.0
  0
LINE
  8
0
 62
     250
 10
1732.98
 20
120.157
 30
0.0
 11
1725.96
 21
116.914
 31
0.0
  0
LINE
  8
0
 62
     250
 10
1725.96
 20
116.914
 30
0.0
 11
1720.62
 21
114.657
 31
0.0
  0
LINE
  8
0
 62
     250
 10
1720.62
 20
114.657
 30
0.0
 11
1718.83
 21
113.946
 31
0.0
  0
LINE
  8
0
 62
     250
 10
1718.83
 20
113.946
 30
0.0
 11
1717.08
 21
113.253
 31
0.0
  0
LINE
  8
0
 62
     250
 10
1717.08
 20
113.253
 30
0.0
 11
1711.77
 21
111.329
 31
0.0
  0
LINE
  8
0
 62
     250
 10
1711.77
 20
111.329
 30
0.0
 11
1704.92
 21
109.128
 31
0.0
  0
LINE
  8
0
 62
     250
 10
1704.92
 20
109.128
 30
0.0
 11
1698.34
 21
107.325
 31
0.0
  0
LINE
  8
0
 62
     250
 10
1698.34
 20
107.325
 30
0.0
 11
1692.09
 21
105.895
 31
0.0
  0
LINE
  8
0
 62
     250
 10
1692.09
 20
105.895
 30
0.0
 11
1686.21
 21
104.822
 31
0.0
  0
LINE
  8
0
 62
     250
 10
1686.21
 20
104.822
 30
0.0
 11
1680.76
 21
104.083
 31
0.0
  0
LINE
  8
0
 62
     250
 10
1680.76
 20
104.083
 30
0.0
 11
1675.78
 21
103.656
 31
0.0
  0
LINE
  8
0
 62
     250
 10
1675.78
 20
103.656
 30
0.0
 11
1672.44
 21
103.521
 31
0.0
  0
LINE
  8
0
 62
     250
 10
1672.44
 20
103.521
 30
0.0
 11
1671.33
 21
103.521
 31
0.0
  0
LINE
  8
0
 62
     250
 10
1671.33
 20
103.521
 30
0.0
 11
1670.33
 21
103.522
 31
0.0
  0
LINE
  8
0
 62
     250
 10
1670.33
 20
103.522
 30
0.0
 11
1667.34
 21
103.619
 31
0.0
  0
LINE
  8
0
 62
     250
 10
1667.34
 20
103.619
 30
0.0
 11
1663.65
 21
103.923
 31
0.0
  0
LINE
  8
0
 62
     250
 10
1663.65
 20
103.923
 30
0.0
 11
1660.16
 21
104.469
 31
0.0
  0
LINE
  8
0
 62
     250
 10
1660.16
 20
104.469
 30
0.0
 11
1656.76
 21
105.293
 31
0.0
  0
LINE
  8
0
 62
     250
 10
1656.76
 20
105.293
 30
0.0
 11
1653.35
 21
106.43
 31
0.0
  0
LINE
  8
0
 62
     250
 10
1653.35
 20
106.43
 30
0.0
 11
1649.84
 21
107.914
 31
0.0
  0
LINE
  8
0
 62
     250
 10
1649.84
 20
107.914
 30
0.0
 11
1646.12
 21
109.781
 31
0.0
  0
LINE
  8
0
 62
     250
 10
1646.12
 20
109.781
 30
0.0
 11
1643.1
 21
111.475
 31
0.0
  0
LINE
  8
0
 62
     250
 10
1643.1
 20
111.475
 30
0.0
 11
1642.11
 21
112.066
 31
0.0
  0
LINE
  8
0
 62
     250
 10
1642.11
 20
112.066
 30
0.0
 11
1641.07
 21
112.688
 31
0.0
  0
LINE
  8
0
 62
     250
 10
1641.07
 20
112.688
 30
0.0
 11
1637.89
 21
114.474
 31
0.0
  0
LINE
  8
0
 62
     250
 10
1637.89
 20
114.474
 30
0.0
 11
1633.66
 21
116.651
 31
0.0
  0
LINE
  8
0
 62
     250
 10
1633.66
 20
116.651
 30
0.0
 11
1629.37
 21
118.549
 31
0.0
  0
LINE
  8
0
 62
     250
 10
1629.37
 20
118.549
 30
0.0
 11
1625.03
 21
120.119
 31
0.0
  0
LINE
  8
0
 62
     250
 10
1625.03
 20
120.119
 30
0.0
 11
1620.59
 21
121.314
 31
0.0
  0
LINE
  8
0
 62
     250
 10
1620.59
 20
121.314
 30
0.0
 11
1616.04
 21
122.086
 31
0.0
  0
LINE
  8
0
 62
     250
 10
1616.04
 20
122.086
 30
0.0
 11
1611.36
 21
122.385
 31
0.0
  0
LINE
  8
0
 62
     250
 10
1611.36
 20
122.385
 30
0.0
 11
1607.73
 21
122.286
 31
0.0
  0
LINE
  8
0
 62
     250
 10
1607.73
 20
122.286
 30
0.0
 11
1606.53
 21
122.164
 31
0.0
  0
LINE
  8
0
 62
     250
 10
1606.53
 20
122.164
 30
0.0
 11
1605.38
 21
122.049
 31
0.0
  0
LINE
  8
0
 62
     250
 10
1605.38
 20
122.049
 30
0.0
 11
1601.95
 21
121.44
 31
0.0
  0
LINE
  8
0
 62
     250
 10
1601.95
 20
121.44
 30
0.0
 11
1597.92
 21
120.312
 31
0.0
  0
LINE
  8
0
 62
     250
 10
1597.92
 20
120.312
 30
0.0
 11
1594.34
 21
118.867
 31
0.0
  0
LINE
  8
0
 62
     250
 10
1594.34
 20
118.867
 30
0.0
 11
1591.05
 21
117.189
 31
0.0
  0
LINE
  8
0
 62
     250
 10
1591.05
 20
117.189
 30
0.0
 11
1587.95
 21
115.363
 31
0.0
  0
LINE
  8
0
 62
     250
 10
1587.95
 20
115.363
 30
0.0
 11
1584.9
 21
113.473
 31
0.0
  0
LINE
  8
0
 62
     250
 10
1584.9
 20
113.473
 30
0.0
 11
1581.77
 21
111.606
 31
0.0
  0
LINE
  8
0
 62
     250
 10
1581.77
 20
111.606
 30
0.0
 11
1579.28
 21
110.254
 31
0.0
  0
LINE
  8
0
 62
     250
 10
1579.28
 20
110.254
 30
0.0
 11
1578.43
 21
109.843
 31
0.0
  0
LINE
  8
0
 62
     250
 10
1578.43
 20
109.843
 30
0.0
 11
1577.54
 21
109.415
 31
0.0
  0
LINE
  8
0
 62
     250
 10
1577.54
 20
109.415
 30
0.0
 11
1574.84
 21
108.204
 31
0.0
  0
LINE
  8
0
 62
     250
 10
1574.84
 20
108.204
 30
0.0
 11
1571.02
 21
106.682
 31
0.0
  0
LINE
  8
0
 62
     250
 10
1571.02
 20
106.682
 30
0.0
 11
1566.94
 21
105.344
 31
0.0
  0
LINE
  8
0
 62
     250
 10
1566.94
 20
105.344
 30
0.0
 11
1562.59
 21
104.251
 31
0.0
  0
LINE
  8
0
 62
     250
 10
1562.59
 20
104.251
 30
0.0
 11
1557.93
 21
103.466
 31
0.0
  0
LINE
  8
0
 62
     250
 10
1557.93
 20
103.466
 30
0.0
 11
1552.93
 21
103.05
 31
0.0
  0
LINE
  8
0
 62
     250
 10
1552.93
 20
103.05
 30
0.0
 11
1547.59
 21
103.066
 31
0.0
  0
LINE
  8
0
 62
     250
 10
1547.59
 20
103.066
 30
0.0
 11
1543.3
 21
103.391
 31
0.0
  0
LINE
  8
0
 62
     250
 10
1543.3
 20
103.391
 30
0.0
 11
1541.87
 21
103.577
 31
0.0
  0
LINE
  8
0
 62
     250
 10
1541.87
 20
103.577
 30
0.0
 11
1540.19
 21
103.799
 31
0.0
  0
LINE
  8
0
 62
     250
 10
1540.19
 20
103.799
 30
0.0
 11
1535.18
 21
104.622
 31
0.0
  0
LINE
  8
0
 62
     250
 10
1535.18
 20
104.622
 30
0.0
 11
1527.22
 21
106.116
 31
0.0
  0
LINE
  8
0
 62
     250
 10
1527.22
 20
106.116
 30
0.0
 11
1518.44
 21
107.943
 31
0.0
  0
LINE
  8
0
 62
     250
 10
1518.44
 20
107.943
 30
0.0
 11
1509.29
 21
109.988
 31
0.0
  0
LINE
  8
0
 62
     250
 10
1509.29
 20
109.988
 30
0.0
 11
1500.21
 21
112.136
 31
0.0
  0
LINE
  8
0
 62
     250
 10
1500.21
 20
112.136
 30
0.0
 11
1491.64
 21
114.27
 31
0.0
  0
LINE
  8
0
 62
     250
 10
1491.64
 20
114.27
 30
0.0
 11
1484.02
 21
116.275
 31
0.0
  0
LINE
  8
0
 62
     250
 10
1484.02
 20
116.275
 30
0.0
 11
1479.35
 21
117.574
 31
0.0
  0
LINE
  8
0
 62
     250
 10
1479.35
 20
117.574
 30
0.0
 11
1477.8
 21
118.035
 31
0.0
  0
LINE
  8
0
 62
     250
 10
1477.8
 20
118.035
 30
0.0
 11
1477.1
 21
118.243
 31
0.0
  0
LINE
  8
0
 62
     250
 10
1477.1
 20
118.243
 30
0.0
 11
1475.01
 21
118.911
 31
0.0
  0
LINE
  8
0
 62
     250
 10
1475.01
 20
118.911
 30
0.0
 11
1472.05
 21
119.924
 31
0.0
  0
LINE
  8
0
 62
     250
 10
1472.05
 20
119.924
 30
0.0
 11
1468.98
 21
121.044
 31
0.0
  0
LINE
  8
0
 62
     250
 10
1468.98
 20
121.044
 30
0.0
 11
1465.82
 21
122.247
 31
0.0
  0
LINE
  8
0
 62
     250
 10
1465.82
 20
122.247
 30
0.0
 11
1462.65
 21
123.507
 31
0.0
  0
LINE
  8
0
 62
     250
 10
1462.65
 20
123.507
 30
0.0
 11
1459.5
 21
124.795
 31
0.0
  0
LINE
  8
0
 62
     250
 10
1459.5
 20
124.795
 30
0.0
 11
1456.42
 21
126.086
 31
0.0
  0
LINE
  8
0
 62
     250
 10
1456.42
 20
126.086
 30
0.0
 11
1453.46
 21
127.356
 31
0.0
  0
LINE
  8
0
 62
     250
 10
1453.46
 20
127.356
 30
0.0
 11
1450.66
 21
128.574
 31
0.0
  0
LINE
  8
0
 62
     250
 10
1450.66
 20
128.574
 30
0.0
 11
1448.09
 21
129.715
 31
0.0
  0
LINE
  8
0
 62
     250
 10
1448.09
 20
129.715
 30
0.0
 11
1445.78
 21
130.754
 31
0.0
  0
LINE
  8
0
 62
     250
 10
1445.78
 20
130.754
 30
0.0
 11
1443.78
 21
131.663
 31
0.0
  0
LINE
  8
0
 62
     250
 10
1443.78
 20
131.663
 30
0.0
 11
1442.14
 21
132.417
 31
0.0
  0
LINE
  8
0
 62
     250
 10
1442.14
 20
132.417
 30
0.0
 11
1440.91
 21
132.988
 31
0.0
  0
LINE
  8
0
 62
     250
 10
1440.91
 20
132.988
 30
0.0
 11
1440.13
 21
133.35
 31
0.0
  0
LINE
  8
0
 62
     250
 10
1440.13
 20
133.35
 30
0.0
 11
1439.87
 21
133.475
 31
0.0
  0
LINE
  8
0
 62
     250
 10
1439.87
 20
133.475
 30
0.0
 11
1439.87
 21
133.475
 31
0.0
  0
LINE
  8
0
 62
     250
 10
1591.11
 20
74.0212
 30
0.0
 11
1591.15
 21
75.2669
 31
0.0
  0
LINE
  8
0
 62
     250
 10
1591.15
 20
75.2669
 30
0.0
 11
1591.8
 21
78.9824
 31
0.0
  0
LINE
  8
0
 62
     250
 10
1591.8
 20
78.9824
 30
0.0
 11
1593.42
 21
83.5723
 31
0.0
  0
LINE
  8
0
 62
     250
 10
1593.42
 20
83.5723
 30
0.0
 11
1595.85
 21
87.697
 31
0.0
  0
LINE
  8
0
 62
     250
 10
1595.85
 20
87.697
 30
0.0
 11
1598.99
 21
91.2619
 31
0.0
  0
LINE
  8
0
 62
     250
 10
1598.99
 20
91.2619
 30
0.0
 11
1602.76
 21
94.1698
 31
0.0
  0
LINE
  8
0
 62
     250
 10
1602.76
 20
94.1698
 30
0.0
 11
1607.04
 21
96.3277
 31
0.0
  0
LINE
  8
0
 62
     250
 10
1607.04
 20
96.3277
 30
0.0
 11
1611.73
 21
97.6383
 31
0.0
  0
LINE
  8
0
 62
     250
 10
1611.73
 20
97.6383
 30
0.0
 11
1615.49
 21
98.0391
 31
0.0
  0
LINE
  8
0
 62
     250
 10
1615.49
 20
98.0391
 30
0.0
 11
1616.74
 21
98.0062
 31
0.0
  0
LINE
  8
0
 62
     250
 10
1616.74
 20
98.0062
 30
0.0
 11
1617.99
 21
97.9745
 31
0.0
  0
LINE
  8
0
 62
     250
 10
1617.99
 20
97.9745
 30
0.0
 11
1621.76
 21
97.3667
 31
0.0
  0
LINE
  8
0
 62
     250
 10
1621.76
 20
97.3667
 30
0.0
 11
1626.41
 21
95.7887
 31
0.0
  0
LINE
  8
0
 62
     250
 10
1626.41
 20
95.7887
 30
0.0
 11
1630.59
 21
93.3732
 31
0.0
  0
LINE
  8
0
 62
     250
 10
1630.59
 20
93.3732
 30
0.0
 11
1634.21
 21
90.2257
 31
0.0
  0
LINE
  8
0
 62
     250
 10
1634.21
 20
90.2257
 30
0.0
 11
1637.16
 21
86.4471
 31
0.0
  0
LINE
  8
0
 62
     250
 10
1637.16
 20
86.4471
 30
0.0
 11
1639.36
 21
82.1436
 31
0.0
  0
LINE
  8
0
 62
     250
 10
1639.36
 20
82.1436
 30
0.0
 11
1640.69
 21
77.4139
 31
0.0
  0
LINE
  8
0
 62
     250
 10
1640.69
 20
77.4139
 30
0.0
 11
1641.1
 21
73.6244
 31
0.0
  0
LINE
  8
0
 62
     250
 10
1641.1
 20
73.6244
 30
0.0
 11
1641.07
 21
72.365
 31
0.0
  0
LINE
  8
0
 62
     250
 10
1641.07
 20
72.365
 30
0.0
 11
1641.03
 21
71.1069
 31
0.0
  0
LINE
  8
0
 62
     250
 10
1641.03
 20
71.1069
 30
0.0
 11
1640.43
 21
67.3435
 31
0.0
  0
LINE
  8
0
 62
     250
 10
1640.43
 20
67.3435
 30
0.0
 11
1638.85
 21
62.6911
 31
0.0
  0
LINE
  8
0
 62
     250
 10
1638.85
 20
62.6911
 30
0.0
 11
1636.43
 21
58.5075
 31
0.0
  0
LINE
  8
0
 62
     250
 10
1636.43
 20
58.5075
 30
0.0
 11
1633.29
 21
54.8887
 31
0.0
  0
LINE
  8
0
 62
     250
 10
1633.29
 20
54.8887
 30
0.0
 11
1629.51
 21
51.9356
 31
0.0
  0
LINE
  8
0
 62
     250
 10
1629.51
 20
51.9356
 30
0.0
 11
1625.2
 21
49.7431
 31
0.0
  0
LINE
  8
0
 62
     250
 10
1625.2
 20
49.7431
 30
0.0
 11
1620.47
 21
48.4092
 31
0.0
  0
LINE
  8
0
 62
     250
 10
1620.47
 20
48.4092
 30
0.0
 11
1616.69
 21
48.0011
 31
0.0
  0
LINE
  8
0
 62
     250
 10
1616.69
 20
48.0011
 30
0.0
 11
1615.43
 21
48.0328
 31
0.0
  0
LINE
  8
0
 62
     250
 10
1615.43
 20
48.0328
 30
0.0
 11
1614.34
 21
48.0617
 31
0.0
  0
LINE
  8
0
 62
     250
 10
1614.34
 20
48.0617
 30
0.0
 11
1611.1
 21
48.5221
 31
0.0
  0
LINE
  8
0
 62
     250
 10
1611.1
 20
48.5221
 30
0.0
 11
1607.04
 21
49.7099
 31
0.0
  0
LINE
  8
0
 62
     250
 10
1607.04
 20
49.7099
 30
0.0
 11
1603.3
 21
51.5345
 31
0.0
  0
LINE
  8
0
 62
     250
 10
1603.3
 20
51.5345
 30
0.0
 11
1599.95
 21
53.9295
 31
0.0
  0
LINE
  8
0
 62
     250
 10
1599.95
 20
53.9295
 30
0.0
 11
1597.04
 21
56.8318
 31
0.0
  0
LINE
  8
0
 62
     250
 10
1597.04
 20
56.8318
 30
0.0
 11
1594.64
 21
60.1733
 31
0.0
  0
LINE
  8
0
 62
     250
 10
1594.64
 20
60.1733
 30
0.0
 11
1592.81
 21
63.8912
 31
0.0
  0
LINE
  8
0
 62
     250
 10
1592.81
 20
63.8912
 30
0.0
 11
1591.82
 21
66.8955
 31
0.0
  0
LINE
  8
0
 62
     250
 10
1591.82
 20
66.8955
 30
0.0
 11
1591.61
 21
67.9192
 31
0.0
  0
LINE
  8
0
 62
     250
 10
1583.87
 20
73.2839
 30
0.0
 11
1583.57
 21
73.2607
 31
0.0
  0
LINE
  8
0
 62
     250
 10
1583.57
 20
73.2607
 30
0.0
 11
1582.7
 21
72.9576
 31
0.0
  0
LINE
  8
0
 62
     250
 10
1582.7
 20
72.9576
 30
0.0
 11
1581.77
 21
72.2464
 31
0.0
  0
LINE
  8
0
 62
     250
 10
1581.77
 20
72.2464
 30
0.0
 11
1581.17
 21
71.2459
 31
0.0
  0
LINE
  8
0
 62
     250
 10
1581.17
 20
71.2459
 30
0.0
 11
1580.99
 21
70.3446
 31
0.0
  0
LINE
  8
0
 62
     250
 10
1580.99
 20
70.3446
 30
0.0
 11
1581.01
 21
70.0486
 31
0.0
  0
LINE
  8
0
 62
     250
 10
1581.01
 20
70.0486
 30
0.0
 11
1581.02
 21
69.7523
 31
0.0
  0
LINE
  8
0
 62
     250
 10
1581.02
 20
69.7523
 30
0.0
 11
1581.32
 21
68.877
 31
0.0
  0
LINE
  8
0
 62
     250
 10
1581.32
 20
68.877
 30
0.0
 11
1582.03
 21
67.9482
 31
0.0
  0
LINE
  8
0
 62
     250
 10
1582.03
 20
67.9482
 30
0.0
 11
1583.04
 21
67.3544
 31
0.0
  0
LINE
  8
0
 62
     250
 10
1583.04
 20
67.3544
 30
0.0
 11
1583.94
 21
67.1682
 31
0.0
  0
LINE
  8
0
 62
     250
 10
1583.94
 20
67.1682
 30
0.0
 11
1584.24
 21
67.1862
 31
0.0
  0
LINE
  8
0
 62
     250
 10
1584.24
 20
67.1862
 30
0.0
 11
1584.24
 21
67.1862
 31
0.0
  0
LINE
  8
0
 62
     250
 10
1584.24
 20
67.1862
 30
0.0
 11
1584.66
 21
67.2303
 31
0.0
  0
LINE
  8
0
 62
     250
 10
1584.66
 20
67.2303
 30
0.0
 11
1585.76
 21
67.3446
 31
0.0
  0
LINE
  8
0
 62
     250
 10
1585.76
 20
67.3446
 30
0.0
 11
1587.34
 21
67.5086
 31
0.0
  0
LINE
  8
0
 62
     250
 10
1587.34
 20
67.5086
 30
0.0
 11
1589.16
 21
67.7002
 31
0.0
  0
LINE
  8
0
 62
     250
 10
1589.16
 20
67.7002
 30
0.0
 11
1591.01
 21
67.8988
 31
0.0
  0
LINE
  8
0
 62
     250
 10
1591.01
 20
67.8988
 30
0.0
 11
1592.66
 21
68.0791
 31
0.0
  0
LINE
  8
0
 62
     250
 10
1592.66
 20
68.0791
 30
0.0
 11
1593.9
 21
68.224
 31
0.0
  0
LINE
  8
0
 62
     250
 10
1593.9
 20
68.224
 30
0.0
 11
1594.36
 21
68.2763
 31
0.0
  0
LINE
  8
0
 62
     250
 10
1594.36
 20
68.2763
 30
0.0
 11
1594.5
 21
68.3066
 31
0.0
  0
LINE
  8
0
 62
     250
 10
1594.5
 20
68.3066
 30
0.0
 11
1594.59
 21
68.3274
 31
0.0
  0
LINE
  8
0
 62
     250
 10
1594.59
 20
68.3274
 30
0.0
 11
1594.79
 21
68.6802
 31
0.0
  0
LINE
  8
0
 62
     250
 10
1594.79
 20
68.6802
 30
0.0
 11
1594.89
 21
69.4683
 31
0.0
  0
LINE
  8
0
 62
     250
 10
1594.89
 20
69.4683
 30
0.0
 11
1594.87
 21
70.455
 31
0.0
  0
LINE
  8
0
 62
     250
 10
1594.87
 20
70.455
 30
0.0
 11
1594.81
 21
71.1824
 31
0.0
  0
LINE
  8
0
 62
     250
 10
1594.81
 20
71.1824
 30
0.0
 11
1594.79
 21
71.4237
 31
0.0
  0
LINE
  8
0
 62
     250
 10
1594.79
 20
71.4237
 30
0.0
 11
1594.76
 21
71.6566
 31
0.0
  0
LINE
  8
0
 62
     250
 10
1594.76
 20
71.6566
 30
0.0
 11
1594.65
 21
72.3512
 31
0.0
  0
LINE
  8
0
 62
     250
 10
1594.65
 20
72.3512
 30
0.0
 11
1594.42
 21
73.2398
 31
0.0
  0
LINE
  8
0
 62
     250
 10
1594.42
 20
73.2398
 30
0.0
 11
1594.16
 21
73.9221
 31
0.0
  0
LINE
  8
0
 62
     250
 10
1594.16
 20
73.9221
 30
0.0
 11
1593.97
 21
74.2075
 31
0.0
  0
LINE
  8
0
 62
     250
 10
1593.97
 20
74.2075
 30
0.0
 11
1593.89
 21
74.2251
 31
0.0
  0
LINE
  8
0
 62
     250
 10
1593.89
 20
74.2251
 30
0.0
 11
1593.8
 21
74.246
 31
0.0
  0
LINE
  8
0
 62
     250
 10
1593.8
 20
74.246
 30
0.0
 11
1593.38
 21
74.21
 31
0.0
  0
LINE
  8
0
 62
     250
 10
1593.38
 20
74.21
 30
0.0
 11
1592.24
 21
74.1165
 31
0.0
  0
LINE
  8
0
 62
     250
 10
1592.24
 20
74.1165
 30
0.0
 11
1590.68
 21
73.9719
 31
0.0
  0
LINE
  8
0
 62
     250
 10
1590.68
 20
73.9719
 30
0.0
 11
1588.91
 21
73.7979
 31
0.0
  0
LINE
  8
0
 62
     250
 10
1588.91
 20
73.7979
 30
0.0
 11
1587.13
 21
73.6191
 31
0.0
  0
LINE
  8
0
 62
     250
 10
1587.13
 20
73.6191
 30
0.0
 11
1585.57
 21
73.4579
 31
0.0
  0
LINE
  8
0
 62
     250
 10
1585.57
 20
73.4579
 30
0.0
 11
1584.41
 21
73.3393
 31
0.0
  0
LINE
  8
0
 62
     250
 10
1584.41
 20
73.3393
 30
0.0
 11
1583.98
 21
73.2938
 31
0.0
  0
LINE
  8
0
 62
     250
 10
1583.98
 20
73.2938
 30
0.0
 11
1583.87
 21
73.2839
 31
0.0
  0
LINE
  8
0
 62
     250
 10
1616.81
 20
58.4151
 30
0.0
 11
1616.08
 21
58.4345
 31
0.0
  0
LINE
  8
0
 62
     250
 10
1616.08
 20
58.4345
 30
0.0
 11
1613.91
 21
58.7858
 31
0.0
  0
LINE
  8
0
 62
     250
 10
1613.91
 20
58.7858
 30
0.0
 11
1611.22
 21
59.6981
 31
0.0
  0
LINE
  8
0
 62
     250
 10
1611.22
 20
59.6981
 30
0.0
 11
1608.8
 21
61.0926
 31
0.0
  0
LINE
  8
0
 62
     250
 10
1608.8
 20
61.0926
 30
0.0
 11
1606.71
 21
62.9116
 31
0.0
  0
LINE
  8
0
 62
     250
 10
1606.71
 20
62.9116
 30
0.0
 11
1605.01
 21
65.0946
 31
0.0
  0
LINE
  8
0
 62
     250
 10
1605.01
 20
65.0946
 30
0.0
 11
1603.74
 21
67.5816
 31
0.0
  0
LINE
  8
0
 62
     250
 10
1603.74
 20
67.5816
 30
0.0
 11
1602.97
 21
70.3143
 31
0.0
  0
LINE
  8
0
 62
     250
 10
1602.97
 20
70.3143
 30
0.0
 11
1602.73
 21
72.5039
 31
0.0
  0
LINE
  8
0
 62
     250
 10
1602.73
 20
72.5039
 30
0.0
 11
1602.75
 21
73.2303
 31
0.0
  0
LINE
  8
0
 62
     250
 10
1602.75
 20
73.2303
 30
0.0
 11
1602.77
 21
73.9581
 31
0.0
  0
LINE
  8
0
 62
     250
 10
1602.77
 20
73.9581
 30
0.0
 11
1603.12
 21
76.1326
 31
0.0
  0
LINE
  8
0
 62
     250
 10
1603.12
 20
76.1326
 30
0.0
 11
1604.03
 21
78.8197
 31
0.0
  0
LINE
  8
0
 62
     250
 10
1604.03
 20
78.8197
 30
0.0
 11
1605.43
 21
81.2366
 31
0.0
  0
LINE
  8
0
 62
     250
 10
1605.43
 20
81.2366
 30
0.0
 11
1607.25
 21
83.3272
 31
0.0
  0
LINE
  8
0
 62
     250
 10
1607.25
 20
83.3272
 30
0.0
 11
1609.43
 21
85.0346
 31
0.0
  0
LINE
  8
0
 62
     250
 10
1609.43
 20
85.0346
 30
0.0
 11
1611.92
 21
86.3011
 31
0.0
  0
LINE
  8
0
 62
     250
 10
1611.92
 20
86.3011
 30
0.0
 11
1614.65
 21
87.0712
 31
0.0
  0
LINE
  8
0
 62
     250
 10
1614.65
 20
87.0712
 30
0.0
 11
1616.84
 21
87.3069
 31
0.0
  0
LINE
  8
0
 62
     250
 10
1616.84
 20
87.3069
 30
0.0
 11
1617.57
 21
87.2878
 31
0.0
  0
LINE
  8
0
 62
     250
 10
1617.57
 20
87.2878
 30
0.0
 11
1618.29
 21
87.2698
 31
0.0
  0
LINE
  8
0
 62
     250
 10
1618.29
 20
87.2698
 30
0.0
 11
1620.47
 21
86.9199
 31
0.0
  0
LINE
  8
0
 62
     250
 10
1620.47
 20
86.9199
 30
0.0
 11
1623.16
 21
86.0076
 31
0.0
  0
LINE
  8
0
 62
     250
 10
1623.16
 20
86.0076
 30
0.0
 11
1625.57
 21
84.6116
 31
0.0
  0
LINE
  8
0
 62
     250
 10
1625.57
 20
84.6116
 30
0.0
 11
1627.66
 21
82.7938
 31
0.0
  0
LINE
  8
0
 62
     250
 10
1627.66
 20
82.7938
 30
0.0
 11
1629.37
 21
80.6111
 31
0.0
  0
LINE
  8
0
 62
     250
 10
1629.37
 20
80.6111
 30
0.0
 11
1630.64
 21
78.1237
 31
0.0
  0
LINE
  8
0
 62
     250
 10
1630.64
 20
78.1237
 30
0.0
 11
1631.41
 21
75.3911
 31
0.0
  0
LINE
  8
0
 62
     250
 10
1631.41
 20
75.3911
 30
0.0
 11
1631.64
 21
73.2014
 31
0.0
  0
LINE
  8
0
 62
     250
 10
1631.64
 20
73.2014
 30
0.0
 11
1631.63
 21
72.474
 31
0.0
  0
LINE
  8
0
 62
     250
 10
1631.63
 20
72.474
 30
0.0
 11
1631.6
 21
71.7476
 31
0.0
  0
LINE
  8
0
 62
     250
 10
1631.6
 20
71.7476
 30
0.0
 11
1631.25
 21
69.5731
 31
0.0
  0
LINE
  8
0
 62
     250
 10
1631.25
 20
69.5731
 30
0.0
 11
1630.34
 21
66.8845
 31
0.0
  0
LINE
  8
0
 62
     250
 10
1630.34
 20
66.8845
 30
0.0
 11
1628.95
 21
64.4673
 31
0.0
  0
LINE
  8
0
 62
     250
 10
1628.95
 20
64.4673
 30
0.0
 11
1627.13
 21
62.3768
 31
0.0
  0
LINE
  8
0
 62
     250
 10
1627.13
 20
62.3768
 30
0.0
 11
1624.94
 21
60.6707
 31
0.0
  0
LINE
  8
0
 62
     250
 10
1624.94
 20
60.6707
 30
0.0
 11
1622.46
 21
59.4032
 31
0.0
  0
LINE
  8
0
 62
     250
 10
1622.46
 20
59.4032
 30
0.0
 11
1619.73
 21
58.6327
 31
0.0
  0
LINE
  8
0
 62
     250
 10
1619.73
 20
58.6327
 30
0.0
 11
1617.54
 21
58.3971
 31
0.0
  0
LINE
  8
0
 62
     250
 10
1617.54
 20
58.3971
 30
0.0
 11
1616.81
 21
58.4151
 31
0.0
  0
LINE
  8
0
 62
     250
 10
1433.7
 20
327.551
 30
0.0
 11
1433.65
 21
325.676
 31
0.0
  0
LINE
  8
0
 62
     250
 10
1433.65
 20
325.676
 30
0.0
 11
1433.55
 21
320.045
 31
0.0
  0
LINE
  8
0
 62
     250
 10
1433.55
 20
320.045
 30
0.0
 11
1433.49
 21
312.66
 31
0.0
  0
LINE
  8
0
 62
     250
 10
1433.49
 20
312.66
 30
0.0
 11
1433.52
 21
305.61
 31
0.0
  0
LINE
  8
0
 62
     250
 10
1433.52
 20
305.61
 30
0.0
 11
1433.61
 21
299.113
 31
0.0
  0
LINE
  8
0
 62
     250
 10
1433.61
 20
299.113
 30
0.0
 11
1433.76
 21
293.383
 31
0.0
  0
LINE
  8
0
 62
     250
 10
1433.76
 20
293.383
 30
0.0
 11
1433.97
 21
288.633
 31
0.0
  0
LINE
  8
0
 62
     250
 10
1433.97
 20
288.633
 30
0.0
 11
1434.2
 21
285.081
 31
0.0
  0
LINE
  8
0
 62
     250
 10
1434.2
 20
285.081
 30
0.0
 11
1434.37
 21
283.469
 31
0.0
  0
LINE
  8
0
 62
     250
 10
1434.37
 20
283.469
 30
0.0
 11
1434.47
 21
282.942
 31
0.0
  0
LINE
  8
0
 62
     250
 10
1434.47
 20
282.942
 30
0.0
 11
1434.59
 21
282.367
 31
0.0
  0
LINE
  8
0
 62
     250
 10
1434.59
 20
282.367
 30
0.0
 11
1435.53
 21
280.761
 31
0.0
  0
LINE
  8
0
 62
     250
 10
1435.53
 20
280.761
 30
0.0
 11
1437.3
 21
279.501
 31
0.0
  0
LINE
  8
0
 62
     250
 10
1437.3
 20
279.501
 30
0.0
 11
1439.29
 21
278.909
 31
0.0
  0
LINE
  8
0
 62
     250
 10
1439.29
 20
278.909
 30
0.0
 11
1440.59
 21
278.754
 31
0.0
  0
LINE
  8
0
 62
     250
 10
1440.59
 20
278.754
 30
0.0
 11
1441.03
 21
278.741
 31
0.0
  0
LINE
  8
0
 62
     250
 10
1441.03
 20
278.741
 30
0.0
 11
1441.44
 21
278.731
 31
0.0
  0
LINE
  8
0
 62
     250
 10
1441.44
 20
278.731
 30
0.0
 11
1442.68
 21
279.055
 31
0.0
  0
LINE
  8
0
 62
     250
 10
1442.68
 20
279.055
 30
0.0
 11
1444.54
 21
280.04
 31
0.0
  0
LINE
  8
0
 62
     250
 10
1444.54
 20
280.04
 30
0.0
 11
1446.3
 21
281.652
 31
0.0
  0
LINE
  8
0
 62
     250
 10
1446.3
 20
281.652
 30
0.0
 11
1447.43
 21
283.261
 31
0.0
  0
LINE
  8
0
 62
     250
 10
1447.43
 20
283.261
 30
0.0
 11
1447.69
 21
283.847
 31
0.0
  0
LINE
  8
0
 62
     250
 10
1447.69
 20
283.847
 30
0.0
 11
1447.93
 21
284.371
 31
0.0
  0
LINE
  8
0
 62
     250
 10
1447.93
 20
284.371
 30
0.0
 11
1448.51
 21
285.995
 31
0.0
  0
LINE
  8
0
 62
     250
 10
1448.51
 20
285.995
 30
0.0
 11
1449.73
 21
289.734
 31
0.0
  0
LINE
  8
0
 62
     250
 10
1449.73
 20
289.734
 30
0.0
 11
1451.23
 21
294.721
 31
0.0
  0
LINE
  8
0
 62
     250
 10
1451.23
 20
294.721
 30
0.0
 11
1452.82
 21
300.608
 31
0.0
  0
LINE
  8
0
 62
     250
 10
1452.82
 20
300.608
 30
0.0
 11
1454.37
 21
307.049
 31
0.0
  0
LINE
  8
0
 62
     250
 10
1454.37
 20
307.049
 30
0.0
 11
1455.7
 21
313.7
 31
0.0
  0
LINE
  8
0
 62
     250
 10
1455.7
 20
313.7
 30
0.0
 11
1456.68
 21
320.213
 31
0.0
  0
LINE
  8
0
 62
     250
 10
1456.68
 20
320.213
 30
0.0
 11
1457.1
 21
324.735
 31
0.0
  0
LINE
  8
0
 62
     250
 10
1457.1
 20
324.735
 30
0.0
 11
1457.14
 21
326.244
 31
0.0
  0
LINE
  8
0
 62
     250
 10
1457.14
 20
326.244
 30
0.0
 11
1457.16
 21
326.992
 31
0.0
  0
LINE
  8
0
 62
     250
 10
1457.16
 20
326.992
 30
0.0
 11
1457.12
 21
329.237
 31
0.0
  0
LINE
  8
0
 62
     250
 10
1457.12
 20
329.237
 30
0.0
 11
1456.93
 21
332.499
 31
0.0
  0
LINE
  8
0
 62
     250
 10
1456.93
 20
332.499
 30
0.0
 11
1456.6
 21
335.967
 31
0.0
  0
LINE
  8
0
 62
     250
 10
1456.6
 20
335.967
 30
0.0
 11
1456.15
 21
339.585
 31
0.0
  0
LINE
  8
0
 62
     250
 10
1456.15
 20
339.585
 30
0.0
 11
1455.59
 21
343.286
 31
0.0
  0
LINE
  8
0
 62
     250
 10
1455.59
 20
343.286
 30
0.0
 11
1454.94
 21
347.013
 31
0.0
  0
LINE
  8
0
 62
     250
 10
1454.94
 20
347.013
 30
0.0
 11
1454.24
 21
350.702
 31
0.0
  0
LINE
  8
0
 62
     250
 10
1454.24
 20
350.702
 30
0.0
 11
1453.5
 21
354.295
 31
0.0
  0
LINE
  8
0
 62
     250
 10
1453.5
 20
354.295
 30
0.0
 11
1452.74
 21
357.727
 31
0.0
  0
LINE
  8
0
 62
     250
 10
1452.74
 20
357.727
 30
0.0
 11
1451.98
 21
360.941
 31
0.0
  0
LINE
  8
0
 62
     250
 10
1451.98
 20
360.941
 30
0.0
 11
1451.25
 21
363.873
 31
0.0
  0
LINE
  8
0
 62
     250
 10
1451.25
 20
363.873
 30
0.0
 11
1450.57
 21
366.462
 31
0.0
  0
LINE
  8
0
 62
     250
 10
1450.57
 20
366.462
 30
0.0
 11
1449.96
 21
368.646
 31
0.0
  0
LINE
  8
0
 62
     250
 10
1449.96
 20
368.646
 30
0.0
 11
1449.44
 21
370.367
 31
0.0
  0
LINE
  8
0
 62
     250
 10
1449.44
 20
370.367
 30
0.0
 11
1449.03
 21
371.56
 31
0.0
  0
LINE
  8
0
 62
     250
 10
1449.03
 20
371.56
 30
0.0
 11
1448.85
 21
372.029
 31
0.0
  0
LINE
  8
0
 62
     250
 10
1448.85
 20
372.029
 30
0.0
 11
1448.76
 21
372.163
 31
0.0
  0
LINE
  8
0
 62
     250
 10
1448.76
 20
372.163
 30
0.0
 11
1448.54
 21
372.484
 31
0.0
  0
LINE
  8
0
 62
     250
 10
1448.54
 20
372.484
 30
0.0
 11
1447.85
 21
373.419
 31
0.0
  0
LINE
  8
0
 62
     250
 10
1447.85
 20
373.419
 30
0.0
 11
1446.63
 21
374.668
 31
0.0
  0
LINE
  8
0
 62
     250
 10
1446.63
 20
374.668
 30
0.0
 11
1444.94
 21
375.645
 31
0.0
  0
LINE
  8
0
 62
     250
 10
1444.94
 20
375.645
 30
0.0
 11
1443.19
 21
376.061
 31
0.0
  0
LINE
  8
0
 62
     250
 10
1443.19
 20
376.061
 30
0.0
 11
1442.61
 21
376.075
 31
0.0
  0
LINE
  8
0
 62
     250
 10
1442.61
 20
376.075
 30
0.0
 11
1442.26
 21
376.086
 31
0.0
  0
LINE
  8
0
 62
     250
 10
1442.26
 20
376.086
 30
0.0
 11
1441.23
 21
375.888
 31
0.0
  0
LINE
  8
0
 62
     250
 10
1441.23
 20
375.888
 30
0.0
 11
1439.85
 21
375.306
 31
0.0
  0
LINE
  8
0
 62
     250
 10
1439.85
 20
375.306
 30
0.0
 11
1438.51
 21
374.396
 31
0.0
  0
LINE
  8
0
 62
     250
 10
1438.51
 20
374.396
 30
0.0
 11
1437.29
 21
373.228
 31
0.0
  0
LINE
  8
0
 62
     250
 10
1437.29
 20
373.228
 30
0.0
 11
1436.23
 21
371.874
 31
0.0
  0
LINE
  8
0
 62
     250
 10
1436.23
 20
371.874
 30
0.0
 11
1435.39
 21
370.406
 31
0.0
  0
LINE
  8
0
 62
     250
 10
1435.39
 20
370.406
 30
0.0
 11
1434.82
 21
368.889
 31
0.0
  0
LINE
  8
0
 62
     250
 10
1434.82
 20
368.889
 30
0.0
 11
1434.61
 21
367.771
 31
0.0
  0
LINE
  8
0
 62
     250
 10
1434.61
 20
367.771
 30
0.0
 11
1434.6
 21
367.393
 31
0.0
  0
LINE
  8
0
 62
     250
 10
1434.6
 20
367.393
 30
0.0
 11
1434.6
 21
367.122
 31
0.0
  0
LINE
  8
0
 62
     250
 10
1434.6
 20
367.122
 30
0.0
 11
1434.57
 21
366.307
 31
0.0
  0
LINE
  8
0
 62
     250
 10
1434.57
 20
366.307
 30
0.0
 11
1434.53
 21
364.568
 31
0.0
  0
LINE
  8
0
 62
     250
 10
1434.53
 20
364.568
 30
0.0
 11
1434.48
 21
362.275
 31
0.0
  0
LINE
  8
0
 62
     250
 10
1434.48
 20
362.275
 30
0.0
 11
1434.42
 21
359.53
 31
0.0
  0
LINE
  8
0
 62
     250
 10
1434.42
 20
359.53
 30
0.0
 11
1434.35
 21
356.433
 31
0.0
  0
LINE
  8
0
 62
     250
 10
1434.35
 20
356.433
 30
0.0
 11
1434.27
 21
353.081
 31
0.0
  0
LINE
  8
0
 62
     250
 10
1434.27
 20
353.081
 30
0.0
 11
1434.19
 21
349.575
 31
0.0
  0
LINE
  8
0
 62
     250
 10
1434.19
 20
349.575
 30
0.0
 11
1434.11
 21
346.016
 31
0.0
  0
LINE
  8
0
 62
     250
 10
1434.11
 20
346.016
 30
0.0
 11
1434.03
 21
342.503
 31
0.0
  0
LINE
  8
0
 62
     250
 10
1434.03
 20
342.503
 30
0.0
 11
1433.96
 21
339.134
 31
0.0
  0
LINE
  8
0
 62
     250
 10
1433.96
 20
339.134
 30
0.0
 11
1433.89
 21
336.01
 31
0.0
  0
LINE
  8
0
 62
     250
 10
1433.89
 20
336.01
 30
0.0
 11
1433.82
 21
333.232
 31
0.0
  0
LINE
  8
0
 62
     250
 10
1433.82
 20
333.232
 30
0.0
 11
1433.77
 21
330.896
 31
0.0
  0
LINE
  8
0
 62
     250
 10
1433.77
 20
330.896
 30
0.0
 11
1433.73
 21
329.105
 31
0.0
  0
LINE
  8
0
 62
     250
 10
1433.73
 20
329.105
 30
0.0
 11
1433.71
 21
327.957
 31
0.0
  0
LINE
  8
0
 62
     250
 10
1433.71
 20
327.957
 30
0.0
 11
1433.7
 21
327.551
 31
0.0
  0
LINE
  8
0
 62
     250
 10
1433.7
 20
327.551
 30
0.0
 11
1433.7
 21
327.551
 31
0.0
  0
LINE
  8
0
 62
     250
 10
1422.1
 20
330.217
 30
0.0
 11
1422.05
 21
328.591
 31
0.0
  0
LINE
  8
0
 62
     250
 10
1422.05
 20
328.591
 30
0.0
 11
1422.03
 21
323.708
 31
0.0
  0
LINE
  8
0
 62
     250
 10
1422.03
 20
323.708
 30
0.0
 11
1422.11
 21
316.699
 31
0.0
  0
LINE
  8
0
 62
     250
 10
1422.11
 20
316.699
 30
0.0
 11
1422.33
 21
309.545
 31
0.0
  0
LINE
  8
0
 62
     250
 10
1422.33
 20
309.545
 30
0.0
 11
1422.64
 21
302.595
 31
0.0
  0
LINE
  8
0
 62
     250
 10
1422.64
 20
302.595
 30
0.0
 11
1423.03
 21
296.204
 31
0.0
  0
LINE
  8
0
 62
     250
 10
1423.03
 20
296.204
 30
0.0
 11
1423.47
 21
290.723
 31
0.0
  0
LINE
  8
0
 62
     250
 10
1423.47
 20
290.723
 30
0.0
 11
1423.92
 21
286.505
 31
0.0
  0
LINE
  8
0
 62
     250
 10
1423.92
 20
286.505
 30
0.0
 11
1424.2
 21
284.54
 31
0.0
  0
LINE
  8
0
 62
     250
 10
1424.2
 20
284.54
 30
0.0
 11
1424.36
 21
283.902
 31
0.0
  0
LINE
  8
0
 62
     250
 10
1424.36
 20
283.902
 30
0.0
 11
1424.47
 21
283.457
 31
0.0
  0
LINE
  8
0
 62
     250
 10
1424.47
 20
283.457
 30
0.0
 11
1424.99
 21
282.163
 31
0.0
  0
LINE
  8
0
 62
     250
 10
1424.99
 20
282.163
 30
0.0
 11
1426.01
 21
280.356
 31
0.0
  0
LINE
  8
0
 62
     250
 10
1426.01
 20
280.356
 30
0.0
 11
1427.34
 21
278.574
 31
0.0
  0
LINE
  8
0
 62
     250
 10
1427.34
 20
278.574
 30
0.0
 11
1428.93
 21
276.907
 31
0.0
  0
LINE
  8
0
 62
     250
 10
1428.93
 20
276.907
 30
0.0
 11
1430.73
 21
275.442
 31
0.0
  0
LINE
  8
0
 62
     250
 10
1430.73
 20
275.442
 30
0.0
 11
1432.66
 21
274.27
 31
0.0
  0
LINE
  8
0
 62
     250
 10
1432.66
 20
274.27
 30
0.0
 11
1434.68
 21
273.48
 31
0.0
  0
LINE
  8
0
 62
     250
 10
1434.68
 20
273.48
 30
0.0
 11
1436.2
 21
273.174
 31
0.0
  0
LINE
  8
0
 62
     250
 10
1436.2
 20
273.174
 30
0.0
 11
1436.72
 21
273.16
 31
0.0
  0
LINE
  8
0
 62
     250
 10
1436.72
 20
273.16
 30
0.0
 11
1437.7
 21
273.135
 31
0.0
  0
LINE
  8
0
 62
     250
 10
1437.7
 20
273.135
 30
0.0
 11
1440.65
 21
273.453
 31
0.0
  0
LINE
  8
0
 62
     250
 10
1440.65
 20
273.453
 30
0.0
 11
1444.21
 21
274.666
 31
0.0
  0
LINE
  8
0
 62
     250
 10
1444.21
 20
274.666
 30
0.0
 11
1447.19
 21
276.988
 31
0.0
  0
LINE
  8
0
 62
     250
 10
1447.19
 20
276.988
 30
0.0
 11
1449.02
 21
279.637
 31
0.0
  0
LINE
  8
0
 62
     250
 10
1449.02
 20
279.637
 30
0.0
 11
1449.41
 21
280.606
 31
0.0
  0
LINE
  8
0
 62
     250
 10
1449.41
 20
280.606
 30
0.0
 11
1449.71
 21
281.332
 31
0.0
  0
LINE
  8
0
 62
     250
 10
1449.71
 20
281.332
 30
0.0
 11
1450.47
 21
283.562
 31
0.0
  0
LINE
  8
0
 62
     250
 10
1450.47
 20
283.562
 30
0.0
 11
1451.8
 21
287.915
 31
0.0
  0
LINE
  8
0
 62
     250
 10
1451.8
 20
287.915
 30
0.0
 11
1453.28
 21
293.398
 31
0.0
  0
LINE
  8
0
 62
     250
 10
1453.28
 20
293.398
 30
0.0
 11
1454.78
 21
299.74
 31
0.0
  0
LINE
  8
0
 62
     250
 10
1454.78
 20
299.74
 30
0.0
 11
1456.19
 21
306.67
 31
0.0
  0
LINE
  8
0
 62
     250
 10
1456.19
 20
306.67
 30
0.0
 11
1457.4
 21
313.919
 31
0.0
  0
LINE
  8
0
 62
     250
 10
1457.4
 20
313.919
 30
0.0
 11
1458.28
 21
321.214
 31
0.0
  0
LINE
  8
0
 62
     250
 10
1458.28
 20
321.214
 30
0.0
 11
1458.67
 21
326.517
 31
0.0
  0
LINE
  8
0
 62
     250
 10
1458.67
 20
326.517
 30
0.0
 11
1458.72
 21
328.286
 31
0.0
  0
LINE
  8
0
 62
     250
 10
1458.72
 20
328.286
 30
0.0
 11
1458.76
 21
330.033
 31
0.0
  0
LINE
  8
0
 62
     250
 10
1458.76
 20
330.033
 30
0.0
 11
1458.59
 21
335.284
 31
0.0
  0
LINE
  8
0
 62
     250
 10
1458.59
 20
335.284
 30
0.0
 11
1457.92
 21
342.378
 31
0.0
  0
LINE
  8
0
 62
     250
 10
1457.92
 20
342.378
 30
0.0
 11
1456.85
 21
349.337
 31
0.0
  0
LINE
  8
0
 62
     250
 10
1456.85
 20
349.337
 30
0.0
 11
1455.52
 21
355.925
 31
0.0
  0
LINE
  8
0
 62
     250
 10
1455.52
 20
355.925
 30
0.0
 11
1454.05
 21
361.911
 31
0.0
  0
LINE
  8
0
 62
     250
 10
1454.05
 20
361.911
 30
0.0
 11
1452.58
 21
367.065
 31
0.0
  0
LINE
  8
0
 62
     250
 10
1452.58
 20
367.065
 30
0.0
 11
1451.25
 21
371.15
 31
0.0
  0
LINE
  8
0
 62
     250
 10
1451.25
 20
371.15
 30
0.0
 11
1450.48
 21
373.249
 31
0.0
  0
LINE
  8
0
 62
     250
 10
1450.48
 20
373.249
 30
0.0
 11
1450.19
 21
373.93
 31
0.0
  0
LINE
  8
0
 62
     250
 10
1450.19
 20
373.93
 30
0.0
 11
1449.77
 21
374.911
 31
0.0
  0
LINE
  8
0
 62
     250
 10
1449.77
 20
374.911
 30
0.0
 11
1447.99
 21
377.62
 31
0.0
  0
LINE
  8
0
 62
     250
 10
1447.99
 20
377.62
 30
0.0
 11
1445.05
 21
380.404
 31
0.0
  0
LINE
  8
0
 62
     250
 10
1445.05
 20
380.404
 30
0.0
 11
1441.5
 21
382.189
 31
0.0
  0
LINE
  8
0
 62
     250
 10
1441.5
 20
382.189
 30
0.0
 11
1438.51
 21
382.852
 31
0.0
  0
LINE
  8
0
 62
     250
 10
1438.51
 20
382.852
 30
0.0
 11
1437.51
 21
382.877
 31
0.0
  0
LINE
  8
0
 62
     250
 10
1437.51
 20
382.877
 30
0.0
 11
1436.99
 21
382.891
 31
0.0
  0
LINE
  8
0
 62
     250
 10
1436.99
 20
382.891
 30
0.0
 11
1435.44
 21
382.714
 31
0.0
  0
LINE
  8
0
 62
     250
 10
1435.44
 20
382.714
 30
0.0
 11
1433.41
 21
382.164
 31
0.0
  0
LINE
  8
0
 62
     250
 10
1433.41
 20
382.164
 30
0.0
 11
1431.49
 21
381.3
 31
0.0
  0
LINE
  8
0
 62
     250
 10
1431.49
 20
381.3
 30
0.0
 11
1429.73
 21
380.182
 31
0.0
  0
LINE
  8
0
 62
     250
 10
1429.73
 20
380.182
 30
0.0
 11
1428.16
 21
378.883
 31
0.0
  0
LINE
  8
0
 62
     250
 10
1428.16
 20
378.883
 30
0.0
 11
1426.86
 21
377.472
 31
0.0
  0
LINE
  8
0
 62
     250
 10
1426.86
 20
377.472
 30
0.0
 11
1425.85
 21
376.019
 31
0.0
  0
LINE
  8
0
 62
     250
 10
1425.85
 20
376.019
 30
0.0
 11
1425.32
 21
374.957
 31
0.0
  0
LINE
  8
0
 62
     250
 10
1425.32
 20
374.957
 30
0.0
 11
1425.2
 21
374.586
 31
0.0
  0
LINE
  8
0
 62
     250
 10
1425.2
 20
374.586
 30
0.0
 11
1425.12
 21
374.318
 31
0.0
  0
LINE
  8
0
 62
     250
 10
1425.12
 20
374.318
 30
0.0
 11
1424.97
 21
373.475
 31
0.0
  0
LINE
  8
0
 62
     250
 10
1424.97
 20
373.475
 30
0.0
 11
1424.72
 21
371.613
 31
0.0
  0
LINE
  8
0
 62
     250
 10
1424.72
 20
371.613
 30
0.0
 11
1424.47
 21
369.111
 31
0.0
  0
LINE
  8
0
 62
     250
 10
1424.47
 20
369.111
 30
0.0
 11
1424.21
 21
366.085
 31
0.0
  0
LINE
  8
0
 62
     250
 10
1424.21
 20
366.085
 30
0.0
 11
1423.95
 21
362.648
 31
0.0
  0
LINE
  8
0
 62
     250
 10
1423.95
 20
362.648
 30
0.0
 11
1423.69
 21
358.913
 31
0.0
  0
LINE
  8
0
 62
     250
 10
1423.69
 20
358.913
 30
0.0
 11
1423.44
 21
354.997
 31
0.0
  0
LINE
  8
0
 62
     250
 10
1423.44
 20
354.997
 30
0.0
 11
1423.2
 21
351.007
 31
0.0
  0
LINE
  8
0
 62
     250
 10
1423.2
 20
351.007
 30
0.0
 11
1422.97
 21
347.063
 31
0.0
  0
LINE
  8
0
 62
     250
 10
1422.97
 20
347.063
 30
0.0
 11
1422.76
 21
343.275
 31
0.0
  0
LINE
  8
0
 62
     250
 10
1422.76
 20
343.275
 30
0.0
 11
1422.58
 21
339.76
 31
0.0
  0
LINE
  8
0
 62
     250
 10
1422.58
 20
339.76
 30
0.0
 11
1422.41
 21
336.627
 31
0.0
  0
LINE
  8
0
 62
     250
 10
1422.41
 20
336.627
 30
0.0
 11
1422.28
 21
333.994
 31
0.0
  0
LINE
  8
0
 62
     250
 10
1422.28
 20
333.994
 30
0.0
 11
1422.18
 21
331.971
 31
0.0
  0
LINE
  8
0
 62
     250
 10
1422.18
 20
331.971
 30
0.0
 11
1422.12
 21
330.674
 31
0.0
  0
LINE
  8
0
 62
     250
 10
1422.12
 20
330.674
 30
0.0
 11
1422.1
 21
330.217
 31
0.0
  0
LINE
  8
0
 62
     250
 10
1422.1
 20
330.217
 30
0.0
 11
1422.1
 21
330.217
 31
0.0
  0
LINE
  8
0
 62
     250
 10
1649.62
 20
282.17
 30
0.0
 11
1648.52
 21
282.199
 31
0.0
  0
LINE
  8
0
 62
     250
 10
1648.52
 20
282.199
 30
0.0
 11
1645.25
 21
282.508
 31
0.0
  0
LINE
  8
0
 62
     250
 10
1645.25
 20
282.508
 30
0.0
 11
1641.02
 21
283.271
 31
0.0
  0
LINE
  8
0
 62
     250
 10
1641.02
 20
283.271
 30
0.0
 11
1636.95
 21
284.438
 31
0.0
  0
LINE
  8
0
 62
     250
 10
1636.95
 20
284.438
 30
0.0
 11
1633.06
 21
285.988
 31
0.0
  0
LINE
  8
0
 62
     250
 10
1633.06
 20
285.988
 30
0.0
 11
1629.37
 21
287.898
 31
0.0
  0
LINE
  8
0
 62
     250
 10
1629.37
 20
287.898
 30
0.0
 11
1625.9
 21
290.146
 31
0.0
  0
LINE
  8
0
 62
     250
 10
1625.9
 20
290.146
 30
0.0
 11
1622.68
 21
292.709
 31
0.0
  0
LINE
  8
0
 62
     250
 10
1622.68
 20
292.709
 30
0.0
 11
1619.72
 21
295.566
 31
0.0
  0
LINE
  8
0
 62
     250
 10
1619.72
 20
295.566
 30
0.0
 11
1617.03
 21
298.694
 31
0.0
  0
LINE
  8
0
 62
     250
 10
1617.03
 20
298.694
 30
0.0
 11
1614.66
 21
302.072
 31
0.0
  0
LINE
  8
0
 62
     250
 10
1614.66
 20
302.072
 30
0.0
 11
1612.61
 21
305.675
 31
0.0
  0
LINE
  8
0
 62
     250
 10
1612.61
 20
305.675
 30
0.0
 11
1610.91
 21
309.484
 31
0.0
  0
LINE
  8
0
 62
     250
 10
1610.91
 20
309.484
 30
0.0
 11
1609.58
 21
313.476
 31
0.0
  0
LINE
  8
0
 62
     250
 10
1609.58
 20
313.476
 30
0.0
 11
1608.63
 21
317.627
 31
0.0
  0
LINE
  8
0
 62
     250
 10
1608.63
 20
317.627
 30
0.0
 11
1608.1
 21
321.917
 31
0.0
  0
LINE
  8
0
 62
     250
 10
1608.1
 20
321.917
 30
0.0
 11
1607.96
 21
325.223
 31
0.0
  0
LINE
  8
0
 62
     250
 10
1607.96
 20
325.223
 30
0.0
 11
1607.99
 21
326.322
 31
0.0
  0
LINE
  8
0
 62
     250
 10
1607.99
 20
326.322
 30
0.0
 11
1608.02
 21
327.423
 31
0.0
  0
LINE
  8
0
 62
     250
 10
1608.02
 20
327.423
 30
0.0
 11
1608.32
 21
330.717
 31
0.0
  0
LINE
  8
0
 62
     250
 10
1608.32
 20
330.717
 30
0.0
 11
1609.09
 21
334.972
 31
0.0
  0
LINE
  8
0
 62
     250
 10
1609.09
 20
334.972
 30
0.0
 11
1610.25
 21
339.069
 31
0.0
  0
LINE
  8
0
 62
     250
 10
1610.25
 20
339.069
 30
0.0
 11
1611.79
 21
342.984
 31
0.0
  0
LINE
  8
0
 62
     250
 10
1611.79
 20
342.984
 30
0.0
 11
1613.69
 21
346.699
 31
0.0
  0
LINE
  8
0
 62
     250
 10
1613.69
 20
346.699
 30
0.0
 11
1615.92
 21
350.191
 31
0.0
  0
LINE
  8
0
 62
     250
 10
1615.92
 20
350.191
 30
0.0
 11
1618.47
 21
353.441
 31
0.0
  0
LINE
  8
0
 62
     250
 10
1618.47
 20
353.441
 30
0.0
 11
1621.31
 21
356.422
 31
0.0
  0
LINE
  8
0
 62
     250
 10
1621.31
 20
356.422
 30
0.0
 11
1624.42
 21
359.121
 31
0.0
  0
LINE
  8
0
 62
     250
 10
1624.42
 20
359.121
 30
0.0
 11
1627.77
 21
361.513
 31
0.0
  0
LINE
  8
0
 62
     250
 10
1627.77
 20
361.513
 30
0.0
 11
1631.35
 21
363.576
 31
0.0
  0
LINE
  8
0
 62
     250
 10
1631.35
 20
363.576
 30
0.0
 11
1635.14
 21
365.287
 31
0.0
  0
LINE
  8
0
 62
     250
 10
1635.14
 20
365.287
 30
0.0
 11
1639.1
 21
366.631
 31
0.0
  0
LINE
  8
0
 62
     250
 10
1639.1
 20
366.631
 30
0.0
 11
1643.23
 21
367.587
 31
0.0
  0
LINE
  8
0
 62
     250
 10
1643.23
 20
367.587
 30
0.0
 11
1647.49
 21
368.127
 31
0.0
  0
LINE
  8
0
 62
     250
 10
1647.49
 20
368.127
 30
0.0
 11
1650.78
 21
368.261
 31
0.0
  0
LINE
  8
0
 62
     250
 10
1650.78
 20
368.261
 30
0.0
 11
1651.87
 21
368.233
 31
0.0
  0
LINE
  8
0
 62
     250
 10
1651.87
 20
368.233
 30
0.0
 11
1652.96
 21
368.205
 31
0.0
  0
LINE
  8
0
 62
     250
 10
1652.96
 20
368.205
 30
0.0
 11
1656.24
 21
367.898
 31
0.0
  0
LINE
  8
0
 62
     250
 10
1656.24
 20
367.898
 30
0.0
 11
1660.46
 21
367.136
 31
0.0
  0
LINE
  8
0
 62
     250
 10
1660.46
 20
367.136
 30
0.0
 11
1664.53
 21
365.968
 31
0.0
  0
LINE
  8
0
 62
     250
 10
1664.53
 20
365.968
 30
0.0
 11
1668.42
 21
364.416
 31
0.0
  0
LINE
  8
0
 62
     250
 10
1668.42
 20
364.416
 30
0.0
 11
1672.11
 21
362.507
 31
0.0
  0
LINE
  8
0
 62
     250
 10
1672.11
 20
362.507
 30
0.0
 11
1675.58
 21
360.26
 31
0.0
  0
LINE
  8
0
 62
     250
 10
1675.58
 20
360.26
 30
0.0
 11
1678.81
 21
357.696
 31
0.0
  0
LINE
  8
0
 62
     250
 10
1678.81
 20
357.696
 30
0.0
 11
1681.77
 21
354.838
 31
0.0
  0
LINE
  8
0
 62
     250
 10
1681.77
 20
354.838
 30
0.0
 11
1684.45
 21
351.711
 31
0.0
  0
LINE
  8
0
 62
     250
 10
1684.45
 20
351.711
 30
0.0
 11
1686.82
 21
348.333
 31
0.0
  0
LINE
  8
0
 62
     250
 10
1686.82
 20
348.333
 30
0.0
 11
1688.87
 21
344.73
 31
0.0
  0
LINE
  8
0
 62
     250
 10
1688.87
 20
344.73
 30
0.0
 11
1690.57
 21
340.921
 31
0.0
  0
LINE
  8
0
 62
     250
 10
1690.57
 20
340.921
 30
0.0
 11
1691.91
 21
336.93
 31
0.0
  0
LINE
  8
0
 62
     250
 10
1691.91
 20
336.93
 30
0.0
 11
1692.85
 21
332.778
 31
0.0
  0
LINE
  8
0
 62
     250
 10
1692.85
 20
332.778
 30
0.0
 11
1693.39
 21
328.488
 31
0.0
  0
LINE
  8
0
 62
     250
 10
1693.39
 20
328.488
 30
0.0
 11
1693.52
 21
325.182
 31
0.0
  0
LINE
  8
0
 62
     250
 10
1693.52
 20
325.182
 30
0.0
 11
1693.5
 21
324.083
 31
0.0
  0
LINE
  8
0
 62
     250
 10
1693.5
 20
324.083
 30
0.0
 11
1693.47
 21
322.983
 31
0.0
  0
LINE
  8
0
 62
     250
 10
1693.47
 20
322.983
 30
0.0
 11
1693.16
 21
319.69
 31
0.0
  0
LINE
  8
0
 62
     250
 10
1693.16
 20
319.69
 30
0.0
 11
1692.4
 21
315.434
 31
0.0
  0
LINE
  8
0
 62
     250
 10
1692.4
 20
315.434
 30
0.0
 11
1691.24
 21
311.337
 31
0.0
  0
LINE
  8
0
 62
     250
 10
1691.24
 20
311.337
 30
0.0
 11
1689.7
 21
307.421
 31
0.0
  0
LINE
  8
0
 62
     250
 10
1689.7
 20
307.421
 30
0.0
 11
1687.8
 21
303.707
 31
0.0
  0
LINE
  8
0
 62
     250
 10
1687.8
 20
303.707
 30
0.0
 11
1685.57
 21
300.215
 31
0.0
  0
LINE
  8
0
 62
     250
 10
1685.57
 20
300.215
 30
0.0
 11
1683.02
 21
296.967
 31
0.0
  0
LINE
  8
0
 62
     250
 10
1683.02
 20
296.967
 30
0.0
 11
1680.18
 21
293.982
 31
0.0
  0
LINE
  8
0
 62
     250
 10
1680.18
 20
293.982
 30
0.0
 11
1677.07
 21
291.285
 31
0.0
  0
LINE
  8
0
 62
     250
 10
1677.07
 20
291.285
 30
0.0
 11
1673.71
 21
288.893
 31
0.0
  0
LINE
  8
0
 62
     250
 10
1673.71
 20
288.893
 30
0.0
 11
1670.13
 21
286.831
 31
0.0
  0
LINE
  8
0
 62
     250
 10
1670.13
 20
286.831
 30
0.0
 11
1666.35
 21
285.116
 31
0.0
  0
LINE
  8
0
 62
     250
 10
1666.35
 20
285.116
 30
0.0
 11
1662.38
 21
283.773
 31
0.0
  0
LINE
  8
0
 62
     250
 10
1662.38
 20
283.773
 30
0.0
 11
1658.26
 21
282.819
 31
0.0
  0
LINE
  8
0
 62
     250
 10
1658.26
 20
282.819
 30
0.0
 11
1653.99
 21
282.279
 31
0.0
  0
LINE
  8
0
 62
     250
 10
1653.99
 20
282.279
 30
0.0
 11
1650.71
 21
282.142
 31
0.0
  0
LINE
  8
0
 62
     250
 10
1650.71
 20
282.142
 30
0.0
 11
1649.62
 21
282.17
 31
0.0
  0
LINE
  8
0
 62
     250
 10
1648.51
 20
284.67
 30
0.0
 11
1647.41
 21
284.699
 31
0.0
  0
LINE
  8
0
 62
     250
 10
1647.41
 20
284.699
 30
0.0
 11
1644.14
 21
285.007
 31
0.0
  0
LINE
  8
0
 62
     250
 10
1644.14
 20
285.007
 30
0.0
 11
1639.91
 21
285.771
 31
0.0
  0
LINE
  8
0
 62
     250
 10
1639.91
 20
285.771
 30
0.0
 11
1635.84
 21
286.938
 31
0.0
  0
LINE
  8
0
 62
     250
 10
1635.84
 20
286.938
 30
0.0
 11
1631.95
 21
288.488
 31
0.0
  0
LINE
  8
0
 62
     250
 10
1631.95
 20
288.488
 30
0.0
 11
1628.26
 21
290.398
 31
0.0
  0
LINE
  8
0
 62
     250
 10
1628.26
 20
290.398
 30
0.0
 11
1624.79
 21
292.646
 31
0.0
  0
LINE
  8
0
 62
     250
 10
1624.79
 20
292.646
 30
0.0
 11
1621.57
 21
295.209
 31
0.0
  0
LINE
  8
0
 62
     250
 10
1621.57
 20
295.209
 30
0.0
 11
1618.6
 21
298.065
 31
0.0
  0
LINE
  8
0
 62
     250
 10
1618.6
 20
298.065
 30
0.0
 11
1615.92
 21
301.194
 31
0.0
  0
LINE
  8
0
 62
     250
 10
1615.92
 20
301.194
 30
0.0
 11
1613.55
 21
304.571
 31
0.0
  0
LINE
  8
0
 62
     250
 10
1613.55
 20
304.571
 30
0.0
 11
1611.5
 21
308.175
 31
0.0
  0
LINE
  8
0
 62
     250
 10
1611.5
 20
308.175
 30
0.0
 11
1609.8
 21
311.984
 31
0.0
  0
LINE
  8
0
 62
     250
 10
1609.8
 20
311.984
 30
0.0
 11
1608.47
 21
315.975
 31
0.0
  0
LINE
  8
0
 62
     250
 10
1608.47
 20
315.975
 30
0.0
 11
1607.52
 21
320.126
 31
0.0
  0
LINE
  8
0
 62
     250
 10
1607.52
 20
320.126
 30
0.0
 11
1606.98
 21
324.416
 31
0.0
  0
LINE
  8
0
 62
     250
 10
1606.98
 20
324.416
 30
0.0
 11
1606.85
 21
327.722
 31
0.0
  0
LINE
  8
0
 62
     250
 10
1606.85
 20
327.722
 30
0.0
 11
1606.88
 21
328.821
 31
0.0
  0
LINE
  8
0
 62
     250
 10
1606.88
 20
328.821
 30
0.0
 11
1606.91
 21
329.922
 31
0.0
  0
LINE
  8
0
 62
     250
 10
1606.91
 20
329.922
 30
0.0
 11
1607.21
 21
333.215
 31
0.0
  0
LINE
  8
0
 62
     250
 10
1607.21
 20
333.215
 30
0.0
 11
1607.98
 21
337.472
 31
0.0
  0
LINE
  8
0
 62
     250
 10
1607.98
 20
337.472
 30
0.0
 11
1609.14
 21
341.568
 31
0.0
  0
LINE
  8
0
 62
     250
 10
1609.14
 20
341.568
 30
0.0
 11
1610.68
 21
345.484
 31
0.0
  0
LINE
  8
0
 62
     250
 10
1610.68
 20
345.484
 30
0.0
 11
1612.58
 21
349.199
 31
0.0
  0
LINE
  8
0
 62
     250
 10
1612.58
 20
349.199
 30
0.0
 11
1614.81
 21
352.691
 31
0.0
  0
LINE
  8
0
 62
     250
 10
1614.81
 20
352.691
 30
0.0
 11
1617.36
 21
355.939
 31
0.0
  0
LINE
  8
0
 62
     250
 10
1617.36
 20
355.939
 30
0.0
 11
1620.2
 21
358.923
 31
0.0
  0
LINE
  8
0
 62
     250
 10
1620.2
 20
358.923
 30
0.0
 11
1623.31
 21
361.622
 31
0.0
  0
LINE
  8
0
 62
     250
 10
1623.31
 20
361.622
 30
0.0
 11
1626.66
 21
364.01
 31
0.0
  0
LINE
  8
0
 62
     250
 10
1626.66
 20
364.01
 30
0.0
 11
1630.24
 21
366.074
 31
0.0
  0
LINE
  8
0
 62
     250
 10
1630.24
 20
366.074
 30
0.0
 11
1634.03
 21
367.788
 31
0.0
  0
LINE
  8
0
 62
     250
 10
1634.03
 20
367.788
 30
0.0
 11
1638
 21
369.133
 31
0.0
  0
LINE
  8
0
 62
     250
 10
1638
 20
369.133
 30
0.0
 11
1642.12
 21
370.085
 31
0.0
  0
LINE
  8
0
 62
     250
 10
1642.12
 20
370.085
 30
0.0
 11
1646.38
 21
370.625
 31
0.0
  0
LINE
  8
0
 62
     250
 10
1646.38
 20
370.625
 30
0.0
 11
1649.67
 21
370.762
 31
0.0
  0
LINE
  8
0
 62
     250
 10
1649.67
 20
370.762
 30
0.0
 11
1650.76
 21
370.734
 31
0.0
  0
LINE
  8
0
 62
     250
 10
1650.76
 20
370.734
 30
0.0
 11
1651.85
 21
370.706
 31
0.0
  0
LINE
  8
0
 62
     250
 10
1651.85
 20
370.706
 30
0.0
 11
1655.12
 21
370.399
 31
0.0
  0
LINE
  8
0
 62
     250
 10
1655.12
 20
370.399
 30
0.0
 11
1659.35
 21
369.634
 31
0.0
  0
LINE
  8
0
 62
     250
 10
1659.35
 20
369.634
 30
0.0
 11
1663.42
 21
368.466
 31
0.0
  0
LINE
  8
0
 62
     250
 10
1663.42
 20
368.466
 30
0.0
 11
1667.31
 21
366.917
 31
0.0
  0
LINE
  8
0
 62
     250
 10
1667.31
 20
366.917
 30
0.0
 11
1671
 21
365.005
 31
0.0
  0
LINE
  8
0
 62
     250
 10
1671
 20
365.005
 30
0.0
 11
1674.47
 21
362.758
 31
0.0
  0
LINE
  8
0
 62
     250
 10
1674.47
 20
362.758
 30
0.0
 11
1677.7
 21
360.197
 31
0.0
  0
LINE
  8
0
 62
     250
 10
1677.7
 20
360.197
 30
0.0
 11
1680.66
 21
357.339
 31
0.0
  0
LINE
  8
0
 62
     250
 10
1680.66
 20
357.339
 30
0.0
 11
1683.34
 21
354.21
 31
0.0
  0
LINE
  8
0
 62
     250
 10
1683.34
 20
354.21
 30
0.0
 11
1685.71
 21
350.833
 31
0.0
  0
LINE
  8
0
 62
     250
 10
1685.71
 20
350.833
 30
0.0
 11
1687.76
 21
347.23
 31
0.0
  0
LINE
  8
0
 62
     250
 10
1687.76
 20
347.23
 30
0.0
 11
1689.46
 21
343.421
 31
0.0
  0
LINE
  8
0
 62
     250
 10
1689.46
 20
343.421
 30
0.0
 11
1690.8
 21
339.43
 31
0.0
  0
LINE
  8
0
 62
     250
 10
1690.8
 20
339.43
 30
0.0
 11
1691.74
 21
335.278
 31
0.0
  0
LINE
  8
0
 62
     250
 10
1691.74
 20
335.278
 30
0.0
 11
1692.28
 21
330.988
 31
0.0
  0
LINE
  8
0
 62
     250
 10
1692.28
 20
330.988
 30
0.0
 11
1692.41
 21
327.682
 31
0.0
  0
LINE
  8
0
 62
     250
 10
1692.41
 20
327.682
 30
0.0
 11
1692.38
 21
326.583
 31
0.0
  0
LINE
  8
0
 62
     250
 10
1692.38
 20
326.583
 30
0.0
 11
1692.36
 21
325.483
 31
0.0
  0
LINE
  8
0
 62
     250
 10
1692.36
 20
325.483
 30
0.0
 11
1692.05
 21
322.189
 31
0.0
  0
LINE
  8
0
 62
     250
 10
1692.05
 20
322.189
 30
0.0
 11
1691.29
 21
317.933
 31
0.0
  0
LINE
  8
0
 62
     250
 10
1691.29
 20
317.933
 30
0.0
 11
1690.13
 21
313.837
 31
0.0
  0
LINE
  8
0
 62
     250
 10
1690.13
 20
313.837
 30
0.0
 11
1688.59
 21
309.921
 31
0.0
  0
LINE
  8
0
 62
     250
 10
1688.59
 20
309.921
 30
0.0
 11
1686.69
 21
306.205
 31
0.0
  0
LINE
  8
0
 62
     250
 10
1686.69
 20
306.205
 30
0.0
 11
1684.45
 21
302.714
 31
0.0
  0
LINE
  8
0
 62
     250
 10
1684.45
 20
302.714
 30
0.0
 11
1681.91
 21
299.466
 31
0.0
  0
LINE
  8
0
 62
     250
 10
1681.91
 20
299.466
 30
0.0
 11
1679.07
 21
296.482
 31
0.0
  0
LINE
  8
0
 62
     250
 10
1679.07
 20
296.482
 30
0.0
 11
1675.96
 21
293.784
 31
0.0
  0
LINE
  8
0
 62
     250
 10
1675.96
 20
293.784
 30
0.0
 11
1672.6
 21
291.393
 31
0.0
  0
LINE
  8
0
 62
     250
 10
1672.6
 20
291.393
 30
0.0
 11
1669.02
 21
289.33
 31
0.0
  0
LINE
  8
0
 62
     250
 10
1669.02
 20
289.33
 30
0.0
 11
1665.23
 21
287.616
 31
0.0
  0
LINE
  8
0
 62
     250
 10
1665.23
 20
287.616
 30
0.0
 11
1661.27
 21
286.272
 31
0.0
  0
LINE
  8
0
 62
     250
 10
1661.27
 20
286.272
 30
0.0
 11
1657.15
 21
285.319
 31
0.0
  0
LINE
  8
0
 62
     250
 10
1657.15
 20
285.319
 30
0.0
 11
1652.88
 21
284.778
 31
0.0
  0
LINE
  8
0
 62
     250
 10
1652.88
 20
284.778
 30
0.0
 11
1649.6
 21
284.642
 31
0.0
  0
LINE
  8
0
 62
     250
 10
1649.6
 20
284.642
 30
0.0
 11
1648.51
 21
284.67
 31
0.0
  0
LINE
  8
0
 62
     250
 10
1645.78
 20
295.279
 30
0.0
 11
1644.21
 21
295.321
 31
0.0
  0
LINE
  8
0
 62
     250
 10
1644.21
 20
295.321
 30
0.0
 11
1639.5
 21
296.099
 31
0.0
  0
LINE
  8
0
 62
     250
 10
1639.5
 20
296.099
 30
0.0
 11
1633.69
 21
298.129
 31
0.0
  0
LINE
  8
0
 62
     250
 10
1633.69
 20
298.129
 30
0.0
 11
1628.46
 21
301.238
 31
0.0
  0
LINE
  8
0
 62
     250
 10
1628.46
 20
301.238
 30
0.0
 11
1623.94
 21
305.291
 31
0.0
  0
LINE
  8
0
 62
     250
 10
1623.94
 20
305.291
 30
0.0
 11
1620.26
 21
310.157
 31
0.0
  0
LINE
  8
0
 62
     250
 10
1620.26
 20
310.157
 30
0.0
 11
1617.52
 21
315.703
 31
0.0
  0
LINE
  8
0
 62
     250
 10
1617.52
 20
315.703
 30
0.0
 11
1615.86
 21
321.795
 31
0.0
  0
LINE
  8
0
 62
     250
 10
1615.86
 20
321.795
 30
0.0
 11
1615.35
 21
326.679
 31
0.0
  0
LINE
  8
0
 62
     250
 10
1615.35
 20
326.679
 30
0.0
 11
1615.39
 21
328.301
 31
0.0
  0
LINE
  8
0
 62
     250
 10
1615.39
 20
328.301
 30
0.0
 11
1615.43
 21
329.924
 31
0.0
  0
LINE
  8
0
 62
     250
 10
1615.43
 20
329.924
 30
0.0
 11
1616.19
 21
334.775
 31
0.0
  0
LINE
  8
0
 62
     250
 10
1616.19
 20
334.775
 30
0.0
 11
1618.17
 21
340.774
 31
0.0
  0
LINE
  8
0
 62
     250
 10
1618.17
 20
340.774
 30
0.0
 11
1621.2
 21
346.169
 31
0.0
  0
LINE
  8
0
 62
     250
 10
1621.2
 20
346.169
 30
0.0
 11
1625.13
 21
350.835
 31
0.0
  0
LINE
  8
0
 62
     250
 10
1625.13
 20
350.835
 30
0.0
 11
1629.86
 21
354.647
 31
0.0
  0
LINE
  8
0
 62
     250
 10
1629.86
 20
354.647
 30
0.0
 11
1635.24
 21
357.477
 31
0.0
  0
LINE
  8
0
 62
     250
 10
1635.24
 20
357.477
 30
0.0
 11
1641.15
 21
359.198
 31
0.0
  0
LINE
  8
0
 62
     250
 10
1641.15
 20
359.198
 30
0.0
 11
1645.9
 21
359.731
 31
0.0
  0
LINE
  8
0
 62
     250
 10
1645.9
 20
359.731
 30
0.0
 11
1647.47
 21
359.689
 31
0.0
  0
LINE
  8
0
 62
     250
 10
1647.47
 20
359.689
 30
0.0
 11
1649.04
 21
359.65
 31
0.0
  0
LINE
  8
0
 62
     250
 10
1649.04
 20
359.65
 30
0.0
 11
1653.74
 21
358.87
 31
0.0
  0
LINE
  8
0
 62
     250
 10
1653.74
 20
358.87
 30
0.0
 11
1659.56
 21
356.842
 31
0.0
  0
LINE
  8
0
 62
     250
 10
1659.56
 20
356.842
 30
0.0
 11
1664.79
 21
353.73
 31
0.0
  0
LINE
  8
0
 62
     250
 10
1664.79
 20
353.73
 30
0.0
 11
1669.31
 21
349.679
 31
0.0
  0
LINE
  8
0
 62
     250
 10
1669.31
 20
349.679
 30
0.0
 11
1672.99
 21
344.811
 31
0.0
  0
LINE
  8
0
 62
     250
 10
1672.99
 20
344.811
 30
0.0
 11
1675.73
 21
339.266
 31
0.0
  0
LINE
  8
0
 62
     250
 10
1675.73
 20
339.266
 30
0.0
 11
1677.39
 21
333.173
 31
0.0
  0
LINE
  8
0
 62
     250
 10
1677.39
 20
333.173
 30
0.0
 11
1677.9
 21
328.289
 31
0.0
  0
LINE
  8
0
 62
     250
 10
1677.9
 20
328.289
 30
0.0
 11
1677.86
 21
326.665
 31
0.0
  0
LINE
  8
0
 62
     250
 10
1677.86
 20
326.665
 30
0.0
 11
1677.81
 21
325.043
 31
0.0
  0
LINE
  8
0
 62
     250
 10
1677.81
 20
325.043
 30
0.0
 11
1677.05
 21
320.193
 31
0.0
  0
LINE
  8
0
 62
     250
 10
1677.05
 20
320.193
 30
0.0
 11
1675.07
 21
314.196
 31
0.0
  0
LINE
  8
0
 62
     250
 10
1675.07
 20
314.196
 30
0.0
 11
1672.05
 21
308.801
 31
0.0
  0
LINE
  8
0
 62
     250
 10
1672.05
 20
308.801
 30
0.0
 11
1668.11
 21
304.134
 31
0.0
  0
LINE
  8
0
 62
     250
 10
1668.11
 20
304.134
 30
0.0
 11
1663.39
 21
300.323
 31
0.0
  0
LINE
  8
0
 62
     250
 10
1663.39
 20
300.323
 30
0.0
 11
1658.01
 21
297.492
 31
0.0
  0
LINE
  8
0
 62
     250
 10
1658.01
 20
297.492
 30
0.0
 11
1652.09
 21
295.77
 31
0.0
  0
LINE
  8
0
 62
     250
 10
1652.09
 20
295.77
 30
0.0
 11
1647.35
 21
295.239
 31
0.0
  0
LINE
  8
0
 62
     250
 10
1647.35
 20
295.239
 30
0.0
 11
1645.78
 21
295.279
 31
0.0
  0
LINE
  8
0
 62
     250
 10
1802.78
 20
309.687
 30
0.0
 11
1803.3
 21
309.144
 31
0.0
  0
LINE
  8
0
 62
     250
 10
1803.3
 20
309.144
 30
0.0
 11
1804.99
 21
307.599
 31
0.0
  0
LINE
  8
0
 62
     250
 10
1804.99
 20
307.599
 30
0.0
 11
1807.82
 21
305.186
 31
0.0
  0
LINE
  8
0
 62
     250
 10
1807.82
 20
305.186
 30
0.0
 11
1811.02
 21
302.617
 31
0.0
  0
LINE
  8
0
 62
     250
 10
1811.02
 20
302.617
 30
0.0
 11
1814.35
 21
300.06
 31
0.0
  0
LINE
  8
0
 62
     250
 10
1814.35
 20
300.06
 30
0.0
 11
1817.55
 21
297.681
 31
0.0
  0
LINE
  8
0
 62
     250
 10
1817.55
 20
297.681
 30
0.0
 11
1820.4
 21
295.65
 31
0.0
  0
LINE
  8
0
 62
     250
 10
1820.4
 20
295.65
 30
0.0
 11
1822.63
 21
294.131
 31
0.0
  0
LINE
  8
0
 62
     250
 10
1822.63
 20
294.131
 30
0.0
 11
1823.65
 21
293.477
 31
0.0
  0
LINE
  8
0
 62
     250
 10
1823.65
 20
293.477
 30
0.0
 11
1824.01
 21
293.295
 31
0.0
  0
LINE
  8
0
 62
     250
 10
1824.01
 20
293.295
 30
0.0
 11
1824.46
 21
293.07
 31
0.0
  0
LINE
  8
0
 62
     250
 10
1824.46
 20
293.07
 30
0.0
 11
1825.98
 21
292.73
 31
0.0
  0
LINE
  8
0
 62
     250
 10
1825.98
 20
292.73
 30
0.0
 11
1828.29
 21
292.923
 31
0.0
  0
LINE
  8
0
 62
     250
 10
1828.29
 20
292.923
 30
0.0
 11
1830.81
 21
294.075
 31
0.0
  0
LINE
  8
0
 62
     250
 10
1830.81
 20
294.075
 30
0.0
 11
1832.84
 21
295.735
 31
0.0
  0
LINE
  8
0
 62
     250
 10
1832.84
 20
295.735
 30
0.0
 11
1833.4
 21
296.383
 31
0.0
  0
LINE
  8
0
 62
     250
 10
1833.4
 20
296.383
 30
0.0
 11
1833.77
 21
296.805
 31
0.0
  0
LINE
  8
0
 62
     250
 10
1833.77
 20
296.805
 30
0.0
 11
1834.72
 21
298.198
 31
0.0
  0
LINE
  8
0
 62
     250
 10
1834.72
 20
298.198
 30
0.0
 11
1836.07
 21
300.662
 31
0.0
  0
LINE
  8
0
 62
     250
 10
1836.07
 20
300.662
 30
0.0
 11
1837.39
 21
303.734
 31
0.0
  0
LINE
  8
0
 62
     250
 10
1837.39
 20
303.734
 30
0.0
 11
1838.62
 21
307.377
 31
0.0
  0
LINE
  8
0
 62
     250
 10
1838.62
 20
307.377
 30
0.0
 11
1839.71
 21
311.551
 31
0.0
  0
LINE
  8
0
 62
     250
 10
1839.71
 20
311.551
 30
0.0
 11
1840.6
 21
316.217
 31
0.0
  0
LINE
  8
0
 62
     250
 10
1840.6
 20
316.217
 30
0.0
 11
1841.24
 21
321.336
 31
0.0
  0
LINE
  8
0
 62
     250
 10
1841.24
 20
321.336
 30
0.0
 11
1841.52
 21
325.484
 31
0.0
  0
LINE
  8
0
 62
     250
 10
1841.52
 20
325.484
 30
0.0
 11
1841.56
 21
326.868
 31
0.0
  0
LINE
  8
0
 62
     250
 10
1841.56
 20
326.868
 30
0.0
 11
1841.6
 21
328.26
 31
0.0
  0
LINE
  8
0
 62
     250
 10
1841.6
 20
328.26
 30
0.0
 11
1841.45
 21
332.442
 31
0.0
  0
LINE
  8
0
 62
     250
 10
1841.45
 20
332.442
 30
0.0
 11
1840.89
 21
337.742
 31
0.0
  0
LINE
  8
0
 62
     250
 10
1840.89
 20
337.742
 30
0.0
 11
1839.99
 21
342.669
 31
0.0
  0
LINE
  8
0
 62
     250
 10
1839.99
 20
342.669
 30
0.0
 11
1838.84
 21
347.115
 31
0.0
  0
LINE
  8
0
 62
     250
 10
1838.84
 20
347.115
 30
0.0
 11
1837.56
 21
350.981
 31
0.0
  0
LINE
  8
0
 62
     250
 10
1837.56
 20
350.981
 30
0.0
 11
1836.24
 21
354.161
 31
0.0
  0
LINE
  8
0
 62
     250
 10
1836.24
 20
354.161
 30
0.0
 11
1834.99
 21
356.549
 31
0.0
  0
LINE
  8
0
 62
     250
 10
1834.99
 20
356.549
 30
0.0
 11
1834.22
 21
357.713
 31
0.0
  0
LINE
  8
0
 62
     250
 10
1834.22
 20
357.713
 30
0.0
 11
1833.9
 21
358.045
 31
0.0
  0
LINE
  8
0
 62
     250
 10
1833.9
 20
358.045
 30
0.0
 11
1833.46
 21
358.51
 31
0.0
  0
LINE
  8
0
 62
     250
 10
1833.46
 20
358.51
 30
0.0
 11
1831.97
 21
359.756
 31
0.0
  0
LINE
  8
0
 62
     250
 10
1831.97
 20
359.756
 30
0.0
 11
1830.02
 21
360.803
 31
0.0
  0
LINE
  8
0
 62
     250
 10
1830.02
 20
360.803
 30
0.0
 11
1828.05
 21
361.149
 31
0.0
  0
LINE
  8
0
 62
     250
 10
1828.05
 20
361.149
 30
0.0
 11
1826.52
 21
360.934
 31
0.0
  0
LINE
  8
0
 62
     250
 10
1826.52
 20
360.934
 30
0.0
 11
1826.06
 21
360.751
 31
0.0
  0
LINE
  8
0
 62
     250
 10
1826.06
 20
360.751
 30
0.0
 11
1825.67
 21
360.599
 31
0.0
  0
LINE
  8
0
 62
     250
 10
1825.67
 20
360.599
 30
0.0
 11
1824.55
 21
360.024
 31
0.0
  0
LINE
  8
0
 62
     250
 10
1824.55
 20
360.024
 30
0.0
 11
1822.2
 21
358.729
 31
0.0
  0
LINE
  8
0
 62
     250
 10
1822.2
 20
358.729
 30
0.0
 11
1819.28
 21
357.029
 31
0.0
  0
LINE
  8
0
 62
     250
 10
1819.28
 20
357.029
 30
0.0
 11
1816.06
 21
355.074
 31
0.0
  0
LINE
  8
0
 62
     250
 10
1816.06
 20
355.074
 30
0.0
 11
1812.83
 21
353.032
 31
0.0
  0
LINE
  8
0
 62
     250
 10
1812.83
 20
353.032
 30
0.0
 11
1809.85
 21
351.057
 31
0.0
  0
LINE
  8
0
 62
     250
 10
1809.85
 20
351.057
 30
0.0
 11
1807.38
 21
349.309
 31
0.0
  0
LINE
  8
0
 62
     250
 10
1807.38
 20
349.309
 30
0.0
 11
1806.11
 21
348.317
 31
0.0
  0
LINE
  8
0
 62
     250
 10
1806.11
 20
348.317
 30
0.0
 11
1805.72
 21
347.948
 31
0.0
  0
LINE
  8
0
 62
     250
 10
1806.91
 20
346.519
 30
0.0
 11
1806.96
 21
346.52
 31
0.0
  0
LINE
  8
0
 62
     250
 10
1806.96
 20
346.52
 30
0.0
 11
1807.44
 21
346.515
 31
0.0
  0
LINE
  8
0
 62
     250
 10
1807.44
 20
346.515
 30
0.0
 11
1807.49
 21
346.513
 31
0.0
  0
LINE
  8
0
 62
     250
 10
1807.49
 20
346.513
 30
0.0
 11
1808.38
 21
346.491
 31
0.0
  0
LINE
  8
0
 62
     250
 10
1808.38
 20
346.491
 30
0.0
 11
1811.04
 21
346.061
 31
0.0
  0
LINE
  8
0
 62
     250
 10
1811.04
 20
346.061
 30
0.0
 11
1814.34
 21
344.942
 31
0.0
  0
LINE
  8
0
 62
     250
 10
1814.34
 20
344.942
 30
0.0
 11
1817.3
 21
343.232
 31
0.0
  0
LINE
  8
0
 62
     250
 10
1817.3
 20
343.232
 30
0.0
 11
1819.87
 21
341.002
 31
0.0
  0
LINE
  8
0
 62
     250
 10
1819.87
 20
341.002
 30
0.0
 11
1821.96
 21
338.326
 31
0.0
  0
LINE
  8
0
 62
     250
 10
1821.96
 20
338.326
 30
0.0
 11
1823.51
 21
335.277
 31
0.0
  0
LINE
  8
0
 62
     250
 10
1823.51
 20
335.277
 30
0.0
 11
1824.46
 21
331.928
 31
0.0
  0
LINE
  8
0
 62
     250
 10
1824.46
 20
331.928
 30
0.0
 11
1824.75
 21
329.244
 31
0.0
  0
LINE
  8
0
 62
     250
 10
1824.75
 20
329.244
 30
0.0
 11
1824.73
 21
328.351
 31
0.0
  0
LINE
  8
0
 62
     250
 10
1824.73
 20
328.351
 30
0.0
 11
1824.7
 21
327.46
 31
0.0
  0
LINE
  8
0
 62
     250
 10
1824.7
 20
327.46
 30
0.0
 11
1824.27
 21
324.794
 31
0.0
  0
LINE
  8
0
 62
     250
 10
1824.27
 20
324.794
 30
0.0
 11
1823.15
 21
321.499
 31
0.0
  0
LINE
  8
0
 62
     250
 10
1823.15
 20
321.499
 30
0.0
 11
1821.44
 21
318.535
 31
0.0
  0
LINE
  8
0
 62
     250
 10
1821.44
 20
318.535
 30
0.0
 11
1819.21
 21
315.972
 31
0.0
  0
LINE
  8
0
 62
     250
 10
1819.21
 20
315.972
 30
0.0
 11
1816.53
 21
313.88
 31
0.0
  0
LINE
  8
0
 62
     250
 10
1816.53
 20
313.88
 30
0.0
 11
1813.49
 21
312.327
 31
0.0
  0
LINE
  8
0
 62
     250
 10
1813.49
 20
312.327
 30
0.0
 11
1810.14
 21
311.383
 31
0.0
  0
LINE
  8
0
 62
     250
 10
1810.14
 20
311.383
 30
0.0
 11
1807.45
 21
311.094
 31
0.0
  0
LINE
  8
0
 62
     250
 10
1807.45
 20
311.094
 30
0.0
 11
1806.56
 21
311.115
 31
0.0
  0
LINE
  8
0
 62
     250
 10
1806.56
 20
311.115
 30
0.0
 11
1806.45
 21
311.118
 31
0.0
  0
LINE
  8
0
 62
     250
 10
1806.45
 20
311.118
 30
0.0
 11
1805.33
 21
311.19
 31
0.0
  0
LINE
  8
0
 62
     250
 10
1805.33
 20
311.19
 30
0.0
 11
1805.22
 21
311.201
 31
0.0
  0
LINE
  8
0
 62
     250
 10
1814.27
 20
329.667
 30
0.0
 11
1814.25
 21
329.056
 31
0.0
  0
LINE
  8
0
 62
     250
 10
1814.25
 20
329.056
 30
0.0
 11
1814.02
 21
327.226
 31
0.0
  0
LINE
  8
0
 62
     250
 10
1814.02
 20
327.226
 30
0.0
 11
1813.46
 21
324.749
 31
0.0
  0
LINE
  8
0
 62
     250
 10
1813.46
 20
324.749
 30
0.0
 11
1812.68
 21
322.315
 31
0.0
  0
LINE
  8
0
 62
     250
 10
1812.68
 20
322.315
 30
0.0
 11
1811.74
 21
320.009
 31
0.0
  0
LINE
  8
0
 62
     250
 10
1811.74
 20
320.009
 30
0.0
 11
1810.74
 21
317.915
 31
0.0
  0
LINE
  8
0
 62
     250
 10
1810.74
 20
317.915
 30
0.0
 11
1809.75
 21
316.111
 31
0.0
  0
LINE
  8
0
 62
     250
 10
1809.75
 20
316.111
 30
0.0
 11
1808.86
 21
314.683
 31
0.0
  0
LINE
  8
0
 62
     250
 10
1808.86
 20
314.683
 30
0.0
 11
1808.35
 21
313.945
 31
0.0
  0
LINE
  8
0
 62
     250
 10
1808.35
 20
313.945
 30
0.0
 11
1808.16
 21
313.713
 31
0.0
  0
LINE
  8
0
 62
     250
 10
1808.16
 20
313.713
 30
0.0
 11
1807.82
 21
313.303
 31
0.0
  0
LINE
  8
0
 62
     250
 10
1807.82
 20
313.303
 30
0.0
 11
1806.59
 21
312.24
 31
0.0
  0
LINE
  8
0
 62
     250
 10
1806.59
 20
312.24
 30
0.0
 11
1804.37
 21
310.862
 31
0.0
  0
LINE
  8
0
 62
     250
 10
1804.37
 20
310.862
 30
0.0
 11
1801.69
 21
309.859
 31
0.0
  0
LINE
  8
0
 62
     250
 10
1801.69
 20
309.859
 30
0.0
 11
1799.47
 21
309.497
 31
0.0
  0
LINE
  8
0
 62
     250
 10
1799.47
 20
309.497
 30
0.0
 11
1798.74
 21
309.514
 31
0.0
  0
LINE
  8
0
 62
     250
 10
1798.74
 20
309.514
 30
0.0
 11
1798.08
 21
309.532
 31
0.0
  0
LINE
  8
0
 62
     250
 10
1798.08
 20
309.532
 30
0.0
 11
1796.09
 21
309.585
 31
0.0
  0
LINE
  8
0
 62
     250
 10
1796.09
 20
309.585
 30
0.0
 11
1791.59
 21
309.703
 31
0.0
  0
LINE
  8
0
 62
     250
 10
1791.59
 20
309.703
 30
0.0
 11
1785.89
 21
309.852
 31
0.0
  0
LINE
  8
0
 62
     250
 10
1785.89
 20
309.852
 30
0.0
 11
1779.64
 21
310.016
 31
0.0
  0
LINE
  8
0
 62
     250
 10
1779.64
 20
310.016
 30
0.0
 11
1773.48
 21
310.177
 31
0.0
  0
LINE
  8
0
 62
     250
 10
1773.48
 20
310.177
 30
0.0
 11
1768.08
 21
310.318
 31
0.0
  0
LINE
  8
0
 62
     250
 10
1768.08
 20
310.318
 30
0.0
 11
1764.06
 21
310.423
 31
0.0
  0
LINE
  8
0
 62
     250
 10
1764.06
 20
310.423
 30
0.0
 11
1762.58
 21
310.461
 31
0.0
  0
LINE
  8
0
 62
     250
 10
1762.58
 20
310.461
 30
0.0
 11
1762.1
 21
310.473
 31
0.0
  0
LINE
  8
0
 62
     250
 10
1762.1
 20
310.473
 30
0.0
 11
1761.87
 21
310.479
 31
0.0
  0
LINE
  8
0
 62
     250
 10
1761.87
 20
310.479
 30
0.0
 11
1761.21
 21
310.727
 31
0.0
  0
LINE
  8
0
 62
     250
 10
1761.21
 20
310.727
 30
0.0
 11
1760.1
 21
311.405
 31
0.0
  0
LINE
  8
0
 62
     250
 10
1760.1
 20
311.405
 30
0.0
 11
1758.88
 21
312.441
 31
0.0
  0
LINE
  8
0
 62
     250
 10
1758.88
 20
312.441
 30
0.0
 11
1757.63
 21
313.768
 31
0.0
  0
LINE
  8
0
 62
     250
 10
1757.63
 20
313.768
 30
0.0
 11
1756.49
 21
315.321
 31
0.0
  0
LINE
  8
0
 62
     250
 10
1756.49
 20
315.321
 30
0.0
 11
1755.55
 21
317.034
 31
0.0
  0
LINE
  8
0
 62
     250
 10
1755.55
 20
317.034
 30
0.0
 11
1754.92
 21
318.838
 31
0.0
  0
LINE
  8
0
 62
     250
 10
1754.92
 20
318.838
 30
0.0
 11
1754.71
 21
320.213
 31
0.0
  0
LINE
  8
0
 62
     250
 10
1754.71
 20
320.213
 30
0.0
 11
1754.72
 21
320.668
 31
0.0
  0
LINE
  8
0
 62
     250
 10
1754.72
 20
320.668
 30
0.0
 11
1754.73
 21
321.195
 31
0.0
  0
LINE
  8
0
 62
     250
 10
1754.73
 20
321.195
 30
0.0
 11
1754.78
 21
322.774
 31
0.0
  0
LINE
  8
0
 62
     250
 10
1754.78
 20
322.774
 30
0.0
 11
1754.84
 21
325.323
 31
0.0
  0
LINE
  8
0
 62
     250
 10
1754.84
 20
325.323
 30
0.0
 11
1754.92
 21
328.141
 31
0.0
  0
LINE
  8
0
 62
     250
 10
1754.92
 20
328.141
 30
0.0
 11
1755
 21
331.046
 31
0.0
  0
LINE
  8
0
 62
     250
 10
1755
 20
331.046
 30
0.0
 11
1755.07
 21
333.859
 31
0.0
  0
LINE
  8
0
 62
     250
 10
1755.07
 20
333.859
 30
0.0
 11
1755.13
 21
336.403
 31
0.0
  0
LINE
  8
0
 62
     250
 10
1755.13
 20
336.403
 30
0.0
 11
1755.19
 21
338.497
 31
0.0
  0
LINE
  8
0
 62
     250
 10
1755.19
 20
338.497
 30
0.0
 11
1755.22
 21
339.597
 31
0.0
  0
LINE
  8
0
 62
     250
 10
1755.22
 20
339.597
 30
0.0
 11
1755.23
 21
339.963
 31
0.0
  0
LINE
  8
0
 62
     250
 10
1755.23
 20
339.963
 30
0.0
 11
1755.24
 21
340.28
 31
0.0
  0
LINE
  8
0
 62
     250
 10
1755.24
 20
340.28
 30
0.0
 11
1755.38
 21
341.227
 31
0.0
  0
LINE
  8
0
 62
     250
 10
1755.38
 20
341.227
 30
0.0
 11
1755.79
 21
342.743
 31
0.0
  0
LINE
  8
0
 62
     250
 10
1755.79
 20
342.743
 30
0.0
 11
1756.45
 21
344.378
 31
0.0
  0
LINE
  8
0
 62
     250
 10
1756.45
 20
344.378
 30
0.0
 11
1757.38
 21
346.002
 31
0.0
  0
LINE
  8
0
 62
     250
 10
1757.38
 20
346.002
 30
0.0
 11
1758.59
 21
347.482
 31
0.0
  0
LINE
  8
0
 62
     250
 10
1758.59
 20
347.482
 30
0.0
 11
1760.09
 21
348.685
 31
0.0
  0
LINE
  8
0
 62
     250
 10
1760.09
 20
348.685
 30
0.0
 11
1761.87
 21
349.481
 31
0.0
  0
LINE
  8
0
 62
     250
 10
1761.87
 20
349.481
 30
0.0
 11
1763.44
 21
349.75
 31
0.0
  0
LINE
  8
0
 62
     250
 10
1763.44
 20
349.75
 30
0.0
 11
1763.96
 21
349.736
 31
0.0
  0
LINE
  8
0
 62
     250
 10
1763.96
 20
349.736
 30
0.0
 11
1764.76
 21
349.716
 31
0.0
  0
LINE
  8
0
 62
     250
 10
1764.76
 20
349.716
 30
0.0
 11
1767.18
 21
349.653
 31
0.0
  0
LINE
  8
0
 62
     250
 10
1767.18
 20
349.653
 30
0.0
 11
1771.99
 21
349.527
 31
0.0
  0
LINE
  8
0
 62
     250
 10
1771.99
 20
349.527
 30
0.0
 11
1777.82
 21
349.374
 31
0.0
  0
LINE
  8
0
 62
     250
 10
1777.82
 20
349.374
 30
0.0
 11
1784.09
 21
349.21
 31
0.0
  0
LINE
  8
0
 62
     250
 10
1784.09
 20
349.21
 30
0.0
 11
1790.22
 21
349.049
 31
0.0
  0
LINE
  8
0
 62
     250
 10
1790.22
 20
349.049
 30
0.0
 11
1795.66
 21
348.907
 31
0.0
  0
LINE
  8
0
 62
     250
 10
1795.66
 20
348.907
 30
0.0
 11
1799.82
 21
348.798
 31
0.0
  0
LINE
  8
0
 62
     250
 10
1799.82
 20
348.798
 30
0.0
 11
1801.55
 21
348.751
 31
0.0
  0
LINE
  8
0
 62
     250
 10
1801.55
 20
348.751
 30
0.0
 11
1802.13
 21
348.736
 31
0.0
  0
LINE
  8
0
 62
     250
 10
1802.13
 20
348.736
 30
0.0
 11
1802.7
 21
348.722
 31
0.0
  0
LINE
  8
0
 62
     250
 10
1802.7
 20
348.722
 30
0.0
 11
1804.4
 21
348.222
 31
0.0
  0
LINE
  8
0
 62
     250
 10
1804.4
 20
348.222
 30
0.0
 11
1806.39
 21
346.958
 31
0.0
  0
LINE
  8
0
 62
     250
 10
1806.39
 20
346.958
 30
0.0
 11
1808.05
 21
345.184
 31
0.0
  0
LINE
  8
0
 62
     250
 10
1808.05
 20
345.184
 30
0.0
 11
1809.07
 21
343.668
 31
0.0
  0
LINE
  8
0
 62
     250
 10
1809.07
 20
343.668
 30
0.0
 11
1809.34
 21
343.13
 31
0.0
  0
LINE
  8
0
 62
     250
 10
1809.34
 20
343.13
 30
0.0
 11
1809.68
 21
342.477
 31
0.0
  0
LINE
  8
0
 62
     250
 10
1809.68
 20
342.477
 30
0.0
 11
1810.74
 21
340.542
 31
0.0
  0
LINE
  8
0
 62
     250
 10
1810.74
 20
340.542
 30
0.0
 11
1812.4
 21
337.217
 31
0.0
  0
LINE
  8
0
 62
     250
 10
1812.4
 20
337.217
 30
0.0
 11
1813.76
 21
333.483
 31
0.0
  0
LINE
  8
0
 62
     250
 10
1813.76
 20
333.483
 30
0.0
 11
1814.29
 21
330.618
 31
0.0
  0
LINE
  8
0
 62
     250
 10
1814.29
 20
330.618
 30
0.0
 11
1814.27
 21
329.667
 31
0.0
  0
LINE
  8
0
 62
     250
 10
1381.55
 20
190.444
 30
0.0
 11
1380.94
 21
191.004
 31
0.0
  0
LINE
  8
0
 62
     250
 10
1380.94
 20
191.004
 30
0.0
 11
1379.15
 21
192.717
 31
0.0
  0
LINE
  8
0
 62
     250
 10
1379.15
 20
192.717
 30
0.0
 11
1376.36
 21
195.501
 31
0.0
  0
LINE
  8
0
 62
     250
 10
1376.36
 20
195.501
 30
0.0
 11
1373.33
 21
198.738
 31
0.0
  0
LINE
  8
0
 62
     250
 10
1373.33
 20
198.738
 30
0.0
 11
1370.16
 21
202.376
 31
0.0
  0
LINE
  8
0
 62
     250
 10
1370.16
 20
202.376
 30
0.0
 11
1367
 21
206.358
 31
0.0
  0
LINE
  8
0
 62
     250
 10
1367
 20
206.358
 30
0.0
 11
1363.98
 21
210.632
 31
0.0
  0
LINE
  8
0
 62
     250
 10
1363.98
 20
210.632
 30
0.0
 11
1361.21
 21
215.139
 31
0.0
  0
LINE
  8
0
 62
     250
 10
1361.21
 20
215.139
 30
0.0
 11
1359.36
 21
218.633
 31
0.0
  0
LINE
  8
0
 62
     250
 10
1359.36
 20
218.633
 30
0.0
 11
1358.83
 21
219.829
 31
0.0
  0
LINE
  8
0
 62
     250
 10
1358.83
 20
219.829
 30
0.0
 11
1358.02
 21
221.607
 31
0.0
  0
LINE
  8
0
 62
     250
 10
1358.02
 20
221.607
 30
0.0
 11
1355.84
 21
227.043
 31
0.0
  0
LINE
  8
0
 62
     250
 10
1355.84
 20
227.043
 30
0.0
 11
1352.92
 21
235.29
 31
0.0
  0
LINE
  8
0
 62
     250
 10
1352.92
 20
235.29
 30
0.0
 11
1350.12
 21
244.283
 31
0.0
  0
LINE
  8
0
 62
     250
 10
1350.12
 20
244.283
 30
0.0
 11
1347.54
 21
253.728
 31
0.0
  0
LINE
  8
0
 62
     250
 10
1347.54
 20
253.728
 30
0.0
 11
1345.27
 21
263.335
 31
0.0
  0
LINE
  8
0
 62
     250
 10
1345.27
 20
263.335
 30
0.0
 11
1343.37
 21
272.813
 31
0.0
  0
LINE
  8
0
 62
     250
 10
1343.37
 20
272.813
 30
0.0
 11
1341.94
 21
281.869
 31
0.0
  0
LINE
  8
0
 62
     250
 10
1341.94
 20
281.869
 30
0.0
 11
1341.21
 21
288.124
 31
0.0
  0
LINE
  8
0
 62
     250
 10
1341.21
 20
288.124
 30
0.0
 11
1341.06
 21
290.215
 31
0.0
  0
LINE
  8
0
 62
     250
 10
1341.06
 20
290.215
 30
0.0
 11
1340.98
 21
291.276
 31
0.0
  0
LINE
  8
0
 62
     250
 10
1340.98
 20
291.276
 30
0.0
 11
1340.8
 21
294.463
 31
0.0
  0
LINE
  8
0
 62
     250
 10
1340.8
 20
294.463
 30
0.0
 11
1340.62
 21
299.263
 31
0.0
  0
LINE
  8
0
 62
     250
 10
1340.62
 20
299.263
 30
0.0
 11
1340.51
 21
304.534
 31
0.0
  0
LINE
  8
0
 62
     250
 10
1340.51
 20
304.534
 30
0.0
 11
1340.46
 21
310.195
 31
0.0
  0
LINE
  8
0
 62
     250
 10
1340.46
 20
310.195
 30
0.0
 11
1340.47
 21
316.168
 31
0.0
  0
LINE
  8
0
 62
     250
 10
1340.47
 20
316.168
 30
0.0
 11
1340.54
 21
322.373
 31
0.0
  0
LINE
  8
0
 62
     250
 10
1340.54
 20
322.373
 30
0.0
 11
1340.67
 21
328.728
 31
0.0
  0
LINE
  8
0
 62
     250
 10
1340.67
 20
328.728
 30
0.0
 11
1340.84
 21
335.155
 31
0.0
  0
LINE
  8
0
 62
     250
 10
1340.84
 20
335.155
 30
0.0
 11
1341.05
 21
341.576
 31
0.0
  0
LINE
  8
0
 62
     250
 10
1341.05
 20
341.576
 30
0.0
 11
1341.31
 21
347.908
 31
0.0
  0
LINE
  8
0
 62
     250
 10
1341.31
 20
347.908
 30
0.0
 11
1341.6
 21
354.072
 31
0.0
  0
LINE
  8
0
 62
     250
 10
1341.6
 20
354.072
 30
0.0
 11
1341.93
 21
359.989
 31
0.0
  0
LINE
  8
0
 62
     250
 10
1341.93
 20
359.989
 30
0.0
 11
1342.28
 21
365.577
 31
0.0
  0
LINE
  8
0
 62
     250
 10
1342.28
 20
365.577
 30
0.0
 11
1342.66
 21
370.755
 31
0.0
  0
LINE
  8
0
 62
     250
 10
1342.66
 20
370.755
 30
0.0
 11
1343.06
 21
375.451
 31
0.0
  0
LINE
  8
0
 62
     250
 10
1343.06
 20
375.451
 30
0.0
 11
1343.36
 21
378.548
 31
0.0
  0
LINE
  8
0
 62
     250
 10
1343.36
 20
378.548
 30
0.0
 11
1343.47
 21
379.578
 31
0.0
  0
LINE
  8
0
 62
     250
 10
1343.47
 20
379.578
 30
0.0
 11
1343.69
 21
381.543
 31
0.0
  0
LINE
  8
0
 62
     250
 10
1343.69
 20
381.543
 30
0.0
 11
1344.56
 21
387.421
 31
0.0
  0
LINE
  8
0
 62
     250
 10
1344.56
 20
387.421
 30
0.0
 11
1346.11
 21
395.524
 31
0.0
  0
LINE
  8
0
 62
     250
 10
1346.11
 20
395.524
 30
0.0
 11
1348.07
 21
403.68
 31
0.0
  0
LINE
  8
0
 62
     250
 10
1348.07
 20
403.68
 30
0.0
 11
1350.37
 21
411.667
 31
0.0
  0
LINE
  8
0
 62
     250
 10
1350.37
 20
411.667
 30
0.0
 11
1352.97
 21
419.262
 31
0.0
  0
LINE
  8
0
 62
     250
 10
1352.97
 20
419.262
 30
0.0
 11
1355.8
 21
426.254
 31
0.0
  0
LINE
  8
0
 62
     250
 10
1355.8
 20
426.254
 30
0.0
 11
1358.8
 21
432.421
 31
0.0
  0
LINE
  8
0
 62
     250
 10
1358.8
 20
432.421
 30
0.0
 11
1361.07
 21
436.316
 31
0.0
  0
LINE
  8
0
 62
     250
 10
1361.07
 20
436.316
 30
0.0
 11
1361.93
 21
437.543
 31
0.0
  0
LINE
  8
0
 62
     250
 10
1361.93
 20
437.543
 30
0.0
 11
1363.27
 21
439.462
 31
0.0
  0
LINE
  8
0
 62
     250
 10
1363.27
 20
439.462
 30
0.0
 11
1367.59
 21
445.026
 31
0.0
  0
LINE
  8
0
 62
     250
 10
1367.59
 20
445.026
 30
0.0
 11
1373.53
 21
451.862
 31
0.0
  0
LINE
  8
0
 62
     250
 10
1373.53
 20
451.862
 30
0.0
 11
1379.28
 21
457.736
 31
0.0
  0
LINE
  8
0
 62
     250
 10
1379.28
 20
457.736
 30
0.0
 11
1383.1
 21
461.239
 31
0.0
  0
LINE
  8
0
 62
     250
 10
1383.1
 20
461.239
 30
0.0
 11
1384.43
 21
462.329
 31
0.0
  0
LINE
  8
0
 62
     250
 10
1756.08
 20
315.403
 30
0.0
 11
1756.08
 21
315.403
 31
0.0
  0
LINE
  8
0
 62
     250
 10
1756.08
 20
315.403
 30
0.0
 11
1755.23
 21
315.681
 31
0.0
  0
LINE
  8
0
 62
     250
 10
1755.23
 20
315.681
 30
0.0
 11
1753.2
 21
316.444
 31
0.0
  0
LINE
  8
0
 62
     250
 10
1753.2
 20
316.444
 30
0.0
 11
1750.73
 21
317.591
 31
0.0
  0
LINE
  8
0
 62
     250
 10
1750.73
 20
317.591
 30
0.0
 11
1749.06
 21
318.593
 31
0.0
  0
LINE
  8
0
 62
     250
 10
1749.06
 20
318.593
 30
0.0
 11
1748.58
 21
319.013
 31
0.0
  0
LINE
  8
0
 62
     250
 10
1748.58
 20
319.013
 30
0.0
 11
1748.14
 21
319.398
 31
0.0
  0
LINE
  8
0
 62
     250
 10
1748.14
 20
319.398
 30
0.0
 11
1747.1
 21
320.853
 31
0.0
  0
LINE
  8
0
 62
     250
 10
1747.1
 20
320.853
 30
0.0
 11
1746.09
 21
323.237
 31
0.0
  0
LINE
  8
0
 62
     250
 10
1746.09
 20
323.237
 30
0.0
 11
1745.52
 21
326.056
 31
0.0
  0
LINE
  8
0
 62
     250
 10
1745.52
 20
326.056
 30
0.0
 11
1745.34
 21
328.413
 31
0.0
  0
LINE
  8
0
 62
     250
 10
1745.34
 20
328.413
 30
0.0
 11
1745.34
 21
329.197
 31
0.0
  0
LINE
  8
0
 62
     250
 10
1745.34
 20
329.197
 30
0.0
 11
1745.34
 21
329.955
 31
0.0
  0
LINE
  8
0
 62
     250
 10
1745.34
 20
329.955
 30
0.0
 11
1745.61
 21
332.226
 31
0.0
  0
LINE
  8
0
 62
     250
 10
1745.61
 20
332.226
 30
0.0
 11
1746.32
 21
334.752
 31
0.0
  0
LINE
  8
0
 62
     250
 10
1746.32
 20
334.752
 30
0.0
 11
1747.33
 21
336.722
 31
0.0
  0
LINE
  8
0
 62
     250
 10
1747.33
 20
336.722
 30
0.0
 11
1748.16
 21
337.792
 31
0.0
  0
LINE
  8
0
 62
     250
 10
1748.16
 20
337.792
 30
0.0
 11
1748.49
 21
338.084
 31
0.0
  0
LINE
  8
0
 62
     250
 10
1748.49
 20
338.084
 30
0.0
 11
1748.81
 21
338.369
 31
0.0
  0
LINE
  8
0
 62
     250
 10
1748.81
 20
338.369
 30
0.0
 11
1749.87
 21
339.123
 31
0.0
  0
LINE
  8
0
 62
     250
 10
1749.87
 20
339.123
 30
0.0
 11
1751.57
 21
340.074
 31
0.0
  0
LINE
  8
0
 62
     250
 10
1751.57
 20
340.074
 30
0.0
 11
1753.44
 21
340.818
 31
0.0
  0
LINE
  8
0
 62
     250
 10
1753.44
 20
340.818
 30
0.0
 11
1754.86
 21
341.179
 31
0.0
  0
LINE
  8
0
 62
     250
 10
1754.86
 20
341.179
 30
0.0
 11
1755.34
 21
341.231
 31
0.0
  0
LINE
  8
0
 62
     250
 10
1555.35
 20
328.887
 30
0.0
 11
1555.35
 21
327.671
 31
0.0
  0
LINE
  8
0
 62
     250
 10
1555.35
 20
327.671
 30
0.0
 11
1554.85
 21
324.022
 31
0.0
  0
LINE
  8
0
 62
     250
 10
1554.85
 20
324.022
 30
0.0
 11
1553.44
 21
319.491
 31
0.0
  0
LINE
  8
0
 62
     250
 10
1553.44
 20
319.491
 30
0.0
 11
1551.2
 21
315.39
 31
0.0
  0
LINE
  8
0
 62
     250
 10
1551.2
 20
315.39
 30
0.0
 11
1548.23
 21
311.817
 31
0.0
  0
LINE
  8
0
 62
     250
 10
1548.23
 20
311.817
 30
0.0
 11
1544.63
 21
308.869
 31
0.0
  0
LINE
  8
0
 62
     250
 10
1544.63
 20
308.869
 30
0.0
 11
1540.5
 21
306.643
 31
0.0
  0
LINE
  8
0
 62
     250
 10
1540.5
 20
306.643
 30
0.0
 11
1535.93
 21
305.235
 31
0.0
  0
LINE
  8
0
 62
     250
 10
1535.93
 20
305.235
 30
0.0
 11
1532.25
 21
304.745
 31
0.0
  0
LINE
  8
0
 62
     250
 10
1532.25
 20
304.745
 30
0.0
 11
1531.03
 21
304.745
 31
0.0
  0
LINE
  8
0
 62
     250
 10
1531.03
 20
304.745
 30
0.0
 11
1529.8
 21
304.745
 31
0.0
  0
LINE
  8
0
 62
     250
 10
1529.8
 20
304.745
 30
0.0
 11
1526.13
 21
305.235
 31
0.0
  0
LINE
  8
0
 62
     250
 10
1526.13
 20
305.235
 30
0.0
 11
1521.56
 21
306.643
 31
0.0
  0
LINE
  8
0
 62
     250
 10
1521.56
 20
306.643
 30
0.0
 11
1517.43
 21
308.869
 31
0.0
  0
LINE
  8
0
 62
     250
 10
1517.43
 20
308.869
 30
0.0
 11
1513.83
 21
311.817
 31
0.0
  0
LINE
  8
0
 62
     250
 10
1513.83
 20
311.817
 30
0.0
 11
1510.86
 21
315.39
 31
0.0
  0
LINE
  8
0
 62
     250
 10
1510.86
 20
315.39
 30
0.0
 11
1508.62
 21
319.491
 31
0.0
  0
LINE
  8
0
 62
     250
 10
1508.62
 20
319.491
 30
0.0
 11
1507.2
 21
324.022
 31
0.0
  0
LINE
  8
0
 62
     250
 10
1507.2
 20
324.022
 30
0.0
 11
1506.71
 21
327.671
 31
0.0
  0
LINE
  8
0
 62
     250
 10
1506.71
 20
327.671
 30
0.0
 11
1506.71
 21
328.887
 31
0.0
  0
LINE
  8
0
 62
     250
 10
1506.71
 20
328.887
 30
0.0
 11
1506.71
 21
330.104
 31
0.0
  0
LINE
  8
0
 62
     250
 10
1506.71
 20
330.104
 30
0.0
 11
1507.2
 21
333.752
 31
0.0
  0
LINE
  8
0
 62
     250
 10
1507.2
 20
333.752
 30
0.0
 11
1508.62
 21
338.285
 31
0.0
  0
LINE
  8
0
 62
     250
 10
1508.62
 20
338.285
 30
0.0
 11
1510.86
 21
342.386
 31
0.0
  0
LINE
  8
0
 62
     250
 10
1510.86
 20
342.386
 30
0.0
 11
1513.83
 21
345.958
 31
0.0
  0
LINE
  8
0
 62
     250
 10
1513.83
 20
345.958
 30
0.0
 11
1517.43
 21
348.907
 31
0.0
  0
LINE
  8
0
 62
     250
 10
1517.43
 20
348.907
 30
0.0
 11
1521.56
 21
351.132
 31
0.0
  0
LINE
  8
0
 62
     250
 10
1521.56
 20
351.132
 30
0.0
 11
1526.13
 21
352.539
 31
0.0
  0
LINE
  8
0
 62
     250
 10
1526.13
 20
352.539
 30
0.0
 11
1529.8
 21
353.028
 31
0.0
  0
LINE
  8
0
 62
     250
 10
1529.8
 20
353.028
 30
0.0
 11
1531.03
 21
353.028
 31
0.0
  0
LINE
  8
0
 62
     250
 10
1531.03
 20
353.028
 30
0.0
 11
1532.25
 21
353.028
 31
0.0
  0
LINE
  8
0
 62
     250
 10
1532.25
 20
353.028
 30
0.0
 11
1535.93
 21
352.539
 31
0.0
  0
LINE
  8
0
 62
     250
 10
1535.93
 20
352.539
 30
0.0
 11
1540.5
 21
351.132
 31
0.0
  0
LINE
  8
0
 62
     250
 10
1540.5
 20
351.132
 30
0.0
 11
1544.63
 21
348.907
 31
0.0
  0
LINE
  8
0
 62
     250
 10
1544.63
 20
348.907
 30
0.0
 11
1548.23
 21
345.958
 31
0.0
  0
LINE
  8
0
 62
     250
 10
1548.23
 20
345.958
 30
0.0
 11
1551.2
 21
342.386
 31
0.0
  0
LINE
  8
0
 62
     250
 10
1551.2
 20
342.386
 30
0.0
 11
1553.44
 21
338.285
 31
0.0
  0
LINE
  8
0
 62
     250
 10
1553.44
 20
338.285
 30
0.0
 11
1554.85
 21
333.752
 31
0.0
  0
LINE
  8
0
 62
     250
 10
1554.85
 20
333.752
 30
0.0
 11
1555.35
 21
330.104
 31
0.0
  0
LINE
  8
0
 62
     250
 10
1555.35
 20
330.104
 30
0.0
 11
1555.35
 21
328.887
 31
0.0
  0
LINE
  8
0
 62
     250
 10
1151.6
 20
554.955
 30
0.0
 11
1152.81
 21
554.189
 31
0.0
  0
LINE
  8
0
 62
     250
 10
1152.81
 20
554.189
 30
0.0
 11
1156.23
 21
551.55
 31
0.0
  0
LINE
  8
0
 62
     250
 10
1156.23
 20
551.55
 30
0.0
 11
1160.83
 21
546.971
 31
0.0
  0
LINE
  8
0
 62
     250
 10
1160.83
 20
546.971
 30
0.0
 11
1165.13
 21
541.052
 31
0.0
  0
LINE
  8
0
 62
     250
 10
1165.13
 20
541.052
 30
0.0
 11
1168.1
 21
535.534
 31
0.0
  0
LINE
  8
0
 62
     250
 10
1168.1
 20
535.534
 30
0.0
 11
1168.89
 21
533.612
 31
0.0
  0
LINE
  8
0
 62
     250
 10
1168.89
 20
533.612
 30
0.0
 11
1169.17
 21
532.941
 31
0.0
  0
LINE
  8
0
 62
     250
 10
1169.17
 20
532.941
 30
0.0
 11
1169.86
 21
530.867
 31
0.0
  0
LINE
  8
0
 62
     250
 10
1169.86
 20
530.867
 30
0.0
 11
1170.79
 21
527.427
 31
0.0
  0
LINE
  8
0
 62
     250
 10
1170.79
 20
527.427
 30
0.0
 11
1171.69
 21
523.342
 31
0.0
  0
LINE
  8
0
 62
     250
 10
1171.69
 20
523.342
 30
0.0
 11
1172.56
 21
518.654
 31
0.0
  0
LINE
  8
0
 62
     250
 10
1172.56
 20
518.654
 30
0.0
 11
1173.4
 21
513.408
 31
0.0
  0
LINE
  8
0
 62
     250
 10
1173.4
 20
513.408
 30
0.0
 11
1174.2
 21
507.651
 31
0.0
  0
LINE
  8
0
 62
     250
 10
1174.2
 20
507.651
 30
0.0
 11
1174.98
 21
501.431
 31
0.0
  0
LINE
  8
0
 62
     250
 10
1174.98
 20
501.431
 30
0.0
 11
1175.72
 21
494.792
 31
0.0
  0
LINE
  8
0
 62
     250
 10
1175.72
 20
494.792
 30
0.0
 11
1176.43
 21
487.782
 31
0.0
  0
LINE
  8
0
 62
     250
 10
1176.43
 20
487.782
 30
0.0
 11
1177.11
 21
480.445
 31
0.0
  0
LINE
  8
0
 62
     250
 10
1177.11
 20
480.445
 30
0.0
 11
1177.76
 21
472.825
 31
0.0
  0
LINE
  8
0
 62
     250
 10
1177.76
 20
472.825
 30
0.0
 11
1178.37
 21
464.972
 31
0.0
  0
LINE
  8
0
 62
     250
 10
1178.37
 20
464.972
 30
0.0
 11
1178.96
 21
456.928
 31
0.0
  0
LINE
  8
0
 62
     250
 10
1178.96
 20
456.928
 30
0.0
 11
1179.51
 21
448.74
 31
0.0
  0
LINE
  8
0
 62
     250
 10
1179.51
 20
448.74
 30
0.0
 11
1180.03
 21
440.457
 31
0.0
  0
LINE
  8
0
 62
     250
 10
1180.03
 20
440.457
 30
0.0
 11
1180.53
 21
432.121
 31
0.0
  0
LINE
  8
0
 62
     250
 10
1180.53
 20
432.121
 30
0.0
 11
1180.99
 21
423.778
 31
0.0
  0
LINE
  8
0
 62
     250
 10
1180.99
 20
423.778
 30
0.0
 11
1181.42
 21
415.477
 31
0.0
  0
LINE
  8
0
 62
     250
 10
1181.42
 20
415.477
 30
0.0
 11
1181.82
 21
407.261
 31
0.0
  0
LINE
  8
0
 62
     250
 10
1181.82
 20
407.261
 30
0.0
 11
1182.19
 21
399.179
 31
0.0
  0
LINE
  8
0
 62
     250
 10
1182.19
 20
399.179
 30
0.0
 11
1182.54
 21
391.273
 31
0.0
  0
LINE
  8
0
 62
     250
 10
1182.54
 20
391.273
 30
0.0
 11
1182.85
 21
383.589
 31
0.0
  0
LINE
  8
0
 62
     250
 10
1182.85
 20
383.589
 30
0.0
 11
1183.12
 21
376.178
 31
0.0
  0
LINE
  8
0
 62
     250
 10
1183.12
 20
376.178
 30
0.0
 11
1183.38
 21
369.08
 31
0.0
  0
LINE
  8
0
 62
     250
 10
1183.38
 20
369.08
 30
0.0
 11
1183.59
 21
362.345
 31
0.0
  0
LINE
  8
0
 62
     250
 10
1183.59
 20
362.345
 30
0.0
 11
1183.78
 21
356.016
 31
0.0
  0
LINE
  8
0
 62
     250
 10
1183.78
 20
356.016
 30
0.0
 11
1183.95
 21
350.139
 31
0.0
  0
LINE
  8
0
 62
     250
 10
1183.95
 20
350.139
 30
0.0
 11
1184.08
 21
344.763
 31
0.0
  0
LINE
  8
0
 62
     250
 10
1184.08
 20
344.763
 30
0.0
 11
1184.18
 21
339.93
 31
0.0
  0
LINE
  8
0
 62
     250
 10
1184.18
 20
339.93
 30
0.0
 11
1184.25
 21
335.689
 31
0.0
  0
LINE
  8
0
 62
     250
 10
1184.25
 20
335.689
 30
0.0
 11
1184.3
 21
332.084
 31
0.0
  0
LINE
  8
0
 62
     250
 10
1184.3
 20
332.084
 30
0.0
 11
1184.31
 21
329.893
 31
0.0
  0
LINE
  8
0
 62
     250
 10
1184.31
 20
329.893
 30
0.0
 11
1184.31
 21
329.161
 31
0.0
  0
LINE
  8
0
 62
     250
 10
1151.6
 20
103.367
 30
0.0
 11
1152.81
 21
104.132
 31
0.0
  0
LINE
  8
0
 62
     250
 10
1152.81
 20
104.132
 30
0.0
 11
1156.23
 21
106.773
 31
0.0
  0
LINE
  8
0
 62
     250
 10
1156.23
 20
106.773
 30
0.0
 11
1160.83
 21
111.35
 31
0.0
  0
LINE
  8
0
 62
     250
 10
1160.83
 20
111.35
 30
0.0
 11
1165.13
 21
117.271
 31
0.0
  0
LINE
  8
0
 62
     250
 10
1165.13
 20
117.271
 30
0.0
 11
1168.1
 21
122.789
 31
0.0
  0
LINE
  8
0
 62
     250
 10
1168.1
 20
122.789
 30
0.0
 11
1168.89
 21
124.708
 31
0.0
  0
LINE
  8
0
 62
     250
 10
1168.89
 20
124.708
 30
0.0
 11
1169.17
 21
125.381
 31
0.0
  0
LINE
  8
0
 62
     250
 10
1169.17
 20
125.381
 30
0.0
 11
1169.86
 21
127.455
 31
0.0
  0
LINE
  8
0
 62
     250
 10
1169.86
 20
127.455
 30
0.0
 11
1170.79
 21
130.893
 31
0.0
  0
LINE
  8
0
 62
     250
 10
1170.79
 20
130.893
 30
0.0
 11
1171.69
 21
134.98
 31
0.0
  0
LINE
  8
0
 62
     250
 10
1171.69
 20
134.98
 30
0.0
 11
1172.56
 21
139.67
 31
0.0
  0
LINE
  8
0
 62
     250
 10
1172.56
 20
139.67
 30
0.0
 11
1173.4
 21
144.914
 31
0.0
  0
LINE
  8
0
 62
     250
 10
1173.4
 20
144.914
 30
0.0
 11
1174.2
 21
150.671
 31
0.0
  0
LINE
  8
0
 62
     250
 10
1174.2
 20
150.671
 30
0.0
 11
1174.98
 21
156.89
 31
0.0
  0
LINE
  8
0
 62
     250
 10
1174.98
 20
156.89
 30
0.0
 11
1175.72
 21
163.529
 31
0.0
  0
LINE
  8
0
 62
     250
 10
1175.72
 20
163.529
 30
0.0
 11
1176.43
 21
170.541
 31
0.0
  0
LINE
  8
0
 62
     250
 10
1176.43
 20
170.541
 30
0.0
 11
1177.11
 21
177.879
 31
0.0
  0
LINE
  8
0
 62
     250
 10
1177.11
 20
177.879
 30
0.0
 11
1177.76
 21
185.498
 31
0.0
  0
LINE
  8
0
 62
     250
 10
1177.76
 20
185.498
 30
0.0
 11
1178.37
 21
193.353
 31
0.0
  0
LINE
  8
0
 62
     250
 10
1178.37
 20
193.353
 30
0.0
 11
1178.96
 21
201.395
 31
0.0
  0
LINE
  8
0
 62
     250
 10
1178.96
 20
201.395
 30
0.0
 11
1179.51
 21
209.582
 31
0.0
  0
LINE
  8
0
 62
     250
 10
1179.51
 20
209.582
 30
0.0
 11
1180.03
 21
217.866
 31
0.0
  0
LINE
  8
0
 62
     250
 10
1180.03
 20
217.866
 30
0.0
 11
1180.53
 21
226.202
 31
0.0
  0
LINE
  8
0
 62
     250
 10
1180.53
 20
226.202
 30
0.0
 11
1180.99
 21
234.545
 31
0.0
  0
LINE
  8
0
 62
     250
 10
1180.99
 20
234.545
 30
0.0
 11
1181.42
 21
242.846
 31
0.0
  0
LINE
  8
0
 62
     250
 10
1181.42
 20
242.846
 30
0.0
 11
1181.82
 21
251.061
 31
0.0
  0
LINE
  8
0
 62
     250
 10
1181.82
 20
251.061
 30
0.0
 11
1182.19
 21
259.144
 31
0.0
  0
LINE
  8
0
 62
     250
 10
1182.19
 20
259.144
 30
0.0
 11
1182.54
 21
267.05
 31
0.0
  0
LINE
  8
0
 62
     250
 10
1182.54
 20
267.05
 30
0.0
 11
1182.85
 21
274.733
 31
0.0
  0
LINE
  8
0
 62
     250
 10
1182.85
 20
274.733
 30
0.0
 11
1183.12
 21
282.145
 31
0.0
  0
LINE
  8
0
 62
     250
 10
1183.12
 20
282.145
 30
0.0
 11
1183.38
 21
289.243
 31
0.0
  0
LINE
  8
0
 62
     250
 10
1183.38
 20
289.243
 30
0.0
 11
1183.59
 21
295.979
 31
0.0
  0
LINE
  8
0
 62
     250
 10
1183.59
 20
295.979
 30
0.0
 11
1183.78
 21
302.307
 31
0.0
  0
LINE
  8
0
 62
     250
 10
1183.78
 20
302.307
 30
0.0
 11
1183.95
 21
308.183
 31
0.0
  0
LINE
  8
0
 62
     250
 10
1183.95
 20
308.183
 30
0.0
 11
1184.08
 21
313.56
 31
0.0
  0
LINE
  8
0
 62
     250
 10
1184.08
 20
313.56
 30
0.0
 11
1184.18
 21
318.393
 31
0.0
  0
LINE
  8
0
 62
     250
 10
1184.18
 20
318.393
 30
0.0
 11
1184.25
 21
322.635
 31
0.0
  0
LINE
  8
0
 62
     250
 10
1184.25
 20
322.635
 30
0.0
 11
1184.3
 21
326.239
 31
0.0
  0
LINE
  8
0
 62
     250
 10
1184.3
 20
326.239
 30
0.0
 11
1184.31
 21
328.43
 31
0.0
  0
LINE
  8
0
 62
     250
 10
1184.31
 20
328.43
 30
0.0
 11
1184.31
 21
329.161
 31
0.0
  0
LINE
  8
0
 62
     250
 10
445.516
 20
329.161
 30
0.0
 11
445.516
 21
329.161
 31
0.0
  0
LINE
  8
0
 62
     250
 10
445.516
 20
329.161
 30
0.0
 11
445.495
 21
330.086
 31
0.0
  0
LINE
  8
0
 62
     250
 10
445.495
 20
330.086
 30
0.0
 11
445.431
 21
332.723
 31
0.0
  0
LINE
  8
0
 62
     250
 10
445.431
 20
332.723
 30
0.0
 11
445.34
 21
336.872
 31
0.0
  0
LINE
  8
0
 62
     250
 10
445.34
 20
336.872
 30
0.0
 11
445.213
 21
342.328
 31
0.0
  0
LINE
  8
0
 62
     250
 10
445.213
 20
342.328
 30
0.0
 11
445.068
 21
348.89
 31
0.0
  0
LINE
  8
0
 62
     250
 10
445.068
 20
348.89
 30
0.0
 11
444.906
 21
356.355
 31
0.0
  0
LINE
  8
0
 62
     250
 10
444.906
 20
356.355
 30
0.0
 11
444.729
 21
364.522
 31
0.0
  0
LINE
  8
0
 62
     250
 10
444.729
 20
364.522
 30
0.0
 11
444.549
 21
373.182
 31
0.0
  0
LINE
  8
0
 62
     250
 10
444.549
 20
373.182
 30
0.0
 11
444.369
 21
382.143
 31
0.0
  0
LINE
  8
0
 62
     250
 10
444.369
 20
382.143
 30
0.0
 11
444.197
 21
391.192
 31
0.0
  0
LINE
  8
0
 62
     250
 10
444.197
 20
391.192
 30
0.0
 11
444.034
 21
400.135
 31
0.0
  0
LINE
  8
0
 62
     250
 10
444.034
 20
400.135
 30
0.0
 11
443.886
 21
408.764
 31
0.0
  0
LINE
  8
0
 62
     250
 10
443.886
 20
408.764
 30
0.0
 11
443.763
 21
416.874
 31
0.0
  0
LINE
  8
0
 62
     250
 10
443.763
 20
416.874
 30
0.0
 11
443.667
 21
424.268
 31
0.0
  0
LINE
  8
0
 62
     250
 10
443.667
 20
424.268
 30
0.0
 11
443.604
 21
430.742
 31
0.0
  0
LINE
  8
0
 62
     250
 10
443.604
 20
430.742
 30
0.0
 11
443.586
 21
434.756
 31
0.0
  0
LINE
  8
0
 62
     250
 10
443.586
 20
434.756
 30
0.0
 11
443.586
 21
436.093
 31
0.0
  0
LINE
  8
0
 62
     250
 10
443.586
 20
436.093
 30
0.0
 11
443.586
 21
437.406
 31
0.0
  0
LINE
  8
0
 62
     250
 10
443.586
 20
437.406
 30
0.0
 11
443.604
 21
441.339
 31
0.0
  0
LINE
  8
0
 62
     250
 10
443.604
 20
441.339
 30
0.0
 11
443.671
 21
447.537
 31
0.0
  0
LINE
  8
0
 62
     250
 10
443.671
 20
447.537
 30
0.0
 11
443.77
 21
454.547
 31
0.0
  0
LINE
  8
0
 62
     250
 10
443.77
 20
454.547
 30
0.0
 11
443.907
 21
462.22
 31
0.0
  0
LINE
  8
0
 62
     250
 10
443.907
 20
462.22
 30
0.0
 11
444.073
 21
470.422
 31
0.0
  0
LINE
  8
0
 62
     250
 10
444.073
 20
470.422
 30
0.0
 11
444.267
 21
479.002
 31
0.0
  0
LINE
  8
0
 62
     250
 10
444.267
 20
479.002
 30
0.0
 11
444.486
 21
487.825
 31
0.0
  0
LINE
  8
0
 62
     250
 10
444.486
 20
487.825
 30
0.0
 11
444.722
 21
496.743
 31
0.0
  0
LINE
  8
0
 62
     250
 10
444.722
 20
496.743
 30
0.0
 11
444.976
 21
505.615
 31
0.0
  0
LINE
  8
0
 62
     250
 10
444.976
 20
505.615
 30
0.0
 11
445.241
 21
514.297
 31
0.0
  0
LINE
  8
0
 62
     250
 10
445.241
 20
514.297
 30
0.0
 11
445.516
 21
522.651
 31
0.0
  0
LINE
  8
0
 62
     250
 10
445.516
 20
522.651
 30
0.0
 11
445.798
 21
530.528
 31
0.0
  0
LINE
  8
0
 62
     250
 10
445.798
 20
530.528
 30
0.0
 11
446.077
 21
537.792
 31
0.0
  0
LINE
  8
0
 62
     250
 10
446.077
 20
537.792
 30
0.0
 11
446.359
 21
544.294
 31
0.0
  0
LINE
  8
0
 62
     250
 10
446.359
 20
544.294
 30
0.0
 11
446.631
 21
549.896
 31
0.0
  0
LINE
  8
0
 62
     250
 10
446.631
 20
549.896
 30
0.0
 11
446.821
 21
553.314
 31
0.0
  0
LINE
  8
0
 62
     250
 10
446.821
 20
553.314
 30
0.0
 11
446.895
 21
554.454
 31
0.0
  0
LINE
  8
0
 62
     250
 10
446.895
 20
554.454
 30
0.0
 11
447.022
 21
556.391
 31
0.0
  0
LINE
  8
0
 62
     250
 10
447.022
 20
556.391
 30
0.0
 11
447.717
 21
562.187
 31
0.0
  0
LINE
  8
0
 62
     250
 10
447.717
 20
562.187
 30
0.0
 11
449.065
 21
569.366
 31
0.0
  0
LINE
  8
0
 62
     250
 10
449.065
 20
569.366
 30
0.0
 11
450.822
 21
575.882
 31
0.0
  0
LINE
  8
0
 62
     250
 10
450.822
 20
575.882
 30
0.0
 11
452.864
 21
581.628
 31
0.0
  0
LINE
  8
0
 62
     250
 10
452.864
 20
581.628
 30
0.0
 11
455.076
 21
586.497
 31
0.0
  0
LINE
  8
0
 62
     250
 10
455.076
 20
586.497
 30
0.0
 11
457.338
 21
590.377
 31
0.0
  0
LINE
  8
0
 62
     250
 10
457.338
 20
590.377
 30
0.0
 11
459.528
 21
593.164
 31
0.0
  0
LINE
  8
0
 62
     250
 10
459.528
 20
593.164
 30
0.0
 11
460.968
 21
594.462
 31
0.0
  0
LINE
  8
0
 62
     250
 10
460.968
 20
594.462
 30
0.0
 11
461.529
 21
594.745
 31
0.0
  0
LINE
  8
0
 62
     250
 10
461.529
 20
594.745
 30
0.0
 11
461.843
 21
594.903
 31
0.0
  0
LINE
  8
0
 62
     250
 10
461.843
 20
594.903
 30
0.0
 11
462.827
 21
595.305
 31
0.0
  0
LINE
  8
0
 62
     250
 10
462.827
 20
595.305
 30
0.0
 11
464.834
 21
596.036
 31
0.0
  0
LINE
  8
0
 62
     250
 10
464.834
 20
596.036
 30
0.0
 11
467.529
 21
596.925
 31
0.0
  0
LINE
  8
0
 62
     250
 10
467.529
 20
596.925
 30
0.0
 11
470.874
 21
597.951
 31
0.0
  0
LINE
  8
0
 62
     250
 10
470.874
 20
597.951
 30
0.0
 11
474.835
 21
599.101
 31
0.0
  0
LINE
  8
0
 62
     250
 10
474.835
 20
599.101
 30
0.0
 11
479.386
 21
600.368
 31
0.0
  0
LINE
  8
0
 62
     250
 10
479.386
 20
600.368
 30
0.0
 11
484.498
 21
601.73
 31
0.0
  0
LINE
  8
0
 62
     250
 10
484.498
 20
601.73
 30
0.0
 11
490.132
 21
603.176
 31
0.0
  0
LINE
  8
0
 62
     250
 10
490.132
 20
603.176
 30
0.0
 11
496.26
 21
604.689
 31
0.0
  0
LINE
  8
0
 62
     250
 10
496.26
 20
604.689
 30
0.0
 11
502.853
 21
606.256
 31
0.0
  0
LINE
  8
0
 62
     250
 10
502.853
 20
606.256
 30
0.0
 11
509.88
 21
607.868
 31
0.0
  0
LINE
  8
0
 62
     250
 10
509.88
 20
607.868
 30
0.0
 11
517.306
 21
609.501
 31
0.0
  0
LINE
  8
0
 62
     250
 10
517.306
 20
609.501
 30
0.0
 11
525.106
 21
611.145
 31
0.0
  0
LINE
  8
0
 62
     250
 10
525.106
 20
611.145
 30
0.0
 11
533.241
 21
612.789
 31
0.0
  0
LINE
  8
0
 62
     250
 10
533.241
 20
612.789
 30
0.0
 11
541.687
 21
614.415
 31
0.0
  0
LINE
  8
0
 62
     250
 10
541.687
 20
614.415
 30
0.0
 11
548.227
 21
615.622
 31
0.0
  0
LINE
  8
0
 62
     250
 10
548.227
 20
615.622
 30
0.0
 11
550.411
 21
616.01
 31
0.0
  0
LINE
  8
0
 62
     250
 10
550.411
 20
616.01
 30
0.0
 11
552.76
 21
616.43
 31
0.0
  0
LINE
  8
0
 62
     250
 10
552.76
 20
616.43
 30
0.0
 11
559.823
 21
617.64
 31
0.0
  0
LINE
  8
0
 62
     250
 10
559.823
 20
617.64
 30
0.0
 11
570.265
 21
619.358
 31
0.0
  0
LINE
  8
0
 62
     250
 10
570.265
 20
619.358
 30
0.0
 11
581.597
 21
621.139
 31
0.0
  0
LINE
  8
0
 62
     250
 10
581.597
 20
621.139
 30
0.0
 11
593.676
 21
622.963
 31
0.0
  0
LINE
  8
0
 62
     250
 10
593.676
 20
622.963
 30
0.0
 11
606.361
 21
624.791
 31
0.0
  0
LINE
  8
0
 62
     250
 10
606.361
 20
624.791
 30
0.0
 11
619.51
 21
626.604
 31
0.0
  0
LINE
  8
0
 62
     250
 10
619.51
 20
626.604
 30
0.0
 11
632.986
 21
628.371
 31
0.0
  0
LINE
  8
0
 62
     250
 10
632.986
 20
628.371
 30
0.0
 11
646.645
 21
630.072
 31
0.0
  0
LINE
  8
0
 62
     250
 10
646.645
 20
630.072
 30
0.0
 11
660.344
 21
631.67
 31
0.0
  0
LINE
  8
0
 62
     250
 10
660.344
 20
631.67
 30
0.0
 11
673.947
 21
633.144
 31
0.0
  0
LINE
  8
0
 62
     250
 10
673.947
 20
633.144
 30
0.0
 11
687.306
 21
634.464
 31
0.0
  0
LINE
  8
0
 62
     250
 10
687.306
 20
634.464
 30
0.0
 11
700.285
 21
635.603
 31
0.0
  0
LINE
  8
0
 62
     250
 10
700.285
 20
635.603
 30
0.0
 11
712.745
 21
636.542
 31
0.0
  0
LINE
  8
0
 62
     250
 10
712.745
 20
636.542
 30
0.0
 11
724.535
 21
637.244
 31
0.0
  0
LINE
  8
0
 62
     250
 10
724.535
 20
637.244
 30
0.0
 11
735.528
 21
637.685
 31
0.0
  0
LINE
  8
0
 62
     250
 10
735.528
 20
637.685
 30
0.0
 11
743.059
 21
637.836
 31
0.0
  0
LINE
  8
0
 62
     250
 10
743.059
 20
637.836
 30
0.0
 11
745.571
 21
637.836
 31
0.0
  0
LINE
  8
0
 62
     250
 10
745.571
 20
637.836
 30
0.0
 11
747.935
 21
637.836
 31
0.0
  0
LINE
  8
0
 62
     250
 10
747.935
 20
637.836
 30
0.0
 11
755.033
 21
637.547
 31
0.0
  0
LINE
  8
0
 62
     250
 10
755.033
 20
637.547
 30
0.0
 11
764.332
 21
636.729
 31
0.0
  0
LINE
  8
0
 62
     250
 10
764.332
 20
636.729
 30
0.0
 11
773.405
 21
635.459
 31
0.0
  0
LINE
  8
0
 62
     250
 10
773.405
 20
635.459
 30
0.0
 11
782.193
 21
633.815
 31
0.0
  0
LINE
  8
0
 62
     250
 10
782.193
 20
633.815
 30
0.0
 11
790.631
 21
631.864
 31
0.0
  0
LINE
  8
0
 62
     250
 10
790.631
 20
631.864
 30
0.0
 11
798.661
 21
629.691
 31
0.0
  0
LINE
  8
0
 62
     250
 10
798.661
 20
629.691
 30
0.0
 11
806.221
 21
627.366
 31
0.0
  0
LINE
  8
0
 62
     250
 10
806.221
 20
627.366
 30
0.0
 11
813.245
 21
624.963
 31
0.0
  0
LINE
  8
0
 62
     250
 10
813.245
 20
624.963
 30
0.0
 11
819.672
 21
622.565
 31
0.0
  0
LINE
  8
0
 62
     250
 10
819.672
 20
622.565
 30
0.0
 11
825.447
 21
620.24
 31
0.0
  0
LINE
  8
0
 62
     250
 10
825.447
 20
620.24
 30
0.0
 11
830.499
 21
618.063
 31
0.0
  0
LINE
  8
0
 62
     250
 10
830.499
 20
618.063
 30
0.0
 11
834.775
 21
616.116
 31
0.0
  0
LINE
  8
0
 62
     250
 10
834.775
 20
616.116
 30
0.0
 11
838.204
 21
614.468
 31
0.0
  0
LINE
  8
0
 62
     250
 10
838.204
 20
614.468
 30
0.0
 11
840.733
 21
613.198
 31
0.0
  0
LINE
  8
0
 62
     250
 10
840.733
 20
613.198
 30
0.0
 11
842.292
 21
612.383
 31
0.0
  0
LINE
  8
0
 62
     250
 10
842.292
 20
612.383
 30
0.0
 11
842.828
 21
612.094
 31
0.0
  0
LINE
  8
0
 62
     250
 10
842.828
 20
612.094
 30
0.0
 11
842.828
 21
612.094
 31
0.0
  0
LINE
  8
0
 62
     250
 10
416.073
 20
334.243
 30
0.0
 11
1173.05
 21
334.243
 31
0.0
  0
LINE
  8
0
 62
     250
 10
416.257
 20
329.161
 30
0.0
 11
1173.05
 21
329.161
 31
0.0
  0
LINE
  8
0
 62
     250
 10
881.105
 20
329.161
 30
0.0
 11
881.105
 21
329.161
 31
0.0
  0
LINE
  8
0
 62
     250
 10
881.105
 20
329.161
 30
0.0
 11
881.041
 21
329.824
 31
0.0
  0
LINE
  8
0
 62
     250
 10
881.041
 20
329.824
 30
0.0
 11
880.858
 21
331.722
 31
0.0
  0
LINE
  8
0
 62
     250
 10
880.858
 20
331.722
 30
0.0
 11
880.572
 21
334.727
 31
0.0
  0
LINE
  8
0
 62
     250
 10
880.572
 20
334.727
 30
0.0
 11
880.188
 21
338.705
 31
0.0
  0
LINE
  8
0
 62
     250
 10
880.188
 20
338.705
 30
0.0
 11
879.715
 21
343.53
 31
0.0
  0
LINE
  8
0
 62
     250
 10
879.715
 20
343.53
 30
0.0
 11
879.172
 21
349.067
 31
0.0
  0
LINE
  8
0
 62
     250
 10
879.172
 20
349.067
 30
0.0
 11
878.565
 21
355.187
 31
0.0
  0
LINE
  8
0
 62
     250
 10
878.565
 20
355.187
 30
0.0
 11
877.905
 21
361.759
 31
0.0
  0
LINE
  8
0
 62
     250
 10
877.905
 20
361.759
 30
0.0
 11
877.207
 21
368.653
 31
0.0
  0
LINE
  8
0
 62
     250
 10
877.207
 20
368.653
 30
0.0
 11
876.476
 21
375.737
 31
0.0
  0
LINE
  8
0
 62
     250
 10
876.476
 20
375.737
 30
0.0
 11
875.728
 21
382.88
 31
0.0
  0
LINE
  8
0
 62
     250
 10
875.728
 20
382.88
 30
0.0
 11
874.97
 21
389.954
 31
0.0
  0
LINE
  8
0
 62
     250
 10
874.97
 20
389.954
 30
0.0
 11
874.215
 21
396.826
 31
0.0
  0
LINE
  8
0
 62
     250
 10
874.215
 20
396.826
 30
0.0
 11
873.478
 21
403.363
 31
0.0
  0
LINE
  8
0
 62
     250
 10
873.478
 20
403.363
 30
0.0
 11
872.765
 21
409.441
 31
0.0
  0
LINE
  8
0
 62
     250
 10
872.765
 20
409.441
 30
0.0
 11
872.261
 21
413.554
 31
0.0
  0
LINE
  8
0
 62
     250
 10
872.261
 20
413.554
 30
0.0
 11
872.088
 21
414.923
 31
0.0
  0
LINE
  8
0
 62
     250
 10
872.088
 20
414.923
 30
0.0
 11
871.901
 21
416.38
 31
0.0
  0
LINE
  8
0
 62
     250
 10
871.901
 20
416.38
 30
0.0
 11
871.287
 21
420.737
 31
0.0
  0
LINE
  8
0
 62
     250
 10
871.287
 20
420.737
 30
0.0
 11
870.229
 21
427.778
 31
0.0
  0
LINE
  8
0
 62
     250
 10
870.229
 20
427.778
 30
0.0
 11
868.948
 21
435.857
 31
0.0
  0
LINE
  8
0
 62
     250
 10
868.948
 20
435.857
 30
0.0
 11
867.484
 21
444.796
 31
0.0
  0
LINE
  8
0
 62
     250
 10
867.484
 20
444.796
 30
0.0
 11
865.868
 21
454.413
 31
0.0
  0
LINE
  8
0
 62
     250
 10
865.868
 20
454.413
 30
0.0
 11
864.143
 21
464.52
 31
0.0
  0
LINE
  8
0
 62
     250
 10
864.143
 20
464.52
 30
0.0
 11
862.348
 21
474.938
 31
0.0
  0
LINE
  8
0
 62
     250
 10
862.348
 20
474.938
 30
0.0
 11
860.517
 21
485.479
 31
0.0
  0
LINE
  8
0
 62
     250
 10
860.517
 20
485.479
 30
0.0
 11
858.686
 21
495.967
 31
0.0
  0
LINE
  8
0
 62
     250
 10
858.686
 20
495.967
 30
0.0
 11
856.897
 21
506.215
 31
0.0
  0
LINE
  8
0
 62
     250
 10
856.897
 20
506.215
 30
0.0
 11
855.183
 21
516.036
 31
0.0
  0
LINE
  8
0
 62
     250
 10
855.183
 20
516.036
 30
0.0
 11
853.585
 21
525.254
 31
0.0
  0
LINE
  8
0
 62
     250
 10
853.585
 20
525.254
 30
0.0
 11
852.135
 21
533.682
 31
0.0
  0
LINE
  8
0
 62
     250
 10
852.135
 20
533.682
 30
0.0
 11
850.879
 21
541.136
 31
0.0
  0
LINE
  8
0
 62
     250
 10
850.879
 20
541.136
 30
0.0
 11
849.849
 21
547.441
 31
0.0
  0
LINE
  8
0
 62
     250
 10
849.849
 20
547.441
 30
0.0
 11
849.267
 21
551.159
 31
0.0
  0
LINE
  8
0
 62
     250
 10
849.267
 20
551.159
 30
0.0
 11
849.083
 21
552.401
 31
0.0
  0
LINE
  8
0
 62
     250
 10
849.083
 20
552.401
 30
0.0
 11
848.773
 21
554.521
 31
0.0
  0
LINE
  8
0
 62
     250
 10
848.773
 20
554.521
 30
0.0
 11
847.817
 21
560.878
 31
0.0
  0
LINE
  8
0
 62
     250
 10
847.817
 20
560.878
 30
0.0
 11
846.547
 21
569.27
 31
0.0
  0
LINE
  8
0
 62
     250
 10
846.547
 20
569.27
 30
0.0
 11
845.337
 21
577.398
 31
0.0
  0
LINE
  8
0
 62
     250
 10
845.337
 20
577.398
 30
0.0
 11
844.254
 21
585.093
 31
0.0
  0
LINE
  8
0
 62
     250
 10
844.254
 20
585.093
 30
0.0
 11
843.358
 21
592.173
 31
0.0
  0
LINE
  8
0
 62
     250
 10
843.358
 20
592.173
 30
0.0
 11
842.716
 21
598.463
 31
0.0
  0
LINE
  8
0
 62
     250
 10
842.716
 20
598.463
 30
0.0
 11
842.394
 21
603.797
 31
0.0
  0
LINE
  8
0
 62
     250
 10
842.394
 20
603.797
 30
0.0
 11
842.377
 21
606.947
 31
0.0
  0
LINE
  8
0
 62
     250
 10
842.377
 20
606.947
 30
0.0
 11
842.458
 21
607.988
 31
0.0
  0
LINE
  8
0
 62
     250
 10
842.458
 20
607.988
 30
0.0
 11
842.529
 21
608.898
 31
0.0
  0
LINE
  8
0
 62
     250
 10
842.529
 20
608.898
 30
0.0
 11
843.149
 21
611.597
 31
0.0
  0
LINE
  8
0
 62
     250
 10
843.149
 20
611.597
 30
0.0
 11
844.635
 21
615.234
 31
0.0
  0
LINE
  8
0
 62
     250
 10
844.635
 20
615.234
 30
0.0
 11
846.868
 21
618.829
 31
0.0
  0
LINE
  8
0
 62
     250
 10
846.868
 20
618.829
 30
0.0
 11
849.796
 21
622.307
 31
0.0
  0
LINE
  8
0
 62
     250
 10
849.796
 20
622.307
 30
0.0
 11
853.373
 21
625.591
 31
0.0
  0
LINE
  8
0
 62
     250
 10
853.373
 20
625.591
 30
0.0
 11
857.546
 21
628.608
 31
0.0
  0
LINE
  8
0
 62
     250
 10
857.546
 20
628.608
 30
0.0
 11
862.266
 21
631.285
 31
0.0
  0
LINE
  8
0
 62
     250
 10
862.266
 20
631.285
 30
0.0
 11
866.154
 21
633.049
 31
0.0
  0
LINE
  8
0
 62
     250
 10
866.154
 20
633.049
 30
0.0
 11
867.488
 21
633.547
 31
0.0
  0
LINE
  8
0
 62
     250
 10
867.488
 20
633.547
 30
0.0
 11
868.235
 21
633.825
 31
0.0
  0
LINE
  8
0
 62
     250
 10
868.235
 20
633.825
 30
0.0
 11
870.546
 21
634.492
 31
0.0
  0
LINE
  8
0
 62
     250
 10
870.546
 20
634.492
 30
0.0
 11
874.229
 21
635.307
 31
0.0
  0
LINE
  8
0
 62
     250
 10
874.229
 20
635.307
 30
0.0
 11
878.441
 21
635.998
 31
0.0
  0
LINE
  8
0
 62
     250
 10
878.441
 20
635.998
 30
0.0
 11
883.116
 21
636.58
 31
0.0
  0
LINE
  8
0
 62
     250
 10
883.116
 20
636.58
 30
0.0
 11
888.164
 21
637.057
 31
0.0
  0
LINE
  8
0
 62
     250
 10
888.164
 20
637.057
 30
0.0
 11
893.505
 21
637.438
 31
0.0
  0
LINE
  8
0
 62
     250
 10
893.505
 20
637.438
 30
0.0
 11
899.061
 21
637.734
 31
0.0
  0
LINE
  8
0
 62
     250
 10
899.061
 20
637.734
 30
0.0
 11
904.751
 21
637.953
 31
0.0
  0
LINE
  8
0
 62
     250
 10
904.751
 20
637.953
 30
0.0
 11
910.491
 21
638.104
 31
0.0
  0
LINE
  8
0
 62
     250
 10
910.491
 20
638.104
 30
0.0
 11
916.203
 21
638.196
 31
0.0
  0
LINE
  8
0
 62
     250
 10
916.203
 20
638.196
 30
0.0
 11
921.801
 21
638.239
 31
0.0
  0
LINE
  8
0
 62
     250
 10
921.801
 20
638.239
 30
0.0
 11
927.213
 21
638.242
 31
0.0
  0
LINE
  8
0
 62
     250
 10
927.213
 20
638.242
 30
0.0
 11
932.353
 21
638.21
 31
0.0
  0
LINE
  8
0
 62
     250
 10
932.353
 20
638.21
 30
0.0
 11
937.137
 21
638.157
 31
0.0
  0
LINE
  8
0
 62
     250
 10
937.137
 20
638.157
 30
0.0
 11
941.49
 21
638.094
 31
0.0
  0
LINE
  8
0
 62
     250
 10
941.49
 20
638.094
 30
0.0
 11
944.368
 21
638.041
 31
0.0
  0
LINE
  8
0
 62
     250
 10
944.368
 20
638.041
 30
0.0
 11
945.328
 21
638.023
 31
0.0
  0
LINE
  8
0
 62
     250
 10
945.328
 20
638.023
 30
0.0
 11
946.302
 21
638.006
 31
0.0
  0
LINE
  8
0
 62
     250
 10
946.302
 20
638.006
 30
0.0
 11
949.223
 21
637.925
 31
0.0
  0
LINE
  8
0
 62
     250
 10
949.223
 20
637.925
 30
0.0
 11
953.752
 21
637.766
 31
0.0
  0
LINE
  8
0
 62
     250
 10
953.752
 20
637.766
 30
0.0
 11
958.836
 21
637.551
 31
0.0
  0
LINE
  8
0
 62
     250
 10
958.836
 20
637.551
 30
0.0
 11
964.403
 21
637.286
 31
0.0
  0
LINE
  8
0
 62
     250
 10
964.403
 20
637.286
 30
0.0
 11
970.379
 21
636.976
 31
0.0
  0
LINE
  8
0
 62
     250
 10
970.379
 20
636.976
 30
0.0
 11
976.686
 21
636.619
 31
0.0
  0
LINE
  8
0
 62
     250
 10
976.686
 20
636.619
 30
0.0
 11
983.252
 21
636.221
 31
0.0
  0
LINE
  8
0
 62
     250
 10
983.252
 20
636.221
 30
0.0
 11
990
 21
635.783
 31
0.0
  0
LINE
  8
0
 62
     250
 10
990
 20
635.783
 30
0.0
 11
996.855
 21
635.31
 31
0.0
  0
LINE
  8
0
 62
     250
 10
996.855
 20
635.31
 30
0.0
 11
1003.74
 21
634.809
 31
0.0
  0
LINE
  8
0
 62
     250
 10
1003.74
 20
634.809
 30
0.0
 11
1010.59
 21
634.277
 31
0.0
  0
LINE
  8
0
 62
     250
 10
1010.59
 20
634.277
 30
0.0
 11
1017.32
 21
633.719
 31
0.0
  0
LINE
  8
0
 62
     250
 10
1017.32
 20
633.719
 30
0.0
 11
1023.86
 21
633.141
 31
0.0
  0
LINE
  8
0
 62
     250
 10
1023.86
 20
633.141
 30
0.0
 11
1030.13
 21
632.545
 31
0.0
  0
LINE
  8
0
 62
     250
 10
1030.13
 20
632.545
 30
0.0
 11
1036.06
 21
631.931
 31
0.0
  0
LINE
  8
0
 62
     250
 10
1036.06
 20
631.931
 30
0.0
 11
1040.2
 21
631.469
 31
0.0
  0
LINE
  8
0
 62
     250
 10
1040.2
 20
631.469
 30
0.0
 11
1041.57
 21
631.306
 31
0.0
  0
LINE
  8
0
 62
     250
 10
1041.57
 20
631.306
 30
0.0
 11
1042.95
 21
631.144
 31
0.0
  0
LINE
  8
0
 62
     250
 10
1042.95
 20
631.144
 30
0.0
 11
1047.06
 21
630.583
 31
0.0
  0
LINE
  8
0
 62
     250
 10
1047.06
 20
630.583
 30
0.0
 11
1052.9
 21
629.687
 31
0.0
  0
LINE
  8
0
 62
     250
 10
1052.9
 20
629.687
 30
0.0
 11
1059.01
 21
628.646
 31
0.0
  0
LINE
  8
0
 62
     250
 10
1059.01
 20
628.646
 30
0.0
 11
1065.3
 21
627.482
 31
0.0
  0
LINE
  8
0
 62
     250
 10
1065.3
 20
627.482
 30
0.0
 11
1071.68
 21
626.223
 31
0.0
  0
LINE
  8
0
 62
     250
 10
1071.68
 20
626.223
 30
0.0
 11
1078.06
 21
624.893
 31
0.0
  0
LINE
  8
0
 62
     250
 10
1078.06
 20
624.893
 30
0.0
 11
1084.36
 21
623.517
 31
0.0
  0
LINE
  8
0
 62
     250
 10
1084.36
 20
623.517
 30
0.0
 11
1090.48
 21
622.12
 31
0.0
  0
LINE
  8
0
 62
     250
 10
1090.48
 20
622.12
 30
0.0
 11
1096.33
 21
620.727
 31
0.0
  0
LINE
  8
0
 62
     250
 10
1096.33
 20
620.727
 30
0.0
 11
1101.84
 21
619.365
 31
0.0
  0
LINE
  8
0
 62
     250
 10
1101.84
 20
619.365
 30
0.0
 11
1106.91
 21
618.056
 31
0.0
  0
LINE
  8
0
 62
     250
 10
1106.91
 20
618.056
 30
0.0
 11
1111.44
 21
616.825
 31
0.0
  0
LINE
  8
0
 62
     250
 10
1111.44
 20
616.825
 30
0.0
 11
1115.37
 21
615.703
 31
0.0
  0
LINE
  8
0
 62
     250
 10
1115.37
 20
615.703
 30
0.0
 11
1118.58
 21
614.708
 31
0.0
  0
LINE
  8
0
 62
     250
 10
1118.58
 20
614.708
 30
0.0
 11
1121
 21
613.872
 31
0.0
  0
LINE
  8
0
 62
     250
 10
1121
 20
613.872
 30
0.0
 11
1122.18
 21
613.406
 31
0.0
  0
LINE
  8
0
 62
     250
 10
1122.18
 20
613.406
 30
0.0
 11
1122.55
 21
613.212
 31
0.0
  0
LINE
  8
0
 62
     250
 10
1122.55
 20
613.212
 30
0.0
 11
1123.2
 21
612.87
 31
0.0
  0
LINE
  8
0
 62
     250
 10
1123.2
 20
612.87
 30
0.0
 11
1125
 21
611.498
 31
0.0
  0
LINE
  8
0
 62
     250
 10
1125
 20
611.498
 30
0.0
 11
1127.96
 21
608.711
 31
0.0
  0
LINE
  8
0
 62
     250
 10
1127.96
 20
608.711
 30
0.0
 11
1131.25
 21
605.053
 31
0.0
  0
LINE
  8
0
 62
     250
 10
1131.25
 20
605.053
 30
0.0
 11
1134.69
 21
600.714
 31
0.0
  0
LINE
  8
0
 62
     250
 10
1134.69
 20
600.714
 30
0.0
 11
1138.09
 21
595.884
 31
0.0
  0
LINE
  8
0
 62
     250
 10
1138.09
 20
595.884
 30
0.0
 11
1141.28
 21
590.758
 31
0.0
  0
LINE
  8
0
 62
     250
 10
1141.28
 20
590.758
 30
0.0
 11
1144.07
 21
585.526
 31
0.0
  0
LINE
  8
0
 62
     250
 10
1144.07
 20
585.526
 30
0.0
 11
1145.8
 21
581.692
 31
0.0
  0
LINE
  8
0
 62
     250
 10
1145.8
 20
581.692
 30
0.0
 11
1146.28
 21
580.383
 31
0.0
  0
LINE
  8
0
 62
     250
 10
1146.28
 20
580.383
 30
0.0
 11
1146.77
 21
579.049
 31
0.0
  0
LINE
  8
0
 62
     250
 10
1146.77
 20
579.049
 30
0.0
 11
1147.98
 21
574.957
 31
0.0
  0
LINE
  8
0
 62
     250
 10
1147.98
 20
574.957
 30
0.0
 11
1149.4
 21
568.84
 31
0.0
  0
LINE
  8
0
 62
     250
 10
1149.4
 20
568.84
 30
0.0
 11
1150.59
 21
562.166
 31
0.0
  0
LINE
  8
0
 62
     250
 10
1150.59
 20
562.166
 30
0.0
 11
1151.62
 21
555.057
 31
0.0
  0
LINE
  8
0
 62
     250
 10
1151.62
 20
555.057
 30
0.0
 11
1152.55
 21
547.656
 31
0.0
  0
LINE
  8
0
 62
     250
 10
1152.55
 20
547.656
 30
0.0
 11
1153.42
 21
540.089
 31
0.0
  0
LINE
  8
0
 62
     250
 10
1153.42
 20
540.089
 30
0.0
 11
1154.32
 21
532.486
 31
0.0
  0
LINE
  8
0
 62
     250
 10
1154.32
 20
532.486
 30
0.0
 11
1155.04
 21
526.852
 31
0.0
  0
LINE
  8
0
 62
     250
 10
1155.04
 20
526.852
 30
0.0
 11
1155.3
 21
524.979
 31
0.0
  0
LINE
  8
0
 62
     250
 10
1155.3
 20
524.979
 30
0.0
 11
1155.46
 21
523.875
 31
0.0
  0
LINE
  8
0
 62
     250
 10
1155.46
 20
523.875
 30
0.0
 11
1155.95
 21
520.562
 31
0.0
  0
LINE
  8
0
 62
     250
 10
1155.95
 20
520.562
 30
0.0
 11
1156.85
 21
514.766
 31
0.0
  0
LINE
  8
0
 62
     250
 10
1156.85
 20
514.766
 30
0.0
 11
1157.95
 21
507.672
 31
0.0
  0
LINE
  8
0
 62
     250
 10
1157.95
 20
507.672
 30
0.0
 11
1159.23
 21
499.339
 31
0.0
  0
LINE
  8
0
 62
     250
 10
1159.23
 20
499.339
 30
0.0
 11
1160.62
 21
489.85
 31
0.0
  0
LINE
  8
0
 62
     250
 10
1160.62
 20
489.85
 30
0.0
 11
1162.1
 21
479.27
 31
0.0
  0
LINE
  8
0
 62
     250
 10
1162.1
 20
479.27
 30
0.0
 11
1163.63
 21
467.67
 31
0.0
  0
LINE
  8
0
 62
     250
 10
1163.63
 20
467.67
 30
0.0
 11
1165.17
 21
455.122
 31
0.0
  0
LINE
  8
0
 62
     250
 10
1165.17
 20
455.122
 30
0.0
 11
1166.67
 21
441.695
 31
0.0
  0
LINE
  8
0
 62
     250
 10
1166.67
 20
441.695
 30
0.0
 11
1168.1
 21
427.468
 31
0.0
  0
LINE
  8
0
 62
     250
 10
1168.1
 20
427.468
 30
0.0
 11
1169.43
 21
412.503
 31
0.0
  0
LINE
  8
0
 62
     250
 10
1169.43
 20
412.503
 30
0.0
 11
1170.59
 21
396.875
 31
0.0
  0
LINE
  8
0
 62
     250
 10
1170.59
 20
396.875
 30
0.0
 11
1171.58
 21
380.658
 31
0.0
  0
LINE
  8
0
 62
     250
 10
1171.58
 20
380.658
 30
0.0
 11
1172.32
 21
363.918
 31
0.0
  0
LINE
  8
0
 62
     250
 10
1172.32
 20
363.918
 30
0.0
 11
1172.8
 21
346.729
 31
0.0
  0
LINE
  8
0
 62
     250
 10
1172.8
 20
346.729
 30
0.0
 11
1172.97
 21
333.554
 31
0.0
  0
LINE
  8
0
 62
     250
 10
1172.97
 20
333.554
 30
0.0
 11
1172.97
 21
329.161
 31
0.0
  0
LINE
  8
0
 62
     250
 10
458.216
 20
592.134
 30
0.0
 11
458.216
 21
592.134
 31
0.0
  0
LINE
  8
0
 62
     250
 10
458.216
 20
592.134
 30
0.0
 11
457.634
 21
592.159
 31
0.0
  0
LINE
  8
0
 62
     250
 10
457.634
 20
592.159
 30
0.0
 11
455.986
 21
592.152
 31
0.0
  0
LINE
  8
0
 62
     250
 10
455.986
 20
592.152
 30
0.0
 11
453.422
 21
591.996
 31
0.0
  0
LINE
  8
0
 62
     250
 10
453.422
 20
591.996
 30
0.0
 11
450.07
 21
591.573
 31
0.0
  0
LINE
  8
0
 62
     250
 10
450.07
 20
591.573
 30
0.0
 11
446.084
 21
590.769
 31
0.0
  0
LINE
  8
0
 62
     250
 10
446.084
 20
590.769
 30
0.0
 11
441.6
 21
589.46
 31
0.0
  0
LINE
  8
0
 62
     250
 10
441.6
 20
589.46
 30
0.0
 11
436.764
 21
587.527
 31
0.0
  0
LINE
  8
0
 62
     250
 10
436.764
 20
587.527
 30
0.0
 11
432.932
 21
585.593
 31
0.0
  0
LINE
  8
0
 62
     250
 10
432.932
 20
585.593
 30
0.0
 11
431.715
 21
584.856
 31
0.0
  0
LINE
  8
0
 62
     250
 10
431.715
 20
584.856
 30
0.0
 11
430.428
 21
584.084
 31
0.0
  0
LINE
  8
0
 62
     250
 10
430.428
 20
584.084
 30
0.0
 11
426.709
 21
581.54
 31
0.0
  0
LINE
  8
0
 62
     250
 10
426.709
 20
581.54
 30
0.0
 11
421.957
 21
577.854
 31
0.0
  0
LINE
  8
0
 62
     250
 10
421.957
 20
577.854
 30
0.0
 11
417.548
 21
573.984
 31
0.0
  0
LINE
  8
0
 62
     250
 10
417.548
 20
573.984
 30
0.0
 11
413.565
 21
570.099
 31
0.0
  0
LINE
  8
0
 62
     250
 10
413.565
 20
570.099
 30
0.0
 11
410.09
 21
566.381
 31
0.0
  0
LINE
  8
0
 62
     250
 10
410.09
 20
566.381
 30
0.0
 11
407.208
 21
563.009
 31
0.0
  0
LINE
  8
0
 62
     250
 10
407.208
 20
563.009
 30
0.0
 11
405.003
 21
560.155
 31
0.0
  0
LINE
  8
0
 62
     250
 10
405.003
 20
560.155
 30
0.0
 11
403.888
 21
558.553
 31
0.0
  0
LINE
  8
0
 62
     250
 10
403.888
 20
558.553
 30
0.0
 11
403.56
 21
557.996
 31
0.0
  0
LINE
  8
0
 62
     250
 10
403.56
 20
557.996
 30
0.0
 11
402.985
 21
557.029
 31
0.0
  0
LINE
  8
0
 62
     250
 10
402.985
 20
557.029
 30
0.0
 11
401.616
 21
553.914
 31
0.0
  0
LINE
  8
0
 62
     250
 10
401.616
 20
553.914
 30
0.0
 11
400.039
 21
548.834
 31
0.0
  0
LINE
  8
0
 62
     250
 10
400.039
 20
548.834
 30
0.0
 11
398.978
 21
543.02
 31
0.0
  0
LINE
  8
0
 62
     250
 10
398.978
 20
543.02
 30
0.0
 11
398.589
 21
538.304
 31
0.0
  0
LINE
  8
0
 62
     250
 10
398.589
 20
538.304
 30
0.0
 11
398.589
 21
536.73
 31
0.0
  0
LINE
  8
0
 62
     250
 10
398.589
 20
536.73
 30
0.0
 11
398.589
 21
535.665
 31
0.0
  0
LINE
  8
0
 62
     250
 10
398.589
 20
535.665
 30
0.0
 11
398.769
 21
532.465
 31
0.0
  0
LINE
  8
0
 62
     250
 10
398.769
 20
532.465
 30
0.0
 11
399.263
 21
526.341
 31
0.0
  0
LINE
  8
0
 62
     250
 10
399.263
 20
526.341
 30
0.0
 11
400.008
 21
518.728
 31
0.0
  0
LINE
  8
0
 62
     250
 10
400.008
 20
518.728
 30
0.0
 11
400.935
 21
509.986
 31
0.0
  0
LINE
  8
0
 62
     250
 10
400.935
 20
509.986
 30
0.0
 11
401.987
 21
500.486
 31
0.0
  0
LINE
  8
0
 62
     250
 10
401.987
 20
500.486
 30
0.0
 11
403.094
 21
490.59
 31
0.0
  0
LINE
  8
0
 62
     250
 10
403.094
 20
490.59
 30
0.0
 11
404.188
 21
480.663
 31
0.0
  0
LINE
  8
0
 62
     250
 10
404.188
 20
480.663
 30
0.0
 11
404.964
 21
473.47
 31
0.0
  0
LINE
  8
0
 62
     250
 10
404.964
 20
473.47
 30
0.0
 11
405.215
 21
471.071
 31
0.0
  0
LINE
  8
0
 62
     250
 10
405.215
 20
471.071
 30
0.0
 11
405.345
 21
469.808
 31
0.0
  0
LINE
  8
0
 62
     250
 10
405.345
 20
469.808
 30
0.0
 11
405.702
 21
466.012
 31
0.0
  0
LINE
  8
0
 62
     250
 10
405.702
 20
466.012
 30
0.0
 11
406.192
 21
460.223
 31
0.0
  0
LINE
  8
0
 62
     250
 10
406.192
 20
460.223
 30
0.0
 11
406.686
 21
453.824
 31
0.0
  0
LINE
  8
0
 62
     250
 10
406.686
 20
453.824
 30
0.0
 11
407.18
 21
446.934
 31
0.0
  0
LINE
  8
0
 62
     250
 10
407.18
 20
446.934
 30
0.0
 11
407.666
 21
439.678
 31
0.0
  0
LINE
  8
0
 62
     250
 10
407.666
 20
439.678
 30
0.0
 11
408.143
 21
432.17
 31
0.0
  0
LINE
  8
0
 62
     250
 10
408.143
 20
432.17
 30
0.0
 11
408.605
 21
424.54
 31
0.0
  0
LINE
  8
0
 62
     250
 10
408.605
 20
424.54
 30
0.0
 11
409.056
 21
416.902
 31
0.0
  0
LINE
  8
0
 62
     250
 10
409.056
 20
416.902
 30
0.0
 11
409.487
 21
409.384
 31
0.0
  0
LINE
  8
0
 62
     250
 10
409.487
 20
409.384
 30
0.0
 11
409.893
 21
402.1
 31
0.0
  0
LINE
  8
0
 62
     250
 10
409.893
 20
402.1
 30
0.0
 11
410.273
 21
395.175
 31
0.0
  0
LINE
  8
0
 62
     250
 10
410.273
 20
395.175
 30
0.0
 11
410.623
 21
388.729
 31
0.0
  0
LINE
  8
0
 62
     250
 10
410.623
 20
388.729
 30
0.0
 11
410.94
 21
382.88
 31
0.0
  0
LINE
  8
0
 62
     250
 10
410.94
 20
382.88
 30
0.0
 11
411.219
 21
377.754
 31
0.0
  0
LINE
  8
0
 62
     250
 10
411.219
 20
377.754
 30
0.0
 11
411.459
 21
373.472
 31
0.0
  0
LINE
  8
0
 62
     250
 10
411.459
 20
373.472
 30
0.0
 11
411.603
 21
370.985
 31
0.0
  0
LINE
  8
0
 62
     250
 10
411.603
 20
370.985
 30
0.0
 11
411.656
 21
370.152
 31
0.0
  0
LINE
  8
0
 62
     250
 10
411.656
 20
370.152
 30
0.0
 11
411.745
 21
368.716
 31
0.0
  0
LINE
  8
0
 62
     250
 10
411.745
 20
368.716
 30
0.0
 11
412.108
 21
364.405
 31
0.0
  0
LINE
  8
0
 62
     250
 10
412.108
 20
364.405
 30
0.0
 11
412.732
 21
358.475
 31
0.0
  0
LINE
  8
0
 62
     250
 10
412.732
 20
358.475
 30
0.0
 11
413.456
 21
352.544
 31
0.0
  0
LINE
  8
0
 62
     250
 10
413.456
 20
352.544
 30
0.0
 11
414.211
 21
346.789
 31
0.0
  0
LINE
  8
0
 62
     250
 10
414.211
 20
346.789
 30
0.0
 11
414.916
 21
341.394
 31
0.0
  0
LINE
  8
0
 62
     250
 10
414.916
 20
341.394
 30
0.0
 11
415.512
 21
336.538
 31
0.0
  0
LINE
  8
0
 62
     250
 10
415.512
 20
336.538
 30
0.0
 11
415.918
 21
332.399
 31
0.0
  0
LINE
  8
0
 62
     250
 10
415.918
 20
332.399
 30
0.0
 11
416.073
 21
329.971
 31
0.0
  0
LINE
  8
0
 62
     250
 10
416.073
 20
329.971
 30
0.0
 11
416.073
 21
329.161
 31
0.0
  0
LINE
  8
0
 62
     250
 10
445.516
 20
329.161
 30
0.0
 11
445.516
 21
329.161
 31
0.0
  0
LINE
  8
0
 62
     250
 10
445.516
 20
329.161
 30
0.0
 11
445.495
 21
328.238
 31
0.0
  0
LINE
  8
0
 62
     250
 10
445.495
 20
328.238
 30
0.0
 11
445.431
 21
325.6
 31
0.0
  0
LINE
  8
0
 62
     250
 10
445.431
 20
325.6
 30
0.0
 11
445.34
 21
321.451
 31
0.0
  0
LINE
  8
0
 62
     250
 10
445.34
 20
321.451
 30
0.0
 11
445.213
 21
315.995
 31
0.0
  0
LINE
  8
0
 62
     250
 10
445.213
 20
315.995
 30
0.0
 11
445.068
 21
309.433
 31
0.0
  0
LINE
  8
0
 62
     250
 10
445.068
 20
309.433
 30
0.0
 11
444.906
 21
301.967
 31
0.0
  0
LINE
  8
0
 62
     250
 10
444.906
 20
301.967
 30
0.0
 11
444.729
 21
293.802
 31
0.0
  0
LINE
  8
0
 62
     250
 10
444.729
 20
293.802
 30
0.0
 11
444.549
 21
285.138
 31
0.0
  0
LINE
  8
0
 62
     250
 10
444.549
 20
285.138
 30
0.0
 11
444.369
 21
276.179
 31
0.0
  0
LINE
  8
0
 62
     250
 10
444.369
 20
276.179
 30
0.0
 11
444.197
 21
267.129
 31
0.0
  0
LINE
  8
0
 62
     250
 10
444.197
 20
267.129
 30
0.0
 11
444.034
 21
258.188
 31
0.0
  0
LINE
  8
0
 62
     250
 10
444.034
 20
258.188
 30
0.0
 11
443.886
 21
249.56
 31
0.0
  0
LINE
  8
0
 62
     250
 10
443.886
 20
249.56
 30
0.0
 11
443.763
 21
241.447
 31
0.0
  0
LINE
  8
0
 62
     250
 10
443.763
 20
241.447
 30
0.0
 11
443.667
 21
234.053
 31
0.0
  0
LINE
  8
0
 62
     250
 10
443.667
 20
234.053
 30
0.0
 11
443.604
 21
227.579
 31
0.0
  0
LINE
  8
0
 62
     250
 10
443.604
 20
227.579
 30
0.0
 11
443.586
 21
223.565
 31
0.0
  0
LINE
  8
0
 62
     250
 10
443.586
 20
223.565
 30
0.0
 11
443.586
 21
222.227
 31
0.0
  0
LINE
  8
0
 62
     250
 10
443.586
 20
222.227
 30
0.0
 11
443.586
 21
220.916
 31
0.0
  0
LINE
  8
0
 62
     250
 10
443.586
 20
220.916
 30
0.0
 11
443.604
 21
216.982
 31
0.0
  0
LINE
  8
0
 62
     250
 10
443.604
 20
216.982
 30
0.0
 11
443.671
 21
210.783
 31
0.0
  0
LINE
  8
0
 62
     250
 10
443.671
 20
210.783
 30
0.0
 11
443.77
 21
203.776
 31
0.0
  0
LINE
  8
0
 62
     250
 10
443.77
 20
203.776
 30
0.0
 11
443.907
 21
196.1
 31
0.0
  0
LINE
  8
0
 62
     250
 10
443.907
 20
196.1
 30
0.0
 11
444.073
 21
187.901
 31
0.0
  0
LINE
  8
0
 62
     250
 10
444.073
 20
187.901
 30
0.0
 11
444.267
 21
179.319
 31
0.0
  0
LINE
  8
0
 62
     250
 10
444.267
 20
179.319
 30
0.0
 11
444.486
 21
170.498
 31
0.0
  0
LINE
  8
0
 62
     250
 10
444.486
 20
170.498
 30
0.0
 11
444.722
 21
161.579
 31
0.0
  0
LINE
  8
0
 62
     250
 10
444.722
 20
161.579
 30
0.0
 11
444.976
 21
152.707
 31
0.0
  0
LINE
  8
0
 62
     250
 10
444.976
 20
152.707
 30
0.0
 11
445.241
 21
144.024
 31
0.0
  0
LINE
  8
0
 62
     250
 10
445.241
 20
144.024
 30
0.0
 11
445.516
 21
135.672
 31
0.0
  0
LINE
  8
0
 62
     250
 10
445.516
 20
135.672
 30
0.0
 11
445.798
 21
127.792
 31
0.0
  0
LINE
  8
0
 62
     250
 10
445.798
 20
127.792
 30
0.0
 11
446.077
 21
120.53
 31
0.0
  0
LINE
  8
0
 62
     250
 10
446.077
 20
120.53
 30
0.0
 11
446.359
 21
114.027
 31
0.0
  0
LINE
  8
0
 62
     250
 10
446.359
 20
114.027
 30
0.0
 11
446.631
 21
108.426
 31
0.0
  0
LINE
  8
0
 62
     250
 10
446.631
 20
108.426
 30
0.0
 11
446.821
 21
105.008
 31
0.0
  0
LINE
  8
0
 62
     250
 10
446.821
 20
105.008
 30
0.0
 11
446.895
 21
103.868
 31
0.0
  0
LINE
  8
0
 62
     250
 10
446.895
 20
103.868
 30
0.0
 11
447.022
 21
101.931
 31
0.0
  0
LINE
  8
0
 62
     250
 10
447.022
 20
101.931
 30
0.0
 11
447.717
 21
96.1362
 31
0.0
  0
LINE
  8
0
 62
     250
 10
447.717
 20
96.1362
 30
0.0
 11
449.065
 21
88.9564
 31
0.0
  0
LINE
  8
0
 62
     250
 10
449.065
 20
88.9564
 30
0.0
 11
450.822
 21
82.4399
 31
0.0
  0
LINE
  8
0
 62
     250
 10
450.822
 20
82.4399
 30
0.0
 11
452.864
 21
76.6932
 31
0.0
  0
LINE
  8
0
 62
     250
 10
452.864
 20
76.6932
 30
0.0
 11
455.076
 21
71.8263
 31
0.0
  0
LINE
  8
0
 62
     250
 10
455.076
 20
71.8263
 30
0.0
 11
457.338
 21
67.9443
 31
0.0
  0
LINE
  8
0
 62
     250
 10
457.338
 20
67.9443
 30
0.0
 11
459.528
 21
65.1591
 31
0.0
  0
LINE
  8
0
 62
     250
 10
459.528
 20
65.1591
 30
0.0
 11
460.968
 21
63.8584
 31
0.0
  0
LINE
  8
0
 62
     250
 10
460.968
 20
63.8584
 30
0.0
 11
461.529
 21
63.5758
 31
0.0
  0
LINE
  8
0
 62
     250
 10
461.529
 20
63.5758
 30
0.0
 11
461.843
 21
63.4175
 31
0.0
  0
LINE
  8
0
 62
     250
 10
461.843
 20
63.4175
 30
0.0
 11
462.827
 21
63.0149
 31
0.0
  0
LINE
  8
0
 62
     250
 10
462.827
 20
63.0149
 30
0.0
 11
464.834
 21
62.2847
 31
0.0
  0
LINE
  8
0
 62
     250
 10
464.834
 20
62.2847
 30
0.0
 11
467.529
 21
61.3985
 31
0.0
  0
LINE
  8
0
 62
     250
 10
467.529
 20
61.3985
 30
0.0
 11
470.874
 21
60.3719
 31
0.0
  0
LINE
  8
0
 62
     250
 10
470.874
 20
60.3719
 30
0.0
 11
474.835
 21
59.2197
 31
0.0
  0
LINE
  8
0
 62
     250
 10
474.835
 20
59.2197
 30
0.0
 11
479.386
 21
57.9547
 31
0.0
  0
LINE
  8
0
 62
     250
 10
479.386
 20
57.9547
 30
0.0
 11
484.498
 21
56.5933
 31
0.0
  0
LINE
  8
0
 62
     250
 10
484.498
 20
56.5933
 30
0.0
 11
490.132
 21
55.1476
 31
0.0
  0
LINE
  8
0
 62
     250
 10
490.132
 20
55.1476
 30
0.0
 11
496.26
 21
53.6332
 31
0.0
  0
LINE
  8
0
 62
     250
 10
496.26
 20
53.6332
 30
0.0
 11
502.853
 21
52.0651
 31
0.0
  0
LINE
  8
0
 62
     250
 10
502.853
 20
52.0651
 30
0.0
 11
509.88
 21
50.4553
 31
0.0
  0
LINE
  8
0
 62
     250
 10
509.88
 20
50.4553
 30
0.0
 11
517.306
 21
48.8213
 31
0.0
  0
LINE
  8
0
 62
     250
 10
517.306
 20
48.8213
 30
0.0
 11
525.106
 21
47.1759
 31
0.0
  0
LINE
  8
0
 62
     250
 10
525.106
 20
47.1759
 30
0.0
 11
533.241
 21
45.5316
 31
0.0
  0
LINE
  8
0
 62
     250
 10
533.241
 20
45.5316
 30
0.0
 11
541.687
 21
43.9057
 31
0.0
  0
LINE
  8
0
 62
     250
 10
541.687
 20
43.9057
 30
0.0
 11
548.227
 21
42.6999
 31
0.0
  0
LINE
  8
0
 62
     250
 10
548.227
 20
42.6999
 30
0.0
 11
550.411
 21
42.3115
 31
0.0
  0
LINE
  8
0
 62
     250
 10
550.411
 20
42.3115
 30
0.0
 11
552.76
 21
41.8938
 31
0.0
  0
LINE
  8
0
 62
     250
 10
552.76
 20
41.8938
 30
0.0
 11
559.823
 21
40.6837
 31
0.0
  0
LINE
  8
0
 62
     250
 10
559.823
 20
40.6837
 30
0.0
 11
570.265
 21
38.964
 31
0.0
  0
LINE
  8
0
 62
     250
 10
570.265
 20
38.964
 30
0.0
 11
581.597
 21
37.181
 31
0.0
  0
LINE
  8
0
 62
     250
 10
581.597
 20
37.181
 30
0.0
 11
593.676
 21
35.3603
 31
0.0
  0
LINE
  8
0
 62
     250
 10
593.676
 20
35.3603
 30
0.0
 11
606.361
 21
33.5304
 31
0.0
  0
LINE
  8
0
 62
     250
 10
606.361
 20
33.5304
 30
0.0
 11
619.51
 21
31.7169
 31
0.0
  0
LINE
  8
0
 62
     250
 10
619.51
 20
31.7169
 30
0.0
 11
632.986
 21
29.9489
 31
0.0
  0
LINE
  8
0
 62
     250
 10
632.986
 20
29.9489
 30
0.0
 11
646.645
 21
28.2512
 31
0.0
  0
LINE
  8
0
 62
     250
 10
646.645
 20
28.2512
 30
0.0
 11
660.344
 21
26.6526
 31
0.0
  0
LINE
  8
0
 62
     250
 10
660.344
 20
26.6526
 30
0.0
 11
673.947
 21
25.1781
 31
0.0
  0
LINE
  8
0
 62
     250
 10
673.947
 20
25.1781
 30
0.0
 11
687.306
 21
23.858
 31
0.0
  0
LINE
  8
0
 62
     250
 10
687.306
 20
23.858
 30
0.0
 11
700.285
 21
22.7156
 31
0.0
  0
LINE
  8
0
 62
     250
 10
700.285
 20
22.7156
 30
0.0
 11
712.745
 21
21.7813
 31
0.0
  0
LINE
  8
0
 62
     250
 10
712.745
 20
21.7813
 30
0.0
 11
724.535
 21
21.0798
 31
0.0
  0
LINE
  8
0
 62
     250
 10
724.535
 20
21.0798
 30
0.0
 11
735.528
 21
20.6389
 31
0.0
  0
LINE
  8
0
 62
     250
 10
735.528
 20
20.6389
 30
0.0
 11
743.059
 21
20.4859
 31
0.0
  0
LINE
  8
0
 62
     250
 10
743.059
 20
20.4859
 30
0.0
 11
745.571
 21
20.4859
 31
0.0
  0
LINE
  8
0
 62
     250
 10
745.571
 20
20.4859
 30
0.0
 11
747.935
 21
20.4859
 31
0.0
  0
LINE
  8
0
 62
     250
 10
747.935
 20
20.4859
 30
0.0
 11
755.033
 21
20.7753
 31
0.0
  0
LINE
  8
0
 62
     250
 10
755.033
 20
20.7753
 30
0.0
 11
764.332
 21
21.5925
 31
0.0
  0
LINE
  8
0
 62
     250
 10
764.332
 20
21.5925
 30
0.0
 11
773.405
 21
22.8617
 31
0.0
  0
LINE
  8
0
 62
     250
 10
773.405
 20
22.8617
 30
0.0
 11
782.193
 21
24.5084
 31
0.0
  0
LINE
  8
0
 62
     250
 10
782.193
 20
24.5084
 30
0.0
 11
790.631
 21
26.457
 31
0.0
  0
LINE
  8
0
 62
     250
 10
790.631
 20
26.457
 30
0.0
 11
798.661
 21
28.6315
 31
0.0
  0
LINE
  8
0
 62
     250
 10
798.661
 20
28.6315
 30
0.0
 11
806.221
 21
30.9563
 31
0.0
  0
LINE
  8
0
 62
     250
 10
806.221
 20
30.9563
 30
0.0
 11
813.245
 21
33.3568
 31
0.0
  0
LINE
  8
0
 62
     250
 10
813.245
 20
33.3568
 30
0.0
 11
819.672
 21
35.7586
 31
0.0
  0
LINE
  8
0
 62
     250
 10
819.672
 20
35.7586
 30
0.0
 11
825.447
 21
38.0834
 31
0.0
  0
LINE
  8
0
 62
     250
 10
825.447
 20
38.0834
 30
0.0
 11
830.499
 21
40.2579
 31
0.0
  0
LINE
  8
0
 62
     250
 10
830.499
 20
40.2579
 30
0.0
 11
834.775
 21
42.2067
 31
0.0
  0
LINE
  8
0
 62
     250
 10
834.775
 20
42.2067
 30
0.0
 11
838.204
 21
43.8535
 31
0.0
  0
LINE
  8
0
 62
     250
 10
838.204
 20
43.8535
 30
0.0
 11
840.733
 21
45.1224
 31
0.0
  0
LINE
  8
0
 62
     250
 10
840.733
 20
45.1224
 30
0.0
 11
842.292
 21
45.9398
 31
0.0
  0
LINE
  8
0
 62
     250
 10
842.292
 20
45.9398
 30
0.0
 11
842.828
 21
46.2276
 31
0.0
  0
LINE
  8
0
 62
     250
 10
842.828
 20
46.2276
 30
0.0
 11
842.828
 21
46.2276
 31
0.0
  0
LINE
  8
0
 62
     250
 10
416.073
 20
324.078
 30
0.0
 11
1173.05
 21
324.078
 31
0.0
  0
LINE
  8
0
 62
     250
 10
416.257
 20
329.161
 30
0.0
 11
1173.05
 21
329.161
 31
0.0
  0
LINE
  8
0
 62
     250
 10
881.105
 20
329.161
 30
0.0
 11
881.105
 21
329.161
 31
0.0
  0
LINE
  8
0
 62
     250
 10
881.105
 20
329.161
 30
0.0
 11
881.041
 21
328.5
 31
0.0
  0
LINE
  8
0
 62
     250
 10
881.041
 20
328.5
 30
0.0
 11
880.858
 21
326.602
 31
0.0
  0
LINE
  8
0
 62
     250
 10
880.858
 20
326.602
 30
0.0
 11
880.572
 21
323.596
 31
0.0
  0
LINE
  8
0
 62
     250
 10
880.572
 20
323.596
 30
0.0
 11
880.188
 21
319.618
 31
0.0
  0
LINE
  8
0
 62
     250
 10
880.188
 20
319.618
 30
0.0
 11
879.715
 21
314.793
 31
0.0
  0
LINE
  8
0
 62
     250
 10
879.715
 20
314.793
 30
0.0
 11
879.172
 21
309.257
 31
0.0
  0
LINE
  8
0
 62
     250
 10
879.172
 20
309.257
 30
0.0
 11
878.565
 21
303.135
 31
0.0
  0
LINE
  8
0
 62
     250
 10
878.565
 20
303.135
 30
0.0
 11
877.905
 21
296.563
 31
0.0
  0
LINE
  8
0
 62
     250
 10
877.905
 20
296.563
 30
0.0
 11
877.207
 21
289.67
 31
0.0
  0
LINE
  8
0
 62
     250
 10
877.207
 20
289.67
 30
0.0
 11
876.476
 21
282.586
 31
0.0
  0
LINE
  8
0
 62
     250
 10
876.476
 20
282.586
 30
0.0
 11
875.728
 21
275.441
 31
0.0
  0
LINE
  8
0
 62
     250
 10
875.728
 20
275.441
 30
0.0
 11
874.97
 21
268.369
 31
0.0
  0
LINE
  8
0
 62
     250
 10
874.97
 20
268.369
 30
0.0
 11
874.215
 21
261.497
 31
0.0
  0
LINE
  8
0
 62
     250
 10
874.215
 20
261.497
 30
0.0
 11
873.478
 21
254.958
 31
0.0
  0
LINE
  8
0
 62
     250
 10
873.478
 20
254.958
 30
0.0
 11
872.765
 21
248.882
 31
0.0
  0
LINE
  8
0
 62
     250
 10
872.765
 20
248.882
 30
0.0
 11
872.261
 21
244.769
 31
0.0
  0
LINE
  8
0
 62
     250
 10
872.261
 20
244.769
 30
0.0
 11
872.088
 21
243.399
 31
0.0
  0
LINE
  8
0
 62
     250
 10
872.088
 20
243.399
 30
0.0
 11
871.901
 21
241.943
 31
0.0
  0
LINE
  8
0
 62
     250
 10
871.901
 20
241.943
 30
0.0
 11
871.287
 21
237.585
 31
0.0
  0
LINE
  8
0
 62
     250
 10
871.287
 20
237.585
 30
0.0
 11
870.229
 21
230.546
 31
0.0
  0
LINE
  8
0
 62
     250
 10
870.229
 20
230.546
 30
0.0
 11
868.948
 21
222.463
 31
0.0
  0
LINE
  8
0
 62
     250
 10
868.948
 20
222.463
 30
0.0
 11
867.484
 21
213.524
 31
0.0
  0
LINE
  8
0
 62
     250
 10
867.484
 20
213.524
 30
0.0
 11
865.868
 21
203.91
 31
0.0
  0
LINE
  8
0
 62
     250
 10
865.868
 20
203.91
 30
0.0
 11
864.143
 21
193.802
 31
0.0
  0
LINE
  8
0
 62
     250
 10
864.143
 20
193.802
 30
0.0
 11
862.348
 21
183.385
 31
0.0
  0
LINE
  8
0
 62
     250
 10
862.348
 20
183.385
 30
0.0
 11
860.517
 21
172.842
 31
0.0
  0
LINE
  8
0
 62
     250
 10
860.517
 20
172.842
 30
0.0
 11
858.686
 21
162.355
 31
0.0
  0
LINE
  8
0
 62
     250
 10
858.686
 20
162.355
 30
0.0
 11
856.897
 21
152.109
 31
0.0
  0
LINE
  8
0
 62
     250
 10
856.897
 20
152.109
 30
0.0
 11
855.183
 21
142.285
 31
0.0
  0
LINE
  8
0
 62
     250
 10
855.183
 20
142.285
 30
0.0
 11
853.585
 21
133.067
 31
0.0
  0
LINE
  8
0
 62
     250
 10
853.585
 20
133.067
 30
0.0
 11
852.135
 21
124.64
 31
0.0
  0
LINE
  8
0
 62
     250
 10
852.135
 20
124.64
 30
0.0
 11
850.879
 21
117.184
 31
0.0
  0
LINE
  8
0
 62
     250
 10
850.879
 20
117.184
 30
0.0
 11
849.849
 21
110.883
 31
0.0
  0
LINE
  8
0
 62
     250
 10
849.849
 20
110.883
 30
0.0
 11
849.267
 21
107.162
 31
0.0
  0
LINE
  8
0
 62
     250
 10
849.267
 20
107.162
 30
0.0
 11
849.083
 21
105.92
 31
0.0
  0
LINE
  8
0
 62
     250
 10
849.083
 20
105.92
 30
0.0
 11
848.773
 21
103.801
 31
0.0
  0
LINE
  8
0
 62
     250
 10
848.773
 20
103.801
 30
0.0
 11
847.817
 21
97.4425
 31
0.0
  0
LINE
  8
0
 62
     250
 10
847.817
 20
97.4425
 30
0.0
 11
846.547
 21
89.0517
 31
0.0
  0
LINE
  8
0
 62
     250
 10
846.547
 20
89.0517
 30
0.0
 11
845.337
 21
80.9226
 31
0.0
  0
LINE
  8
0
 62
     250
 10
845.337
 20
80.9226
 30
0.0
 11
844.254
 21
73.2303
 31
0.0
  0
LINE
  8
0
 62
     250
 10
844.254
 20
73.2303
 30
0.0
 11
843.358
 21
66.1501
 31
0.0
  0
LINE
  8
0
 62
     250
 10
843.358
 20
66.1501
 30
0.0
 11
842.716
 21
59.8579
 31
0.0
  0
LINE
  8
0
 62
     250
 10
842.716
 20
59.8579
 30
0.0
 11
842.394
 21
54.5264
 31
0.0
  0
LINE
  8
0
 62
     250
 10
842.394
 20
54.5264
 30
0.0
 11
842.377
 21
51.3761
 31
0.0
  0
LINE
  8
0
 62
     250
 10
842.377
 20
51.3761
 30
0.0
 11
842.458
 21
50.3315
 31
0.0
  0
LINE
  8
0
 62
     250
 10
842.458
 20
50.3315
 30
0.0
 11
842.529
 21
49.4235
 31
0.0
  0
LINE
  8
0
 62
     250
 10
842.529
 20
49.4235
 30
0.0
 11
843.149
 21
46.7251
 31
0.0
  0
LINE
  8
0
 62
     250
 10
843.149
 20
46.7251
 30
0.0
 11
844.635
 21
43.0872
 31
0.0
  0
LINE
  8
0
 62
     250
 10
844.635
 20
43.0872
 30
0.0
 11
846.868
 21
39.4917
 31
0.0
  0
LINE
  8
0
 62
     250
 10
846.868
 20
39.4917
 30
0.0
 11
849.796
 21
36.0165
 31
0.0
  0
LINE
  8
0
 62
     250
 10
849.796
 20
36.0165
 30
0.0
 11
853.373
 21
32.7312
 31
0.0
  0
LINE
  8
0
 62
     250
 10
853.373
 20
32.7312
 30
0.0
 11
857.546
 21
29.7146
 31
0.0
  0
LINE
  8
0
 62
     250
 10
857.546
 20
29.7146
 30
0.0
 11
862.266
 21
27.0371
 31
0.0
  0
LINE
  8
0
 62
     250
 10
862.266
 20
27.0371
 30
0.0
 11
866.154
 21
25.2718
 31
0.0
  0
LINE
  8
0
 62
     250
 10
866.154
 20
25.2718
 30
0.0
 11
867.488
 21
24.7758
 31
0.0
  0
LINE
  8
0
 62
     250
 10
867.488
 20
24.7758
 30
0.0
 11
868.235
 21
24.4974
 31
0.0
  0
LINE
  8
0
 62
     250
 10
868.235
 20
24.4974
 30
0.0
 11
870.546
 21
23.8304
 31
0.0
  0
LINE
  8
0
 62
     250
 10
870.546
 20
23.8304
 30
0.0
 11
874.229
 21
23.016
 31
0.0
  0
LINE
  8
0
 62
     250
 10
874.229
 20
23.016
 30
0.0
 11
878.441
 21
22.3228
 31
0.0
  0
LINE
  8
0
 62
     250
 10
878.441
 20
22.3228
 30
0.0
 11
883.116
 21
21.7427
 31
0.0
  0
LINE
  8
0
 62
     250
 10
883.116
 20
21.7427
 30
0.0
 11
888.164
 21
21.2659
 31
0.0
  0
LINE
  8
0
 62
     250
 10
888.164
 20
21.2659
 30
0.0
 11
893.505
 21
20.8842
 31
0.0
  0
LINE
  8
0
 62
     250
 10
893.505
 20
20.8842
 30
0.0
 11
899.061
 21
20.5893
 31
0.0
  0
LINE
  8
0
 62
     250
 10
899.061
 20
20.5893
 30
0.0
 11
904.751
 21
20.3702
 31
0.0
  0
LINE
  8
0
 62
     250
 10
904.751
 20
20.3702
 30
0.0
 11
910.491
 21
20.2186
 31
0.0
  0
LINE
  8
0
 62
     250
 10
910.491
 20
20.2186
 30
0.0
 11
916.203
 21
20.1263
 31
0.0
  0
LINE
  8
0
 62
     250
 10
916.203
 20
20.1263
 30
0.0
 11
921.801
 21
20.0835
 31
0.0
  0
LINE
  8
0
 62
     250
 10
921.801
 20
20.0835
 30
0.0
 11
927.213
 21
20.0808
 31
0.0
  0
LINE
  8
0
 62
     250
 10
927.213
 20
20.0808
 30
0.0
 11
932.353
 21
20.1111
 31
0.0
  0
LINE
  8
0
 62
     250
 10
932.353
 20
20.1111
 30
0.0
 11
937.137
 21
20.1635
 31
0.0
  0
LINE
  8
0
 62
     250
 10
937.137
 20
20.1635
 30
0.0
 11
941.49
 21
20.2282
 31
0.0
  0
LINE
  8
0
 62
     250
 10
941.49
 20
20.2282
 30
0.0
 11
944.368
 21
20.2806
 31
0.0
  0
LINE
  8
0
 62
     250
 10
944.368
 20
20.2806
 30
0.0
 11
945.328
 21
20.2985
 31
0.0
  0
LINE
  8
0
 62
     250
 10
945.328
 20
20.2985
 30
0.0
 11
946.302
 21
20.3178
 31
0.0
  0
LINE
  8
0
 62
     250
 10
946.302
 20
20.3178
 30
0.0
 11
949.223
 21
20.3991
 31
0.0
  0
LINE
  8
0
 62
     250
 10
949.223
 20
20.3991
 30
0.0
 11
953.752
 21
20.5576
 31
0.0
  0
LINE
  8
0
 62
     250
 10
953.752
 20
20.5576
 30
0.0
 11
958.836
 21
20.7698
 31
0.0
  0
LINE
  8
0
 62
     250
 10
958.836
 20
20.7698
 30
0.0
 11
964.403
 21
21.0344
 31
0.0
  0
LINE
  8
0
 62
     250
 10
964.403
 20
21.0344
 30
0.0
 11
970.379
 21
21.3458
 31
0.0
  0
LINE
  8
0
 62
     250
 10
970.379
 20
21.3458
 30
0.0
 11
976.686
 21
21.7027
 31
0.0
  0
LINE
  8
0
 62
     250
 10
976.686
 20
21.7027
 30
0.0
 11
983.252
 21
22.101
 31
0.0
  0
LINE
  8
0
 62
     250
 10
983.252
 20
22.101
 30
0.0
 11
990
 21
22.5378
 31
0.0
  0
LINE
  8
0
 62
     250
 10
990
 20
22.5378
 30
0.0
 11
996.855
 21
23.0105
 31
0.0
  0
LINE
  8
0
 62
     250
 10
996.855
 20
23.0105
 30
0.0
 11
1003.74
 21
23.5134
 31
0.0
  0
LINE
  8
0
 62
     250
 10
1003.74
 20
23.5134
 30
0.0
 11
1010.59
 21
24.0454
 31
0.0
  0
LINE
  8
0
 62
     250
 10
1010.59
 20
24.0454
 30
0.0
 11
1017.32
 21
24.6021
 31
0.0
  0
LINE
  8
0
 62
     250
 10
1017.32
 20
24.6021
 30
0.0
 11
1023.86
 21
25.1809
 31
0.0
  0
LINE
  8
0
 62
     250
 10
1023.86
 20
25.1809
 30
0.0
 11
1030.13
 21
25.7776
 31
0.0
  0
LINE
  8
0
 62
     250
 10
1030.13
 20
25.7776
 30
0.0
 11
1036.06
 21
26.3908
 31
0.0
  0
LINE
  8
0
 62
     250
 10
1036.06
 20
26.3908
 30
0.0
 11
1040.2
 21
26.8511
 31
0.0
  0
LINE
  8
0
 62
     250
 10
1040.2
 20
26.8511
 30
0.0
 11
1041.57
 21
27.0151
 31
0.0
  0
LINE
  8
0
 62
     250
 10
1041.57
 20
27.0151
 30
0.0
 11
1042.95
 21
27.1791
 31
0.0
  0
LINE
  8
0
 62
     250
 10
1042.95
 20
27.1791
 30
0.0
 11
1047.06
 21
27.7399
 31
0.0
  0
LINE
  8
0
 62
     250
 10
1047.06
 20
27.7399
 30
0.0
 11
1052.9
 21
28.6343
 31
0.0
  0
LINE
  8
0
 62
     250
 10
1052.9
 20
28.6343
 30
0.0
 11
1059.01
 21
29.6761
 31
0.0
  0
LINE
  8
0
 62
     250
 10
1059.01
 20
29.6761
 30
0.0
 11
1065.3
 21
30.8391
 31
0.0
  0
LINE
  8
0
 62
     250
 10
1065.3
 20
30.8391
 30
0.0
 11
1071.68
 21
32.0986
 31
0.0
  0
LINE
  8
0
 62
     250
 10
1071.68
 20
32.0986
 30
0.0
 11
1078.06
 21
33.4284
 31
0.0
  0
LINE
  8
0
 62
     250
 10
1078.06
 20
33.4284
 30
0.0
 11
1084.36
 21
34.8051
 31
0.0
  0
LINE
  8
0
 62
     250
 10
1084.36
 20
34.8051
 30
0.0
 11
1090.48
 21
36.2024
 31
0.0
  0
LINE
  8
0
 62
     250
 10
1090.48
 20
36.2024
 30
0.0
 11
1096.33
 21
37.5941
 31
0.0
  0
LINE
  8
0
 62
     250
 10
1096.33
 20
37.5941
 30
0.0
 11
1101.84
 21
38.9587
 31
0.0
  0
LINE
  8
0
 62
     250
 10
1101.84
 20
38.9587
 30
0.0
 11
1106.91
 21
40.2664
 31
0.0
  0
LINE
  8
0
 62
     250
 10
1106.91
 20
40.2664
 30
0.0
 11
1111.44
 21
41.4955
 31
0.0
  0
LINE
  8
0
 62
     250
 10
1111.44
 20
41.4955
 30
0.0
 11
1115.37
 21
42.6187
 31
0.0
  0
LINE
  8
0
 62
     250
 10
1115.37
 20
42.6187
 30
0.0
 11
1118.58
 21
43.6122
 31
0.0
  0
LINE
  8
0
 62
     250
 10
1118.58
 20
43.6122
 30
0.0
 11
1121
 21
44.4514
 31
0.0
  0
LINE
  8
0
 62
     250
 10
1121
 20
44.4514
 30
0.0
 11
1122.18
 21
44.9157
 31
0.0
  0
LINE
  8
0
 62
     250
 10
1122.18
 20
44.9157
 30
0.0
 11
1122.55
 21
45.1086
 31
0.0
  0
LINE
  8
0
 62
     250
 10
1122.55
 20
45.1086
 30
0.0
 11
1123.2
 21
45.4533
 31
0.0
  0
LINE
  8
0
 62
     250
 10
1123.2
 20
45.4533
 30
0.0
 11
1125
 21
46.8256
 31
0.0
  0
LINE
  8
0
 62
     250
 10
1125
 20
46.8256
 30
0.0
 11
1127.96
 21
49.6094
 31
0.0
  0
LINE
  8
0
 62
     250
 10
1127.96
 20
49.6094
 30
0.0
 11
1131.25
 21
53.268
 31
0.0
  0
LINE
  8
0
 62
     250
 10
1131.25
 20
53.268
 30
0.0
 11
1134.69
 21
57.6076
 31
0.0
  0
LINE
  8
0
 62
     250
 10
1134.69
 20
57.6076
 30
0.0
 11
1138.09
 21
62.4374
 31
0.0
  0
LINE
  8
0
 62
     250
 10
1138.09
 20
62.4374
 30
0.0
 11
1141.28
 21
67.564
 31
0.0
  0
LINE
  8
0
 62
     250
 10
1141.28
 20
67.564
 30
0.0
 11
1144.07
 21
72.795
 31
0.0
  0
LINE
  8
0
 62
     250
 10
1144.07
 20
72.795
 30
0.0
 11
1145.8
 21
76.6286
 31
0.0
  0
LINE
  8
0
 62
     250
 10
1145.8
 20
76.6286
 30
0.0
 11
1146.28
 21
77.9392
 31
0.0
  0
LINE
  8
0
 62
     250
 10
1146.28
 20
77.9392
 30
0.0
 11
1146.77
 21
79.2716
 31
0.0
  0
LINE
  8
0
 62
     250
 10
1146.77
 20
79.2716
 30
0.0
 11
1147.98
 21
83.366
 31
0.0
  0
LINE
  8
0
 62
     250
 10
1147.98
 20
83.366
 30
0.0
 11
1149.4
 21
89.4828
 31
0.0
  0
LINE
  8
0
 62
     250
 10
1149.4
 20
89.4828
 30
0.0
 11
1150.59
 21
96.1581
 31
0.0
  0
LINE
  8
0
 62
     250
 10
1150.59
 20
96.1581
 30
0.0
 11
1151.62
 21
103.263
 31
0.0
  0
LINE
  8
0
 62
     250
 10
1151.62
 20
103.263
 30
0.0
 11
1152.55
 21
110.665
 31
0.0
  0
LINE
  8
0
 62
     250
 10
1152.55
 20
110.665
 30
0.0
 11
1153.42
 21
118.233
 31
0.0
  0
LINE
  8
0
 62
     250
 10
1153.42
 20
118.233
 30
0.0
 11
1154.32
 21
125.835
 31
0.0
  0
LINE
  8
0
 62
     250
 10
1154.32
 20
125.835
 30
0.0
 11
1155.04
 21
131.469
 31
0.0
  0
LINE
  8
0
 62
     250
 10
1155.04
 20
131.469
 30
0.0
 11
1155.3
 21
133.342
 31
0.0
  0
LINE
  8
0
 62
     250
 10
1155.3
 20
133.342
 30
0.0
 11
1155.46
 21
134.448
 31
0.0
  0
LINE
  8
0
 62
     250
 10
1155.46
 20
134.448
 30
0.0
 11
1155.95
 21
137.761
 31
0.0
  0
LINE
  8
0
 62
     250
 10
1155.95
 20
137.761
 30
0.0
 11
1156.85
 21
143.554
 31
0.0
  0
LINE
  8
0
 62
     250
 10
1156.85
 20
143.554
 30
0.0
 11
1157.95
 21
150.651
 31
0.0
  0
LINE
  8
0
 62
     250
 10
1157.95
 20
150.651
 30
0.0
 11
1159.23
 21
158.981
 31
0.0
  0
LINE
  8
0
 62
     250
 10
1159.23
 20
158.981
 30
0.0
 11
1160.62
 21
168.472
 31
0.0
  0
LINE
  8
0
 62
     250
 10
1160.62
 20
168.472
 30
0.0
 11
1162.1
 21
179.053
 31
0.0
  0
LINE
  8
0
 62
     250
 10
1162.1
 20
179.053
 30
0.0
 11
1163.63
 21
190.653
 31
0.0
  0
LINE
  8
0
 62
     250
 10
1163.63
 20
190.653
 30
0.0
 11
1165.17
 21
203.201
 31
0.0
  0
LINE
  8
0
 62
     250
 10
1165.17
 20
203.201
 30
0.0
 11
1166.67
 21
216.625
 31
0.0
  0
LINE
  8
0
 62
     250
 10
1166.67
 20
216.625
 30
0.0
 11
1168.1
 21
230.855
 31
0.0
  0
LINE
  8
0
 62
     250
 10
1168.1
 20
230.855
 30
0.0
 11
1169.43
 21
245.819
 31
0.0
  0
LINE
  8
0
 62
     250
 10
1169.43
 20
245.819
 30
0.0
 11
1170.59
 21
261.445
 31
0.0
  0
LINE
  8
0
 62
     250
 10
1170.59
 20
261.445
 30
0.0
 11
1171.58
 21
277.665
 31
0.0
  0
LINE
  8
0
 62
     250
 10
1171.58
 20
277.665
 30
0.0
 11
1172.32
 21
294.405
 31
0.0
  0
LINE
  8
0
 62
     250
 10
1172.32
 20
294.405
 30
0.0
 11
1172.8
 21
311.594
 31
0.0
  0
LINE
  8
0
 62
     250
 10
1172.8
 20
311.594
 30
0.0
 11
1172.97
 21
324.769
 31
0.0
  0
LINE
  8
0
 62
     250
 10
1172.97
 20
324.769
 30
0.0
 11
1172.97
 21
329.161
 31
0.0
  0
LINE
  8
0
 62
     250
 10
458.216
 20
66.1871
 30
0.0
 11
458.216
 21
66.1871
 31
0.0
  0
LINE
  8
0
 62
     250
 10
458.216
 20
66.1871
 30
0.0
 11
457.634
 21
66.1638
 31
0.0
  0
LINE
  8
0
 62
     250
 10
457.634
 20
66.1638
 30
0.0
 11
455.986
 21
66.1705
 31
0.0
  0
LINE
  8
0
 62
     250
 10
455.986
 20
66.1705
 30
0.0
 11
453.422
 21
66.3265
 31
0.0
  0
LINE
  8
0
 62
     250
 10
453.422
 20
66.3265
 30
0.0
 11
450.07
 21
66.748
 31
0.0
  0
LINE
  8
0
 62
     250
 10
450.07
 20
66.748
 30
0.0
 11
446.084
 21
67.5541
 31
0.0
  0
LINE
  8
0
 62
     250
 10
446.084
 20
67.5541
 30
0.0
 11
441.6
 21
68.8647
 31
0.0
  0
LINE
  8
0
 62
     250
 10
441.6
 20
68.8647
 30
0.0
 11
436.764
 21
70.7954
 31
0.0
  0
LINE
  8
0
 62
     250
 10
436.764
 20
70.7954
 30
0.0
 11
432.932
 21
72.7287
 31
0.0
  0
LINE
  8
0
 62
     250
 10
432.932
 20
72.7287
 30
0.0
 11
431.715
 21
73.4632
 31
0.0
  0
LINE
  8
0
 62
     250
 10
431.715
 20
73.4632
 30
0.0
 11
430.428
 21
74.2379
 31
0.0
  0
LINE
  8
0
 62
     250
 10
430.428
 20
74.2379
 30
0.0
 11
426.709
 21
76.7828
 31
0.0
  0
LINE
  8
0
 62
     250
 10
426.709
 20
76.7828
 30
0.0
 11
421.957
 21
80.4679
 31
0.0
  0
LINE
  8
0
 62
     250
 10
421.957
 20
80.4679
 30
0.0
 11
417.548
 21
84.34
 31
0.0
  0
LINE
  8
0
 62
     250
 10
417.548
 20
84.34
 30
0.0
 11
413.565
 21
88.2234
 31
0.0
  0
LINE
  8
0
 62
     250
 10
413.565
 20
88.2234
 30
0.0
 11
410.09
 21
91.9399
 31
0.0
  0
LINE
  8
0
 62
     250
 10
410.09
 20
91.9399
 30
0.0
 11
407.208
 21
95.3149
 31
0.0
  0
LINE
  8
0
 62
     250
 10
407.208
 20
95.3149
 30
0.0
 11
405.003
 21
98.1685
 31
0.0
  0
LINE
  8
0
 62
     250
 10
405.003
 20
98.1685
 30
0.0
 11
403.888
 21
99.7673
 31
0.0
  0
LINE
  8
0
 62
     250
 10
403.888
 20
99.7673
 30
0.0
 11
403.56
 21
100.324
 31
0.0
  0
LINE
  8
0
 62
     250
 10
403.56
 20
100.324
 30
0.0
 11
402.985
 21
101.293
 31
0.0
  0
LINE
  8
0
 62
     250
 10
402.985
 20
101.293
 30
0.0
 11
401.616
 21
104.408
 31
0.0
  0
LINE
  8
0
 62
     250
 10
401.616
 20
104.408
 30
0.0
 11
400.039
 21
109.488
 31
0.0
  0
LINE
  8
0
 62
     250
 10
400.039
 20
109.488
 30
0.0
 11
398.978
 21
115.303
 31
0.0
  0
LINE
  8
0
 62
     250
 10
398.978
 20
115.303
 30
0.0
 11
398.589
 21
120.019
 31
0.0
  0
LINE
  8
0
 62
     250
 10
398.589
 20
120.019
 30
0.0
 11
398.589
 21
121.59
 31
0.0
  0
LINE
  8
0
 62
     250
 10
398.589
 20
121.59
 30
0.0
 11
398.589
 21
122.658
 31
0.0
  0
LINE
  8
0
 62
     250
 10
398.589
 20
122.658
 30
0.0
 11
398.769
 21
125.858
 31
0.0
  0
LINE
  8
0
 62
     250
 10
398.769
 20
125.858
 30
0.0
 11
399.263
 21
131.982
 31
0.0
  0
LINE
  8
0
 62
     250
 10
399.263
 20
131.982
 30
0.0
 11
400.008
 21
139.595
 31
0.0
  0
LINE
  8
0
 62
     250
 10
400.008
 20
139.595
 30
0.0
 11
400.935
 21
148.335
 31
0.0
  0
LINE
  8
0
 62
     250
 10
400.935
 20
148.335
 30
0.0
 11
401.987
 21
157.836
 31
0.0
  0
LINE
  8
0
 62
     250
 10
401.987
 20
157.836
 30
0.0
 11
403.094
 21
167.732
 31
0.0
  0
LINE
  8
0
 62
     250
 10
403.094
 20
167.732
 30
0.0
 11
404.188
 21
177.66
 31
0.0
  0
LINE
  8
0
 62
     250
 10
404.188
 20
177.66
 30
0.0
 11
404.964
 21
184.853
 31
0.0
  0
LINE
  8
0
 62
     250
 10
404.964
 20
184.853
 30
0.0
 11
405.215
 21
187.251
 31
0.0
  0
LINE
  8
0
 62
     250
 10
405.215
 20
187.251
 30
0.0
 11
405.345
 21
188.514
 31
0.0
  0
LINE
  8
0
 62
     250
 10
405.345
 20
188.514
 30
0.0
 11
405.702
 21
192.309
 31
0.0
  0
LINE
  8
0
 62
     250
 10
405.702
 20
192.309
 30
0.0
 11
406.192
 21
198.098
 31
0.0
  0
LINE
  8
0
 62
     250
 10
406.192
 20
198.098
 30
0.0
 11
406.686
 21
204.498
 31
0.0
  0
LINE
  8
0
 62
     250
 10
406.686
 20
204.498
 30
0.0
 11
407.18
 21
211.388
 31
0.0
  0
LINE
  8
0
 62
     250
 10
407.18
 20
211.388
 30
0.0
 11
407.666
 21
218.645
 31
0.0
  0
LINE
  8
0
 62
     250
 10
407.666
 20
218.645
 30
0.0
 11
408.143
 21
226.15
 31
0.0
  0
LINE
  8
0
 62
     250
 10
408.143
 20
226.15
 30
0.0
 11
408.605
 21
233.782
 31
0.0
  0
LINE
  8
0
 62
     250
 10
408.605
 20
233.782
 30
0.0
 11
409.056
 21
241.419
 31
0.0
  0
LINE
  8
0
 62
     250
 10
409.056
 20
241.419
 30
0.0
 11
409.487
 21
248.938
 31
0.0
  0
LINE
  8
0
 62
     250
 10
409.487
 20
248.938
 30
0.0
 11
409.893
 21
256.221
 31
0.0
  0
LINE
  8
0
 62
     250
 10
409.893
 20
256.221
 30
0.0
 11
410.273
 21
263.148
 31
0.0
  0
LINE
  8
0
 62
     250
 10
410.273
 20
263.148
 30
0.0
 11
410.623
 21
269.594
 31
0.0
  0
LINE
  8
0
 62
     250
 10
410.623
 20
269.594
 30
0.0
 11
410.94
 21
275.441
 31
0.0
  0
LINE
  8
0
 62
     250
 10
410.94
 20
275.441
 30
0.0
 11
411.219
 21
280.566
 31
0.0
  0
LINE
  8
0
 62
     250
 10
411.219
 20
280.566
 30
0.0
 11
411.459
 21
284.849
 31
0.0
  0
LINE
  8
0
 62
     250
 10
411.459
 20
284.849
 30
0.0
 11
411.603
 21
287.339
 31
0.0
  0
LINE
  8
0
 62
     250
 10
411.603
 20
287.339
 30
0.0
 11
411.656
 21
288.168
 31
0.0
  0
LINE
  8
0
 62
     250
 10
411.656
 20
288.168
 30
0.0
 11
411.745
 21
289.607
 31
0.0
  0
LINE
  8
0
 62
     250
 10
411.745
 20
289.607
 30
0.0
 11
412.108
 21
293.916
 31
0.0
  0
LINE
  8
0
 62
     250
 10
412.108
 20
293.916
 30
0.0
 11
412.732
 21
299.846
 31
0.0
  0
LINE
  8
0
 62
     250
 10
412.732
 20
299.846
 30
0.0
 11
413.456
 21
305.778
 31
0.0
  0
LINE
  8
0
 62
     250
 10
413.456
 20
305.778
 30
0.0
 11
414.211
 21
311.533
 31
0.0
  0
LINE
  8
0
 62
     250
 10
414.211
 20
311.533
 30
0.0
 11
414.916
 21
316.928
 31
0.0
  0
LINE
  8
0
 62
     250
 10
414.916
 20
316.928
 30
0.0
 11
415.512
 21
321.784
 31
0.0
  0
LINE
  8
0
 62
     250
 10
415.512
 20
321.784
 30
0.0
 11
415.918
 21
325.923
 31
0.0
  0
LINE
  8
0
 62
     250
 10
415.918
 20
325.923
 30
0.0
 11
416.073
 21
328.351
 31
0.0
  0
LINE
  8
0
 62
     250
 10
416.073
 20
328.351
 30
0.0
 11
416.073
 21
329.16
 31
0.0
  0
LINE
  8
0
 62
     250
 10
995.676
 20
22.8534
 30
0.0
 11
997.507
 21
22.7073
 31
0.0
  0
LINE
  8
0
 62
     250
 10
997.507
 20
22.7073
 30
0.0
 11
1003.01
 21
22.2856
 31
0.0
  0
LINE
  8
0
 62
     250
 10
1003.01
 20
22.2856
 30
0.0
 11
1010.36
 21
21.7606
 31
0.0
  0
LINE
  8
0
 62
     250
 10
1010.36
 20
21.7606
 30
0.0
 11
1017.62
 21
21.2893
 31
0.0
  0
LINE
  8
0
 62
     250
 10
1017.62
 20
21.2893
 30
0.0
 11
1024.67
 21
20.88
 31
0.0
  0
LINE
  8
0
 62
     250
 10
1024.67
 20
20.88
 30
0.0
 11
1031.39
 21
20.5438
 31
0.0
  0
LINE
  8
0
 62
     250
 10
1031.39
 20
20.5438
 30
0.0
 11
1037.67
 21
20.2916
 31
0.0
  0
LINE
  8
0
 62
     250
 10
1037.67
 20
20.2916
 30
0.0
 11
1043.4
 21
20.1331
 31
0.0
  0
LINE
  8
0
 62
     250
 10
1043.4
 20
20.1331
 30
0.0
 11
1047.2
 21
20.0767
 31
0.0
  0
LINE
  8
0
 62
     250
 10
1047.2
 20
20.0767
 30
0.0
 11
1048.47
 21
20.0767
 31
0.0
  0
LINE
  8
0
 62
     250
 10
1048.47
 20
20.0767
 30
0.0
 11
1049.76
 21
20.0767
 31
0.0
  0
LINE
  8
0
 62
     250
 10
1049.76
 20
20.0767
 30
0.0
 11
1053.63
 21
20.1607
 31
0.0
  0
LINE
  8
0
 62
     250
 10
1053.63
 20
20.1607
 30
0.0
 11
1059.67
 21
20.4074
 31
0.0
  0
LINE
  8
0
 62
     250
 10
1059.67
 20
20.4074
 30
0.0
 11
1066.51
 21
20.8098
 31
0.0
  0
LINE
  8
0
 62
     250
 10
1066.51
 20
20.8098
 30
0.0
 11
1074.07
 21
21.3582
 31
0.0
  0
LINE
  8
0
 62
     250
 10
1074.07
 20
21.3582
 30
0.0
 11
1082.26
 21
22.0445
 31
0.0
  0
LINE
  8
0
 62
     250
 10
1082.26
 20
22.0445
 30
0.0
 11
1091.01
 21
22.863
 31
0.0
  0
LINE
  8
0
 62
     250
 10
1091.01
 20
22.863
 30
0.0
 11
1100.24
 21
23.8042
 31
0.0
  0
LINE
  8
0
 62
     250
 10
1100.24
 20
23.8042
 30
0.0
 11
1109.86
 21
24.8598
 31
0.0
  0
LINE
  8
0
 62
     250
 10
1109.86
 20
24.8598
 30
0.0
 11
1119.79
 21
26.0242
 31
0.0
  0
LINE
  8
0
 62
     250
 10
1119.79
 20
26.0242
 30
0.0
 11
1129.96
 21
27.2866
 31
0.0
  0
LINE
  8
0
 62
     250
 10
1129.96
 20
27.2866
 30
0.0
 11
1140.28
 21
28.6411
 31
0.0
  0
LINE
  8
0
 62
     250
 10
1140.28
 20
28.6411
 30
0.0
 11
1150.66
 21
30.0784
 31
0.0
  0
LINE
  8
0
 62
     250
 10
1150.66
 20
30.0784
 30
0.0
 11
1161.03
 21
31.5902
 31
0.0
  0
LINE
  8
0
 62
     250
 10
1161.03
 20
31.5902
 30
0.0
 11
1171.31
 21
33.1707
 31
0.0
  0
LINE
  8
0
 62
     250
 10
1171.31
 20
33.1707
 30
0.0
 11
1181.42
 21
34.8106
 31
0.0
  0
LINE
  8
0
 62
     250
 10
1181.42
 20
34.8106
 30
0.0
 11
1188.81
 21
36.0673
 31
0.0
  0
LINE
  8
0
 62
     250
 10
1188.81
 20
36.0673
 30
0.0
 11
1191.27
 21
36.5016
 31
0.0
  0
LINE
  8
0
 62
     250
 10
1191.27
 20
36.5016
 30
0.0
 11
1193.76
 21
36.9425
 31
0.0
  0
LINE
  8
0
 62
     250
 10
1193.76
 20
36.9425
 30
0.0
 11
1201.23
 21
38.3438
 31
0.0
  0
LINE
  8
0
 62
     250
 10
1201.23
 20
38.3438
 30
0.0
 11
1211.63
 21
40.4096
 31
0.0
  0
LINE
  8
0
 62
     250
 10
1211.63
 20
40.4096
 30
0.0
 11
1222.32
 21
42.6586
 31
0.0
  0
LINE
  8
0
 62
     250
 10
1222.32
 20
42.6586
 30
0.0
 11
1233.17
 21
45.0465
 31
0.0
  0
LINE
  8
0
 62
     250
 10
1233.17
 20
45.0465
 30
0.0
 11
1244.02
 21
47.5354
 31
0.0
  0
LINE
  8
0
 62
     250
 10
1244.02
 20
47.5354
 30
0.0
 11
1254.74
 21
50.0793
 31
0.0
  0
LINE
  8
0
 62
     250
 10
1254.74
 20
50.0793
 30
0.0
 11
1265.2
 21
52.6369
 31
0.0
  0
LINE
  8
0
 62
     250
 10
1265.2
 20
52.6369
 30
0.0
 11
1275.23
 21
55.167
 31
0.0
  0
LINE
  8
0
 62
     250
 10
1275.23
 20
55.167
 30
0.0
 11
1284.71
 21
57.627
 31
0.0
  0
LINE
  8
0
 62
     250
 10
1284.71
 20
57.627
 30
0.0
 11
1293.5
 21
59.975
 31
0.0
  0
LINE
  8
0
 62
     250
 10
1293.5
 20
59.975
 30
0.0
 11
1301.44
 21
62.169
 31
0.0
  0
LINE
  8
0
 62
     250
 10
1301.44
 20
62.169
 30
0.0
 11
1308.4
 21
64.1671
 31
0.0
  0
LINE
  8
0
 62
     250
 10
1308.4
 20
64.1671
 30
0.0
 11
1314.23
 21
65.9268
 31
0.0
  0
LINE
  8
0
 62
     250
 10
1314.23
 20
65.9268
 30
0.0
 11
1318.8
 21
67.4053
 31
0.0
  0
LINE
  8
0
 62
     250
 10
1318.8
 20
67.4053
 30
0.0
 11
1321.97
 21
68.5602
 31
0.0
  0
LINE
  8
0
 62
     250
 10
1321.97
 20
68.5602
 30
0.0
 11
1323.23
 21
69.0866
 31
0.0
  0
LINE
  8
0
 62
     250
 10
1323.23
 20
69.0866
 30
0.0
 11
1323.58
 21
69.3512
 31
0.0
  0
LINE
  8
0
 62
     250
 10
1323.58
 20
69.3512
 30
0.0
 11
1324.01
 21
69.675
 31
0.0
  0
LINE
  8
0
 62
     250
 10
1324.01
 20
69.675
 30
0.0
 11
1325.21
 21
70.7842
 31
0.0
  0
LINE
  8
0
 62
     250
 10
1325.21
 20
70.7842
 30
0.0
 11
1326.86
 21
72.7258
 31
0.0
  0
LINE
  8
0
 62
     250
 10
1326.86
 20
72.7258
 30
0.0
 11
1328.5
 21
75.2147
 31
0.0
  0
LINE
  8
0
 62
     250
 10
1328.5
 20
75.2147
 30
0.0
 11
1330.07
 21
78.2877
 31
0.0
  0
LINE
  8
0
 62
     250
 10
1330.07
 20
78.2877
 30
0.0
 11
1331.52
 21
81.981
 31
0.0
  0
LINE
  8
0
 62
     250
 10
1331.52
 20
81.981
 30
0.0
 11
1332.79
 21
86.3342
 31
0.0
  0
LINE
  8
0
 62
     250
 10
1332.79
 20
86.3342
 30
0.0
 11
1333.85
 21
91.3818
 31
0.0
  0
LINE
  8
0
 62
     250
 10
1333.85
 20
91.3818
 30
0.0
 11
1334.48
 21
95.7118
 31
0.0
  0
LINE
  8
0
 62
     250
 10
1334.48
 20
95.7118
 30
0.0
 11
1334.63
 21
97.1614
 31
0.0
  0
LINE
  8
0
 62
     250
 10
1334.63
 20
97.1614
 30
0.0
 11
1334.72
 21
98.1287
 31
0.0
  0
LINE
  8
0
 62
     250
 10
1334.72
 20
98.1287
 30
0.0
 11
1334.99
 21
101.035
 31
0.0
  0
LINE
  8
0
 62
     250
 10
1334.99
 20
101.035
 30
0.0
 11
1335.43
 21
106.473
 31
0.0
  0
LINE
  8
0
 62
     250
 10
1335.43
 20
106.473
 30
0.0
 11
1335.95
 21
113.44
 31
0.0
  0
LINE
  8
0
 62
     250
 10
1335.95
 20
113.44
 30
0.0
 11
1336.53
 21
121.906
 31
0.0
  0
LINE
  8
0
 62
     250
 10
1336.53
 20
121.906
 30
0.0
 11
1337.15
 21
131.836
 31
0.0
  0
LINE
  8
0
 62
     250
 10
1337.15
 20
131.836
 30
0.0
 11
1337.8
 21
143.195
 31
0.0
  0
LINE
  8
0
 62
     250
 10
1337.8
 20
143.195
 30
0.0
 11
1338.46
 21
155.951
 31
0.0
  0
LINE
  8
0
 62
     250
 10
1338.46
 20
155.951
 30
0.0
 11
1339.11
 21
170.071
 31
0.0
  0
LINE
  8
0
 62
     250
 10
1339.11
 20
170.071
 30
0.0
 11
1339.74
 21
185.52
 31
0.0
  0
LINE
  8
0
 62
     250
 10
1339.74
 20
185.52
 30
0.0
 11
1340.35
 21
202.266
 31
0.0
  0
LINE
  8
0
 62
     250
 10
1340.35
 20
202.266
 30
0.0
 11
1340.89
 21
220.275
 31
0.0
  0
LINE
  8
0
 62
     250
 10
1340.89
 20
220.275
 30
0.0
 11
1341.38
 21
239.513
 31
0.0
  0
LINE
  8
0
 62
     250
 10
1341.38
 20
239.513
 30
0.0
 11
1341.78
 21
259.946
 31
0.0
  0
LINE
  8
0
 62
     250
 10
1341.78
 20
259.946
 30
0.0
 11
1342.09
 21
281.543
 31
0.0
  0
LINE
  8
0
 62
     250
 10
1342.09
 20
281.543
 30
0.0
 11
1342.29
 21
304.268
 31
0.0
  0
LINE
  8
0
 62
     250
 10
1342.29
 20
304.268
 30
0.0
 11
1342.35
 21
322.133
 31
0.0
  0
LINE
  8
0
 62
     250
 10
1342.35
 20
322.133
 30
0.0
 11
1342.35
 21
328.088
 31
0.0
  0
LINE
  8
0
 62
     250
 10
1342.35
 20
328.088
 30
0.0
 11
1342.35
 21
330.233
 31
0.0
  0
LINE
  8
0
 62
     250
 10
1342.35
 20
330.233
 30
0.0
 11
1342.35
 21
336.189
 31
0.0
  0
LINE
  8
0
 62
     250
 10
1342.35
 20
336.189
 30
0.0
 11
1342.29
 21
354.055
 31
0.0
  0
LINE
  8
0
 62
     250
 10
1342.29
 20
354.055
 30
0.0
 11
1342.09
 21
376.781
 31
0.0
  0
LINE
  8
0
 62
     250
 10
1342.09
 20
376.781
 30
0.0
 11
1341.78
 21
398.374
 31
0.0
  0
LINE
  8
0
 62
     250
 10
1341.78
 20
398.374
 30
0.0
 11
1341.38
 21
418.811
 31
0.0
  0
LINE
  8
0
 62
     250
 10
1341.38
 20
418.811
 30
0.0
 11
1340.89
 21
438.048
 31
0.0
  0
LINE
  8
0
 62
     250
 10
1340.89
 20
438.048
 30
0.0
 11
1340.35
 21
456.057
 31
0.0
  0
LINE
  8
0
 62
     250
 10
1340.35
 20
456.057
 30
0.0
 11
1339.74
 21
472.803
 31
0.0
  0
LINE
  8
0
 62
     250
 10
1339.74
 20
472.803
 30
0.0
 11
1339.11
 21
488.252
 31
0.0
  0
LINE
  8
0
 62
     250
 10
1339.11
 20
488.252
 30
0.0
 11
1338.46
 21
502.373
 31
0.0
  0
LINE
  8
0
 62
     250
 10
1338.46
 20
502.373
 30
0.0
 11
1337.8
 21
515.126
 31
0.0
  0
LINE
  8
0
 62
     250
 10
1337.8
 20
515.126
 30
0.0
 11
1337.15
 21
526.489
 31
0.0
  0
LINE
  8
0
 62
     250
 10
1337.15
 20
526.489
 30
0.0
 11
1336.53
 21
536.416
 31
0.0
  0
LINE
  8
0
 62
     250
 10
1336.53
 20
536.416
 30
0.0
 11
1335.95
 21
544.883
 31
0.0
  0
LINE
  8
0
 62
     250
 10
1335.95
 20
544.883
 30
0.0
 11
1335.43
 21
551.85
 31
0.0
  0
LINE
  8
0
 62
     250
 10
1335.43
 20
551.85
 30
0.0
 11
1334.99
 21
557.287
 31
0.0
  0
LINE
  8
0
 62
     250
 10
1334.99
 20
557.287
 30
0.0
 11
1334.72
 21
560.193
 31
0.0
  0
LINE
  8
0
 62
     250
 10
1334.72
 20
560.193
 30
0.0
 11
1334.63
 21
561.16
 31
0.0
  0
LINE
  8
0
 62
     250
 10
1334.63
 20
561.16
 30
0.0
 11
1334.48
 21
562.61
 31
0.0
  0
LINE
  8
0
 62
     250
 10
1334.48
 20
562.61
 30
0.0
 11
1333.85
 21
566.939
 31
0.0
  0
LINE
  8
0
 62
     250
 10
1333.85
 20
566.939
 30
0.0
 11
1332.79
 21
571.987
 31
0.0
  0
LINE
  8
0
 62
     250
 10
1332.79
 20
571.987
 30
0.0
 11
1331.52
 21
576.34
 31
0.0
  0
LINE
  8
0
 62
     250
 10
1331.52
 20
576.34
 30
0.0
 11
1330.07
 21
580.034
 31
0.0
  0
LINE
  8
0
 62
     250
 10
1330.07
 20
580.034
 30
0.0
 11
1328.5
 21
583.106
 31
0.0
  0
LINE
  8
0
 62
     250
 10
1328.5
 20
583.106
 30
0.0
 11
1326.86
 21
585.597
 31
0.0
  0
LINE
  8
0
 62
     250
 10
1326.86
 20
585.597
 30
0.0
 11
1325.21
 21
587.537
 31
0.0
  0
LINE
  8
0
 62
     250
 10
1325.21
 20
587.537
 30
0.0
 11
1324.01
 21
588.649
 31
0.0
  0
LINE
  8
0
 62
     250
 10
1324.01
 20
588.649
 30
0.0
 11
1323.58
 21
588.97
 31
0.0
  0
LINE
  8
0
 62
     250
 10
1323.58
 20
588.97
 30
0.0
 11
1323.23
 21
589.234
 31
0.0
  0
LINE
  8
0
 62
     250
 10
1323.23
 20
589.234
 30
0.0
 11
1321.97
 21
589.763
 31
0.0
  0
LINE
  8
0
 62
     250
 10
1321.97
 20
589.763
 30
0.0
 11
1318.8
 21
590.917
 31
0.0
  0
LINE
  8
0
 62
     250
 10
1318.8
 20
590.917
 30
0.0
 11
1314.23
 21
592.395
 31
0.0
  0
LINE
  8
0
 62
     250
 10
1314.23
 20
592.395
 30
0.0
 11
1308.4
 21
594.155
 31
0.0
  0
LINE
  8
0
 62
     250
 10
1308.4
 20
594.155
 30
0.0
 11
1301.44
 21
596.152
 31
0.0
  0
LINE
  8
0
 62
     250
 10
1301.44
 20
596.152
 30
0.0
 11
1293.5
 21
598.346
 31
0.0
  0
LINE
  8
0
 62
     250
 10
1293.5
 20
598.346
 30
0.0
 11
1284.71
 21
600.696
 31
0.0
  0
LINE
  8
0
 62
     250
 10
1284.71
 20
600.696
 30
0.0
 11
1275.23
 21
603.155
 31
0.0
  0
LINE
  8
0
 62
     250
 10
1275.23
 20
603.155
 30
0.0
 11
1265.2
 21
605.684
 31
0.0
  0
LINE
  8
0
 62
     250
 10
1265.2
 20
605.684
 30
0.0
 11
1254.74
 21
608.245
 31
0.0
  0
LINE
  8
0
 62
     250
 10
1254.74
 20
608.245
 30
0.0
 11
1244.02
 21
610.789
 31
0.0
  0
LINE
  8
0
 62
     250
 10
1244.02
 20
610.789
 30
0.0
 11
1233.17
 21
613.276
 31
0.0
  0
LINE
  8
0
 62
     250
 10
1233.17
 20
613.276
 30
0.0
 11
1222.32
 21
615.664
 31
0.0
  0
LINE
  8
0
 62
     250
 10
1222.32
 20
615.664
 30
0.0
 11
1211.63
 21
617.911
 31
0.0
  0
LINE
  8
0
 62
     250
 10
1211.63
 20
617.911
 30
0.0
 11
1201.23
 21
619.979
 31
0.0
  0
LINE
  8
0
 62
     250
 10
1201.23
 20
619.979
 30
0.0
 11
1193.76
 21
621.379
 31
0.0
  0
LINE
  8
0
 62
     250
 10
1193.76
 20
621.379
 30
0.0
 11
1191.27
 21
621.82
 31
0.0
  0
LINE
  8
0
 62
     250
 10
1191.27
 20
621.82
 30
0.0
 11
1188.81
 21
622.254
 31
0.0
  0
LINE
  8
0
 62
     250
 10
1188.81
 20
622.254
 30
0.0
 11
1181.42
 21
623.51
 31
0.0
  0
LINE
  8
0
 62
     250
 10
1181.42
 20
623.51
 30
0.0
 11
1171.31
 21
625.15
 31
0.0
  0
LINE
  8
0
 62
     250
 10
1171.31
 20
625.15
 30
0.0
 11
1161.03
 21
626.731
 31
0.0
  0
LINE
  8
0
 62
     250
 10
1161.03
 20
626.731
 30
0.0
 11
1150.66
 21
628.244
 31
0.0
  0
LINE
  8
0
 62
     250
 10
1150.66
 20
628.244
 30
0.0
 11
1140.28
 21
629.68
 31
0.0
  0
LINE
  8
0
 62
     250
 10
1140.28
 20
629.68
 30
0.0
 11
1129.96
 21
631.035
 31
0.0
  0
LINE
  8
0
 62
     250
 10
1129.96
 20
631.035
 30
0.0
 11
1119.79
 21
632.298
 31
0.0
  0
LINE
  8
0
 62
     250
 10
1119.79
 20
632.298
 30
0.0
 11
1109.86
 21
633.462
 31
0.0
  0
LINE
  8
0
 62
     250
 10
1109.86
 20
633.462
 30
0.0
 11
1100.24
 21
634.517
 31
0.0
  0
LINE
  8
0
 62
     250
 10
1100.24
 20
634.517
 30
0.0
 11
1091.01
 21
635.459
 31
0.0
  0
LINE
  8
0
 62
     250
 10
1091.01
 20
635.459
 30
0.0
 11
1082.26
 21
636.277
 31
0.0
  0
LINE
  8
0
 62
     250
 10
1082.26
 20
636.277
 30
0.0
 11
1074.07
 21
636.965
 31
0.0
  0
LINE
  8
0
 62
     250
 10
1074.07
 20
636.965
 30
0.0
 11
1066.51
 21
637.512
 31
0.0
  0
LINE
  8
0
 62
     250
 10
1066.51
 20
637.512
 30
0.0
 11
1059.67
 21
637.914
 31
0.0
  0
LINE
  8
0
 62
     250
 10
1059.67
 20
637.914
 30
0.0
 11
1053.63
 21
638.161
 31
0.0
  0
LINE
  8
0
 62
     250
 10
1053.63
 20
638.161
 30
0.0
 11
1049.76
 21
638.246
 31
0.0
  0
LINE
  8
0
 62
     250
 10
1049.76
 20
638.246
 30
0.0
 11
1048.47
 21
638.246
 31
0.0
  0
LINE
  8
0
 62
     250
 10
1048.47
 20
638.246
 30
0.0
 11
1047.19
 21
638.246
 31
0.0
  0
LINE
  8
0
 62
     250
 10
1047.19
 20
638.246
 30
0.0
 11
1043.35
 21
638.189
 31
0.0
  0
LINE
  8
0
 62
     250
 10
1043.35
 20
638.189
 30
0.0
 11
1037.55
 21
638.027
 31
0.0
  0
LINE
  8
0
 62
     250
 10
1037.55
 20
638.027
 30
0.0
 11
1031.19
 21
637.769
 31
0.0
  0
LINE
  8
0
 62
     250
 10
1031.19
 20
637.769
 30
0.0
 11
1024.39
 21
637.427
 31
0.0
  0
LINE
  8
0
 62
     250
 10
1024.39
 20
637.427
 30
0.0
 11
1017.27
 21
637.011
 31
0.0
  0
LINE
  8
0
 62
     250
 10
1017.27
 20
637.011
 30
0.0
 11
1009.93
 21
636.531
 31
0.0
  0
LINE
  8
0
 62
     250
 10
1009.93
 20
636.531
 30
0.0
 11
1002.5
 21
635.998
 31
0.0
  0
LINE
  8
0
 62
     250
 10
1002.5
 20
635.998
 30
0.0
 11
996.95
 21
635.572
 31
0.0
  0
LINE
  8
0
 62
     250
 10
996.95
 20
635.572
 30
0.0
 11
995.101
 21
635.42
 31
0.0
  0
LINE
  8
0
 62
     250
 10
444.034
 20
68.0819
 30
0.0
 11
443.382
 21
67.6328
 31
0.0
  0
LINE
  8
0
 62
     250
 10
443.382
 20
67.6328
 30
0.0
 11
441.283
 21
66.4905
 31
0.0
  0
LINE
  8
0
 62
     250
 10
441.283
 20
66.4905
 30
0.0
 11
437.998
 21
65.0946
 31
0.0
  0
LINE
  8
0
 62
     250
 10
437.998
 20
65.0946
 30
0.0
 11
434.259
 21
63.8888
 31
0.0
  0
LINE
  8
0
 62
     250
 10
434.259
 20
63.8888
 30
0.0
 11
430.153
 21
62.8618
 31
0.0
  0
LINE
  8
0
 62
     250
 10
430.153
 20
62.8618
 30
0.0
 11
425.76
 21
62.0088
 31
0.0
  0
LINE
  8
0
 62
     250
 10
425.76
 20
62.0088
 30
0.0
 11
421.174
 21
61.3212
 31
0.0
  0
LINE
  8
0
 62
     250
 10
421.174
 20
61.3212
 30
0.0
 11
416.472
 21
60.7907
 31
0.0
  0
LINE
  8
0
 62
     250
 10
416.472
 20
60.7907
 30
0.0
 11
412.923
 21
60.4862
 31
0.0
  0
LINE
  8
0
 62
     250
 10
412.923
 20
60.4862
 30
0.0
 11
411.741
 21
60.409
 31
0.0
  0
LINE
  8
0
 62
     250
 10
411.741
 20
60.409
 30
0.0
 11
410.905
 21
60.3553
 31
0.0
  0
LINE
  8
0
 62
     250
 10
410.905
 20
60.3553
 30
0.0
 11
408.393
 21
60.2601
 31
0.0
  0
LINE
  8
0
 62
     250
 10
408.393
 20
60.2601
 30
0.0
 11
404.745
 21
60.2396
 31
0.0
  0
LINE
  8
0
 62
     250
 10
404.745
 20
60.2396
 30
0.0
 11
400.748
 21
60.3596
 31
0.0
  0
LINE
  8
0
 62
     250
 10
400.748
 20
60.3596
 30
0.0
 11
396.36
 21
60.628
 31
0.0
  0
LINE
  8
0
 62
     250
 10
396.36
 20
60.628
 30
0.0
 11
391.534
 21
61.0581
 31
0.0
  0
LINE
  8
0
 62
     250
 10
391.534
 20
61.0581
 30
0.0
 11
386.228
 21
61.6589
 31
0.0
  0
LINE
  8
0
 62
     250
 10
386.228
 20
61.6589
 30
0.0
 11
380.393
 21
62.4431
 31
0.0
  0
LINE
  8
0
 62
     250
 10
380.393
 20
62.4431
 30
0.0
 11
373.99
 21
63.4189
 31
0.0
  0
LINE
  8
0
 62
     250
 10
373.99
 20
63.4189
 30
0.0
 11
366.974
 21
64.5982
 31
0.0
  0
LINE
  8
0
 62
     250
 10
366.974
 20
64.5982
 30
0.0
 11
359.297
 21
65.9917
 31
0.0
  0
LINE
  8
0
 62
     250
 10
359.297
 20
65.9917
 30
0.0
 11
350.918
 21
67.6106
 31
0.0
  0
LINE
  8
0
 62
     250
 10
350.918
 20
67.6106
 30
0.0
 11
341.789
 21
69.4641
 31
0.0
  0
LINE
  8
0
 62
     250
 10
341.789
 20
69.4641
 30
0.0
 11
331.869
 21
71.5641
 31
0.0
  0
LINE
  8
0
 62
     250
 10
331.869
 20
71.5641
 30
0.0
 11
321.112
 21
73.9207
 31
0.0
  0
LINE
  8
0
 62
     250
 10
321.112
 20
73.9207
 30
0.0
 11
309.473
 21
76.5447
 31
0.0
  0
LINE
  8
0
 62
     250
 10
309.473
 20
76.5447
 30
0.0
 11
300.047
 21
78.715
 31
0.0
  0
LINE
  8
0
 62
     250
 10
300.047
 20
78.715
 30
0.0
 11
296.908
 21
79.4466
 31
0.0
  0
LINE
  8
0
 62
     250
 10
296.908
 20
79.4466
 30
0.0
 11
293.706
 21
80.1949
 31
0.0
  0
LINE
  8
0
 62
     250
 10
293.706
 20
80.1949
 30
0.0
 11
284.107
 21
82.477
 31
0.0
  0
LINE
  8
0
 62
     250
 10
284.107
 20
82.477
 30
0.0
 11
271.804
 21
85.4714
 31
0.0
  0
LINE
  8
0
 62
     250
 10
271.804
 20
85.4714
 30
0.0
 11
260.017
 21
88.4192
 31
0.0
  0
LINE
  8
0
 62
     250
 10
260.017
 20
88.4192
 30
0.0
 11
248.765
 21
91.3102
 31
0.0
  0
LINE
  8
0
 62
     250
 10
248.765
 20
91.3102
 30
0.0
 11
238.066
 21
94.1366
 31
0.0
  0
LINE
  8
0
 62
     250
 10
238.066
 20
94.1366
 30
0.0
 11
227.937
 21
96.8886
 31
0.0
  0
LINE
  8
0
 62
     250
 10
227.937
 20
96.8886
 30
0.0
 11
218.401
 21
99.5535
 31
0.0
  0
LINE
  8
0
 62
     250
 10
218.401
 20
99.5535
 30
0.0
 11
209.473
 21
102.124
 31
0.0
  0
LINE
  8
0
 62
     250
 10
209.473
 20
102.124
 30
0.0
 11
201.172
 21
104.59
 31
0.0
  0
LINE
  8
0
 62
     250
 10
201.172
 20
104.59
 30
0.0
 11
193.518
 21
106.94
 31
0.0
  0
LINE
  8
0
 62
     250
 10
193.518
 20
106.94
 30
0.0
 11
186.527
 21
109.167
 31
0.0
  0
LINE
  8
0
 62
     250
 10
186.527
 20
109.167
 30
0.0
 11
180.221
 21
111.259
 31
0.0
  0
LINE
  8
0
 62
     250
 10
180.221
 20
111.259
 30
0.0
 11
174.617
 21
113.206
 31
0.0
  0
LINE
  8
0
 62
     250
 10
174.617
 20
113.206
 30
0.0
 11
169.733
 21
114.999
 31
0.0
  0
LINE
  8
0
 62
     250
 10
169.733
 20
114.999
 30
0.0
 11
165.588
 21
116.628
 31
0.0
  0
LINE
  8
0
 62
     250
 10
165.588
 20
116.628
 30
0.0
 11
163.04
 21
117.701
 31
0.0
  0
LINE
  8
0
 62
     250
 10
163.04
 20
117.701
 30
0.0
 11
162.202
 21
118.081
 31
0.0
  0
LINE
  8
0
 62
     250
 10
162.202
 20
118.081
 30
0.0
 11
160.798
 21
118.719
 31
0.0
  0
LINE
  8
0
 62
     250
 10
160.798
 20
118.719
 30
0.0
 11
156.578
 21
120.61
 31
0.0
  0
LINE
  8
0
 62
     250
 10
156.578
 20
120.61
 30
0.0
 11
151.686
 21
122.877
 31
0.0
  0
LINE
  8
0
 62
     250
 10
151.686
 20
122.877
 30
0.0
 11
147.479
 21
125.09
 31
0.0
  0
LINE
  8
0
 62
     250
 10
147.479
 20
125.09
 30
0.0
 11
143.914
 21
127.462
 31
0.0
  0
LINE
  8
0
 62
     250
 10
143.914
 20
127.462
 30
0.0
 11
140.943
 21
130.2
 31
0.0
  0
LINE
  8
0
 62
     250
 10
140.943
 20
130.2
 30
0.0
 11
138.522
 21
133.515
 31
0.0
  0
LINE
  8
0
 62
     250
 10
138.522
 20
133.515
 30
0.0
 11
136.606
 21
137.619
 31
0.0
  0
LINE
  8
0
 62
     250
 10
136.606
 20
137.619
 30
0.0
 11
135.432
 21
141.427
 31
0.0
  0
LINE
  8
0
 62
     250
 10
135.432
 20
141.427
 30
0.0
 11
135.15
 21
142.719
 31
0.0
  0
LINE
  8
0
 62
     250
 10
135.15
 20
142.719
 30
0.0
 11
134.822
 21
144.219
 31
0.0
  0
LINE
  8
0
 62
     250
 10
134.822
 20
144.219
 30
0.0
 11
134.08
 21
148.767
 31
0.0
  0
LINE
  8
0
 62
     250
 10
134.08
 20
148.767
 30
0.0
 11
133.321
 21
155.615
 31
0.0
  0
LINE
  8
0
 62
     250
 10
133.321
 20
155.615
 30
0.0
 11
132.821
 21
163.329
 31
0.0
  0
LINE
  8
0
 62
     250
 10
132.821
 20
163.329
 30
0.0
 11
132.527
 21
171.976
 31
0.0
  0
LINE
  8
0
 62
     250
 10
132.527
 20
171.976
 30
0.0
 11
132.389
 21
181.62
 31
0.0
  0
LINE
  8
0
 62
     250
 10
132.389
 20
181.62
 30
0.0
 11
132.355
 21
192.326
 31
0.0
  0
LINE
  8
0
 62
     250
 10
132.355
 20
192.326
 30
0.0
 11
132.372
 21
204.162
 31
0.0
  0
LINE
  8
0
 62
     250
 10
132.372
 20
204.162
 30
0.0
 11
132.389
 21
213.934
 31
0.0
  0
LINE
  8
0
 62
     250
 10
132.389
 20
213.934
 30
0.0
 11
132.389
 21
217.19
 31
0.0
  0
LINE
  8
0
 62
     250
 10
132.389
 20
217.19
 30
0.0
 11
132.389
 21
218.94
 31
0.0
  0
LINE
  8
0
 62
     250
 10
132.389
 20
218.94
 30
0.0
 11
132.45
 21
224.187
 31
0.0
  0
LINE
  8
0
 62
     250
 10
132.45
 20
224.187
 30
0.0
 11
132.626
 21
231.487
 31
0.0
  0
LINE
  8
0
 62
     250
 10
132.626
 20
231.487
 30
0.0
 11
132.898
 21
239.021
 31
0.0
  0
LINE
  8
0
 62
     250
 10
132.898
 20
239.021
 30
0.0
 11
133.251
 21
246.723
 31
0.0
  0
LINE
  8
0
 62
     250
 10
133.251
 20
246.723
 30
0.0
 11
133.67
 21
254.528
 31
0.0
  0
LINE
  8
0
 62
     250
 10
133.67
 20
254.528
 30
0.0
 11
134.136
 21
262.368
 31
0.0
  0
LINE
  8
0
 62
     250
 10
134.136
 20
262.368
 30
0.0
 11
134.634
 21
270.177
 31
0.0
  0
LINE
  8
0
 62
     250
 10
134.634
 20
270.177
 30
0.0
 11
135.15
 21
277.888
 31
0.0
  0
LINE
  8
0
 62
     250
 10
135.15
 20
277.888
 30
0.0
 11
135.664
 21
285.436
 31
0.0
  0
LINE
  8
0
 62
     250
 10
135.664
 20
285.436
 30
0.0
 11
136.163
 21
292.753
 31
0.0
  0
LINE
  8
0
 62
     250
 10
136.163
 20
292.753
 30
0.0
 11
136.628
 21
299.773
 31
0.0
  0
LINE
  8
0
 62
     250
 10
136.628
 20
299.773
 30
0.0
 11
137.047
 21
306.43
 31
0.0
  0
LINE
  8
0
 62
     250
 10
137.047
 20
306.43
 30
0.0
 11
137.4
 21
312.656
 31
0.0
  0
LINE
  8
0
 62
     250
 10
137.4
 20
312.656
 30
0.0
 11
137.672
 21
318.385
 31
0.0
  0
LINE
  8
0
 62
     250
 10
137.672
 20
318.385
 30
0.0
 11
137.848
 21
323.551
 31
0.0
  0
LINE
  8
0
 62
     250
 10
137.848
 20
323.551
 30
0.0
 11
137.91
 21
326.953
 31
0.0
  0
LINE
  8
0
 62
     250
 10
137.91
 20
326.953
 30
0.0
 11
137.91
 21
328.088
 31
0.0
  0
LINE
  8
0
 62
     250
 10
137.91
 20
328.088
 30
0.0
 11
137.91
 21
330.233
 31
0.0
  0
LINE
  8
0
 62
     250
 10
137.91
 20
330.233
 30
0.0
 11
137.91
 21
331.369
 31
0.0
  0
LINE
  8
0
 62
     250
 10
137.91
 20
331.369
 30
0.0
 11
137.848
 21
334.771
 31
0.0
  0
LINE
  8
0
 62
     250
 10
137.848
 20
334.771
 30
0.0
 11
137.672
 21
339.937
 31
0.0
  0
LINE
  8
0
 62
     250
 10
137.672
 20
339.937
 30
0.0
 11
137.4
 21
345.666
 31
0.0
  0
LINE
  8
0
 62
     250
 10
137.4
 20
345.666
 30
0.0
 11
137.047
 21
351.892
 31
0.0
  0
LINE
  8
0
 62
     250
 10
137.047
 20
351.892
 30
0.0
 11
136.628
 21
358.549
 31
0.0
  0
LINE
  8
0
 62
     250
 10
136.628
 20
358.549
 30
0.0
 11
136.163
 21
365.57
 31
0.0
  0
LINE
  8
0
 62
     250
 10
136.163
 20
365.57
 30
0.0
 11
135.664
 21
372.886
 31
0.0
  0
LINE
  8
0
 62
     250
 10
135.664
 20
372.886
 30
0.0
 11
135.15
 21
380.432
 31
0.0
  0
LINE
  8
0
 62
     250
 10
135.15
 20
380.432
 30
0.0
 11
134.634
 21
388.144
 31
0.0
  0
LINE
  8
0
 62
     250
 10
134.634
 20
388.144
 30
0.0
 11
134.136
 21
395.954
 31
0.0
  0
LINE
  8
0
 62
     250
 10
134.136
 20
395.954
 30
0.0
 11
133.67
 21
403.793
 31
0.0
  0
LINE
  8
0
 62
     250
 10
133.67
 20
403.793
 30
0.0
 11
133.251
 21
411.6
 31
0.0
  0
LINE
  8
0
 62
     250
 10
133.251
 20
411.6
 30
0.0
 11
132.898
 21
419.301
 31
0.0
  0
LINE
  8
0
 62
     250
 10
132.898
 20
419.301
 30
0.0
 11
132.626
 21
426.836
 31
0.0
  0
LINE
  8
0
 62
     250
 10
132.626
 20
426.836
 30
0.0
 11
132.45
 21
434.135
 31
0.0
  0
LINE
  8
0
 62
     250
 10
132.45
 20
434.135
 30
0.0
 11
132.389
 21
439.381
 31
0.0
  0
LINE
  8
0
 62
     250
 10
132.389
 20
439.381
 30
0.0
 11
132.389
 21
441.131
 31
0.0
  0
LINE
  8
0
 62
     250
 10
132.389
 20
441.131
 30
0.0
 11
132.389
 21
444.387
 31
0.0
  0
LINE
  8
0
 62
     250
 10
132.389
 20
444.387
 30
0.0
 11
132.372
 21
454.159
 31
0.0
  0
LINE
  8
0
 62
     250
 10
132.372
 20
454.159
 30
0.0
 11
132.355
 21
465.995
 31
0.0
  0
LINE
  8
0
 62
     250
 10
132.355
 20
465.995
 30
0.0
 11
132.389
 21
476.702
 31
0.0
  0
LINE
  8
0
 62
     250
 10
132.389
 20
476.702
 30
0.0
 11
132.527
 21
486.347
 31
0.0
  0
LINE
  8
0
 62
     250
 10
132.527
 20
486.347
 30
0.0
 11
132.821
 21
494.993
 31
0.0
  0
LINE
  8
0
 62
     250
 10
132.821
 20
494.993
 30
0.0
 11
133.321
 21
502.708
 31
0.0
  0
LINE
  8
0
 62
     250
 10
133.321
 20
502.708
 30
0.0
 11
134.08
 21
509.556
 31
0.0
  0
LINE
  8
0
 62
     250
 10
134.08
 20
509.556
 30
0.0
 11
134.822
 21
514.103
 31
0.0
  0
LINE
  8
0
 62
     250
 10
134.822
 20
514.103
 30
0.0
 11
135.15
 21
515.602
 31
0.0
  0
LINE
  8
0
 62
     250
 10
135.15
 20
515.602
 30
0.0
 11
135.432
 21
516.897
 31
0.0
  0
LINE
  8
0
 62
     250
 10
135.432
 20
516.897
 30
0.0
 11
136.606
 21
520.704
 31
0.0
  0
LINE
  8
0
 62
     250
 10
136.606
 20
520.704
 30
0.0
 11
138.522
 21
524.806
 31
0.0
  0
LINE
  8
0
 62
     250
 10
138.522
 20
524.806
 30
0.0
 11
140.943
 21
528.122
 31
0.0
  0
LINE
  8
0
 62
     250
 10
140.943
 20
528.122
 30
0.0
 11
143.914
 21
530.86
 31
0.0
  0
LINE
  8
0
 62
     250
 10
143.914
 20
530.86
 30
0.0
 11
147.479
 21
533.231
 31
0.0
  0
LINE
  8
0
 62
     250
 10
147.479
 20
533.231
 30
0.0
 11
151.686
 21
535.446
 31
0.0
  0
LINE
  8
0
 62
     250
 10
151.686
 20
535.446
 30
0.0
 11
156.578
 21
537.711
 31
0.0
  0
LINE
  8
0
 62
     250
 10
156.578
 20
537.711
 30
0.0
 11
160.799
 21
539.602
 31
0.0
  0
LINE
  8
0
 62
     250
 10
160.799
 20
539.602
 30
0.0
 11
162.202
 21
540.24
 31
0.0
  0
LINE
  8
0
 62
     250
 10
162.202
 20
540.24
 30
0.0
 11
163.04
 21
540.621
 31
0.0
  0
LINE
  8
0
 62
     250
 10
163.04
 20
540.621
 30
0.0
 11
165.588
 21
541.694
 31
0.0
  0
LINE
  8
0
 62
     250
 10
165.588
 20
541.694
 30
0.0
 11
169.733
 21
543.324
 31
0.0
  0
LINE
  8
0
 62
     250
 10
169.733
 20
543.324
 30
0.0
 11
174.617
 21
545.116
 31
0.0
  0
LINE
  8
0
 62
     250
 10
174.617
 20
545.116
 30
0.0
 11
180.221
 21
547.063
 31
0.0
  0
LINE
  8
0
 62
     250
 10
180.221
 20
547.063
 30
0.0
 11
186.527
 21
549.155
 31
0.0
  0
LINE
  8
0
 62
     250
 10
186.527
 20
549.155
 30
0.0
 11
193.518
 21
551.381
 31
0.0
  0
LINE
  8
0
 62
     250
 10
193.518
 20
551.381
 30
0.0
 11
201.172
 21
553.734
 31
0.0
  0
LINE
  8
0
 62
     250
 10
201.172
 20
553.734
 30
0.0
 11
209.473
 21
556.2
 31
0.0
  0
LINE
  8
0
 62
     250
 10
209.473
 20
556.2
 30
0.0
 11
218.401
 21
558.768
 31
0.0
  0
LINE
  8
0
 62
     250
 10
218.401
 20
558.768
 30
0.0
 11
227.937
 21
561.435
 31
0.0
  0
LINE
  8
0
 62
     250
 10
227.937
 20
561.435
 30
0.0
 11
238.066
 21
564.187
 31
0.0
  0
LINE
  8
0
 62
     250
 10
238.066
 20
564.187
 30
0.0
 11
248.765
 21
567.013
 31
0.0
  0
LINE
  8
0
 62
     250
 10
248.765
 20
567.013
 30
0.0
 11
260.017
 21
569.905
 31
0.0
  0
LINE
  8
0
 62
     250
 10
260.017
 20
569.905
 30
0.0
 11
271.804
 21
572.851
 31
0.0
  0
LINE
  8
0
 62
     250
 10
271.804
 20
572.851
 30
0.0
 11
284.107
 21
575.846
 31
0.0
  0
LINE
  8
0
 62
     250
 10
284.107
 20
575.846
 30
0.0
 11
293.706
 21
578.129
 31
0.0
  0
LINE
  8
0
 62
     250
 10
293.706
 20
578.129
 30
0.0
 11
296.908
 21
578.877
 31
0.0
  0
LINE
  8
0
 62
     250
 10
296.908
 20
578.877
 30
0.0
 11
300.047
 21
579.607
 31
0.0
  0
LINE
  8
0
 62
     250
 10
300.047
 20
579.607
 30
0.0
 11
309.473
 21
581.776
 31
0.0
  0
LINE
  8
0
 62
     250
 10
309.473
 20
581.776
 30
0.0
 11
321.112
 21
584.401
 31
0.0
  0
LINE
  8
0
 62
     250
 10
321.112
 20
584.401
 30
0.0
 11
331.869
 21
586.758
 31
0.0
  0
LINE
  8
0
 62
     250
 10
331.869
 20
586.758
 30
0.0
 11
341.789
 21
588.857
 31
0.0
  0
LINE
  8
0
 62
     250
 10
341.789
 20
588.857
 30
0.0
 11
350.918
 21
590.712
 31
0.0
  0
LINE
  8
0
 62
     250
 10
350.918
 20
590.712
 30
0.0
 11
359.297
 21
592.332
 31
0.0
  0
LINE
  8
0
 62
     250
 10
359.297
 20
592.332
 30
0.0
 11
366.974
 21
593.725
 31
0.0
  0
LINE
  8
0
 62
     250
 10
366.974
 20
593.725
 30
0.0
 11
373.99
 21
594.903
 31
0.0
  0
LINE
  8
0
 62
     250
 10
373.99
 20
594.903
 30
0.0
 11
380.393
 21
595.88
 31
0.0
  0
LINE
  8
0
 62
     250
 10
380.393
 20
595.88
 30
0.0
 11
386.228
 21
596.664
 31
0.0
  0
LINE
  8
0
 62
     250
 10
386.228
 20
596.664
 30
0.0
 11
391.534
 21
597.263
 31
0.0
  0
LINE
  8
0
 62
     250
 10
391.534
 20
597.263
 30
0.0
 11
396.36
 21
597.694
 31
0.0
  0
LINE
  8
0
 62
     250
 10
396.36
 20
597.694
 30
0.0
 11
400.748
 21
597.965
 31
0.0
  0
LINE
  8
0
 62
     250
 10
400.748
 20
597.965
 30
0.0
 11
404.745
 21
598.082
 31
0.0
  0
LINE
  8
0
 62
     250
 10
404.745
 20
598.082
 30
0.0
 11
408.393
 21
598.064
 31
0.0
  0
LINE
  8
0
 62
     250
 10
408.393
 20
598.064
 30
0.0
 11
410.905
 21
597.969
 31
0.0
  0
LINE
  8
0
 62
     250
 10
410.905
 20
597.969
 30
0.0
 11
411.741
 21
597.912
 31
0.0
  0
LINE
  8
0
 62
     250
 10
411.741
 20
597.912
 30
0.0
 11
412.926
 21
597.835
 31
0.0
  0
LINE
  8
0
 62
     250
 10
412.926
 20
597.835
 30
0.0
 11
416.489
 21
597.531
 31
0.0
  0
LINE
  8
0
 62
     250
 10
416.489
 20
597.531
 30
0.0
 11
421.21
 21
596.995
 31
0.0
  0
LINE
  8
0
 62
     250
 10
421.21
 20
596.995
 30
0.0
 11
425.817
 21
596.304
 31
0.0
  0
LINE
  8
0
 62
     250
 10
425.817
 20
596.304
 30
0.0
 11
430.22
 21
595.447
 31
0.0
  0
LINE
  8
0
 62
     250
 10
430.22
 20
595.447
 30
0.0
 11
434.336
 21
594.413
 31
0.0
  0
LINE
  8
0
 62
     250
 10
434.336
 20
594.413
 30
0.0
 11
438.083
 21
593.196
 31
0.0
  0
LINE
  8
0
 62
     250
 10
438.083
 20
593.196
 30
0.0
 11
441.371
 21
591.788
 31
0.0
  0
LINE
  8
0
 62
     250
 10
441.371
 20
591.788
 30
0.0
 11
443.463
 21
590.638
 31
0.0
  0
LINE
  8
0
 62
     250
 10
443.463
 20
590.638
 30
0.0
 11
444.112
 21
590.183
 31
0.0
  0
LINE
  8
0
 62
     250
 10
132.355
 20
785.992
 30
0.0
 11
132.355
 21
705.993
 31
0.0
  0
LINE
  8
0
 62
     250
 10
1892.36
 20
785.992
 30
0.0
 11
1892.36
 21
705.993
 31
0.0
  0
LINE
  8
0
 62
     250
 10
137.34
 20
745.991
 30
0.0
 11
1887.37
 21
745.991
 31
0.0
  0
LINE
  8
0
 62
     250
 10
147.766
 20
740.382
 30
0.0
 11
148.369
 21
742.04
 31
0.0
  0
LINE
  8
0
 62
     250
 10
148.369
 20
742.04
 30
0.0
 11
137.512
 21
745.991
 31
0.0
  0
LINE
  8
0
 62
     250
 10
137.512
 20
745.991
 30
0.0
 11
148.369
 21
749.942
 31
0.0
  0
LINE
  8
0
 62
     250
 10
148.369
 20
749.942
 30
0.0
 11
147.766
 21
751.6
 31
0.0
  0
LINE
  8
0
 62
     250
 10
147.766
 20
751.6
 30
0.0
 11
132.355
 21
745.991
 31
0.0
  0
LINE
  8
0
 62
     250
 10
132.355
 20
745.991
 30
0.0
 11
147.766
 21
740.382
 31
0.0
  0
LINE
  8
0
 62
     250
 10
1876.94
 20
740.382
 30
0.0
 11
1876.34
 21
742.04
 31
0.0
  0
LINE
  8
0
 62
     250
 10
1876.34
 20
742.04
 30
0.0
 11
1887.2
 21
745.991
 31
0.0
  0
LINE
  8
0
 62
     250
 10
1887.2
 20
745.991
 30
0.0
 11
1876.34
 21
749.942
 31
0.0
  0
LINE
  8
0
 62
     250
 10
1876.34
 20
749.942
 30
0.0
 11
1876.94
 21
751.6
 31
0.0
  0
LINE
  8
0
 62
     250
 10
1876.94
 20
751.6
 30
0.0
 11
1892.36
 21
745.991
 31
0.0
  0
LINE
  8
0
 62
     250
 10
1892.36
 20
745.991
 30
0.0
 11
1876.94
 21
740.382
 31
0.0
  0
LINE
  8
0
 62
     250
 10
968.76
 20
762.826
 30
0.0
 11
968.76
 21
779.868
 31
0.0
  0
LINE
  8
0
 62
     250
 10
968.76
 20
779.868
 30
0.0
 11
968.707
 21
779.868
 31
0.0
  0
LINE
  8
0
 62
     250
 10
968.707
 20
779.868
 30
0.0
 11
965.585
 21
778.066
 31
0.0
  0
LINE
  8
0
 62
     250
 10
965.585
 20
778.066
 30
0.0
 11
965.073
 21
779.639
 31
0.0
  0
LINE
  8
0
 62
     250
 10
965.073
 20
779.639
 30
0.0
 11
969.01
 21
781.851
 31
0.0
  0
LINE
  8
0
 62
     250
 10
969.01
 20
781.851
 30
0.0
 11
970.816
 21
781.851
 31
0.0
  0
LINE
  8
0
 62
     250
 10
970.816
 20
781.851
 30
0.0
 11
970.816
 21
762.826
 31
0.0
  0
LINE
  8
0
 62
     250
 10
970.816
 20
762.826
 30
0.0
 11
968.76
 21
762.826
 31
0.0
  0
LINE
  8
0
 62
     250
 10
977.748
 20
781.851
 30
0.0
 11
988.9
 21
781.851
 31
0.0
  0
LINE
  8
0
 62
     250
 10
988.9
 20
781.851
 30
0.0
 11
988.9
 21
780.503
 31
0.0
  0
LINE
  8
0
 62
     250
 10
988.9
 20
780.503
 30
0.0
 11
980.948
 21
762.826
 31
0.0
  0
LINE
  8
0
 62
     250
 10
980.948
 20
762.826
 30
0.0
 11
978.789
 21
762.826
 31
0.0
  0
LINE
  8
0
 62
     250
 10
978.789
 20
762.826
 30
0.0
 11
986.741
 21
780.048
 31
0.0
  0
LINE
  8
0
 62
     250
 10
986.741
 20
780.048
 30
0.0
 11
986.741
 21
780.098
 31
0.0
  0
LINE
  8
0
 62
     250
 10
986.741
 20
780.098
 30
0.0
 11
977.748
 21
780.098
 31
0.0
  0
LINE
  8
0
 62
     250
 10
977.748
 20
780.098
 30
0.0
 11
977.748
 21
781.851
 31
0.0
  0
LINE
  8
0
 62
     250
 10
1001.04
 20
769.02
 30
0.0
 11
1001.04
 21
769.511
 31
0.0
  0
LINE
  8
0
 62
     250
 10
1001.04
 20
769.511
 30
0.0
 11
1000.76
 21
770.978
 31
0.0
  0
LINE
  8
0
 62
     250
 10
1000.76
 20
770.978
 30
0.0
 11
999.966
 21
772.428
 31
0.0
  0
LINE
  8
0
 62
     250
 10
999.966
 20
772.428
 30
0.0
 11
998.746
 21
773.335
 31
0.0
  0
LINE
  8
0
 62
     250
 10
998.746
 20
773.335
 30
0.0
 11
997.571
 21
773.645
 31
0.0
  0
LINE
  8
0
 62
     250
 10
997.571
 20
773.645
 30
0.0
 11
997.179
 21
773.645
 31
0.0
  0
LINE
  8
0
 62
     250
 10
997.179
 20
773.645
 30
0.0
 11
996.975
 21
773.645
 31
0.0
  0
LINE
  8
0
 62
     250
 10
996.975
 20
773.645
 30
0.0
 11
996.368
 21
773.546
 31
0.0
  0
LINE
  8
0
 62
     250
 10
996.368
 20
773.546
 30
0.0
 11
995.62
 21
773.282
 31
0.0
  0
LINE
  8
0
 62
     250
 10
995.62
 20
773.282
 30
0.0
 11
994.953
 21
772.88
 31
0.0
  0
LINE
  8
0
 62
     250
 10
994.953
 20
772.88
 30
0.0
 11
994.375
 21
772.375
 31
0.0
  0
LINE
  8
0
 62
     250
 10
994.375
 20
772.375
 30
0.0
 11
993.899
 21
771.804
 31
0.0
  0
LINE
  8
0
 62
     250
 10
993.899
 20
771.804
 30
0.0
 11
993.542
 21
771.204
 31
0.0
  0
LINE
  8
0
 62
     250
 10
993.542
 20
771.204
 30
0.0
 11
993.32
 21
770.601
 31
0.0
  0
LINE
  8
0
 62
     250
 10
993.32
 20
770.601
 30
0.0
 11
993.242
 21
770.181
 31
0.0
  0
LINE
  8
0
 62
     250
 10
993.242
 20
770.181
 30
0.0
 11
993.242
 21
770.04
 31
0.0
  0
LINE
  8
0
 62
     250
 10
993.242
 20
770.04
 30
0.0
 11
993.246
 21
769.444
 31
0.0
  0
LINE
  8
0
 62
     250
 10
993.246
 20
769.444
 30
0.0
 11
993.528
 21
767.655
 31
0.0
  0
LINE
  8
0
 62
     250
 10
993.528
 20
767.655
 30
0.0
 11
994.332
 21
765.799
 31
0.0
  0
LINE
  8
0
 62
     250
 10
994.332
 20
765.799
 30
0.0
 11
995.627
 21
764.6
 31
0.0
  0
LINE
  8
0
 62
     250
 10
995.627
 20
764.6
 30
0.0
 11
996.943
 21
764.17
 31
0.0
  0
LINE
  8
0
 62
     250
 10
996.943
 20
764.17
 30
0.0
 11
997.384
 21
764.17
 31
0.0
  0
LINE
  8
0
 62
     250
 10
997.384
 20
764.17
 30
0.0
 11
997.758
 21
764.17
 31
0.0
  0
LINE
  8
0
 62
     250
 10
997.758
 20
764.17
 30
0.0
 11
998.887
 21
764.526
 31
0.0
  0
LINE
  8
0
 62
     250
 10
998.887
 20
764.526
 30
0.0
 11
1000.04
 21
765.521
 31
0.0
  0
LINE
  8
0
 62
     250
 10
1000.04
 20
765.521
 30
0.0
 11
1000.78
 21
767.052
 31
0.0
  0
LINE
  8
0
 62
     250
 10
1000.78
 20
767.052
 30
0.0
 11
1001.04
 21
768.53
 31
0.0
  0
LINE
  8
0
 62
     250
 10
1001.04
 20
768.53
 30
0.0
 11
1001.04
 21
769.02
 31
0.0
  0
LINE
  8
0
 62
     250
 10
993.345
 20
772.908
 30
0.0
 11
993.51
 21
773.151
 31
0.0
  0
LINE
  8
0
 62
     250
 10
993.51
 20
773.151
 30
0.0
 11
994.117
 21
773.811
 31
0.0
  0
LINE
  8
0
 62
     250
 10
994.117
 20
773.811
 30
0.0
 11
995.13
 21
774.555
 31
0.0
  0
LINE
  8
0
 62
     250
 10
995.13
 20
774.555
 30
0.0
 11
996.357
 21
775.06
 31
0.0
  0
LINE
  8
0
 62
     250
 10
996.357
 20
775.06
 30
0.0
 11
997.433
 21
775.247
 31
0.0
  0
LINE
  8
0
 62
     250
 10
997.433
 20
775.247
 30
0.0
 11
997.79
 21
775.247
 31
0.0
  0
LINE
  8
0
 62
     250
 10
997.79
 20
775.247
 30
0.0
 11
998.34
 21
775.247
 31
0.0
  0
LINE
  8
0
 62
     250
 10
998.34
 20
775.247
 30
0.0
 11
999.994
 21
774.813
 31
0.0
  0
LINE
  8
0
 62
     250
 10
999.994
 20
774.813
 30
0.0
 11
1001.69
 21
773.582
 31
0.0
  0
LINE
  8
0
 62
     250
 10
1001.69
 20
773.582
 30
0.0
 11
1002.79
 21
771.666
 31
0.0
  0
LINE
  8
0
 62
     250
 10
1002.79
 20
771.666
 30
0.0
 11
1003.18
 21
769.8
 31
0.0
  0
LINE
  8
0
 62
     250
 10
1003.18
 20
769.8
 30
0.0
 11
1003.18
 21
769.176
 31
0.0
  0
LINE
  8
0
 62
     250
 10
1003.18
 20
769.176
 30
0.0
 11
1003.18
 21
768.548
 31
0.0
  0
LINE
  8
0
 62
     250
 10
1003.18
 20
768.548
 30
0.0
 11
1002.78
 21
766.667
 31
0.0
  0
LINE
  8
0
 62
     250
 10
1002.78
 20
766.667
 30
0.0
 11
1001.65
 21
764.544
 31
0.0
  0
LINE
  8
0
 62
     250
 10
1001.65
 20
764.544
 30
0.0
 11
999.811
 21
763.069
 31
0.0
  0
LINE
  8
0
 62
     250
 10
999.811
 20
763.069
 30
0.0
 11
997.952
 21
762.519
 31
0.0
  0
LINE
  8
0
 62
     250
 10
997.952
 20
762.519
 30
0.0
 11
997.335
 21
762.519
 31
0.0
  0
LINE
  8
0
 62
     250
 10
997.335
 20
762.519
 30
0.0
 11
996.7
 21
762.519
 31
0.0
  0
LINE
  8
0
 62
     250
 10
996.7
 20
762.519
 30
0.0
 11
994.798
 21
763.076
 31
0.0
  0
LINE
  8
0
 62
     250
 10
994.798
 20
763.076
 30
0.0
 11
992.844
 21
764.671
 31
0.0
  0
LINE
  8
0
 62
     250
 10
992.844
 20
764.671
 30
0.0
 11
991.581
 21
767.193
 31
0.0
  0
LINE
  8
0
 62
     250
 10
991.581
 20
767.193
 30
0.0
 11
991.136
 21
769.691
 31
0.0
  0
LINE
  8
0
 62
     250
 10
991.136
 20
769.691
 30
0.0
 11
991.136
 21
770.52
 31
0.0
  0
LINE
  8
0
 62
     250
 10
991.136
 20
770.52
 30
0.0
 11
991.136
 21
770.999
 31
0.0
  0
LINE
  8
0
 62
     250
 10
991.136
 20
770.999
 30
0.0
 11
991.249
 21
772.439
 31
0.0
  0
LINE
  8
0
 62
     250
 10
991.249
 20
772.439
 30
0.0
 11
991.602
 21
774.323
 31
0.0
  0
LINE
  8
0
 62
     250
 10
991.602
 20
774.323
 30
0.0
 11
992.216
 21
776.122
 31
0.0
  0
LINE
  8
0
 62
     250
 10
992.216
 20
776.122
 30
0.0
 11
993.101
 21
777.783
 31
0.0
  0
LINE
  8
0
 62
     250
 10
993.101
 20
777.783
 30
0.0
 11
994.272
 21
779.251
 31
0.0
  0
LINE
  8
0
 62
     250
 10
994.272
 20
779.251
 30
0.0
 11
995.754
 21
780.478
 31
0.0
  0
LINE
  8
0
 62
     250
 10
995.754
 20
780.478
 30
0.0
 11
997.553
 21
781.403
 31
0.0
  0
LINE
  8
0
 62
     250
 10
997.553
 20
781.403
 30
0.0
 11
999.151
 21
781.89
 31
0.0
  0
LINE
  8
0
 62
     250
 10
999.151
 20
781.89
 30
0.0
 11
999.695
 21
781.978
 31
0.0
  0
LINE
  8
0
 62
     250
 10
999.695
 20
781.978
 30
0.0
 11
999.875
 21
782.002
 31
0.0
  0
LINE
  8
0
 62
     250
 10
999.875
 20
782.002
 30
0.0
 11
1000.69
 21
782.105
 31
0.0
  0
LINE
  8
0
 62
     250
 10
1000.69
 20
782.105
 30
0.0
 11
1001.28
 21
782.154
 31
0.0
  0
LINE
  8
0
 62
     250
 10
1001.28
 20
782.154
 30
0.0
 11
1001.47
 21
782.154
 31
0.0
  0
LINE
  8
0
 62
     250
 10
1001.47
 20
782.154
 30
0.0
 11
1001.5
 21
780.401
 31
0.0
  0
LINE
  8
0
 62
     250
 10
1001.5
 20
780.401
 30
0.0
 11
1000.64
 21
780.401
 31
0.0
  0
LINE
  8
0
 62
     250
 10
1000.64
 20
780.401
 30
0.0
 11
998.044
 21
779.745
 31
0.0
  0
LINE
  8
0
 62
     250
 10
998.044
 20
779.745
 30
0.0
 11
995.564
 21
778.027
 31
0.0
  0
LINE
  8
0
 62
     250
 10
995.564
 20
778.027
 30
0.0
 11
993.994
 21
775.624
 31
0.0
  0
LINE
  8
0
 62
     250
 10
993.994
 20
775.624
 30
0.0
 11
993.352
 21
773.599
 31
0.0
  0
LINE
  8
0
 62
     250
 10
993.352
 20
773.599
 30
0.0
 11
993.271
 21
772.908
 31
0.0
  0
LINE
  8
0
 62
     250
 10
993.271
 20
772.908
 30
0.0
 11
993.345
 21
772.908
 31
0.0
  0
LINE
  8
0
 62
     250
 10
1014.99
 20
772.425
 30
0.0
 11
1014.99
 21
773.24
 31
0.0
  0
LINE
  8
0
 62
     250
 10
1014.99
 20
773.24
 30
0.0
 11
1014.77
 21
775.684
 31
0.0
  0
LINE
  8
0
 62
     250
 10
1014.77
 20
775.684
 30
0.0
 11
1014.08
 21
778.221
 31
0.0
  0
LINE
  8
0
 62
     250
 10
1014.08
 20
778.221
 30
0.0
 11
1012.9
 21
779.868
 31
0.0
  0
LINE
  8
0
 62
     250
 10
1012.9
 20
779.868
 30
0.0
 11
1011.6
 21
780.454
 31
0.0
  0
LINE
  8
0
 62
     250
 10
1011.6
 20
780.454
 30
0.0
 11
1011.17
 21
780.454
 31
0.0
  0
LINE
  8
0
 62
     250
 10
1011.17
 20
780.454
 30
0.0
 11
1010.79
 21
780.454
 31
0.0
  0
LINE
  8
0
 62
     250
 10
1010.79
 20
780.454
 30
0.0
 11
1009.62
 21
779.903
 31
0.0
  0
LINE
  8
0
 62
     250
 10
1009.62
 20
779.903
 30
0.0
 11
1008.4
 21
778.316
 31
0.0
  0
LINE
  8
0
 62
     250
 10
1008.4
 20
778.316
 30
0.0
 11
1007.6
 21
775.79
 31
0.0
  0
LINE
  8
0
 62
     250
 10
1007.6
 20
775.79
 30
0.0
 11
1007.31
 21
773.268
 31
0.0
  0
LINE
  8
0
 62
     250
 10
1007.31
 20
773.268
 30
0.0
 11
1007.31
 21
772.425
 31
0.0
  0
LINE
  8
0
 62
     250
 10
1007.31
 20
772.425
 30
0.0
 11
1007.31
 21
771.578
 31
0.0
  0
LINE
  8
0
 62
     250
 10
1007.31
 20
771.578
 30
0.0
 11
1007.57
 21
769.038
 31
0.0
  0
LINE
  8
0
 62
     250
 10
1007.57
 20
769.038
 30
0.0
 11
1008.31
 21
766.459
 31
0.0
  0
LINE
  8
0
 62
     250
 10
1008.31
 20
766.459
 30
0.0
 11
1009.5
 21
764.822
 31
0.0
  0
LINE
  8
0
 62
     250
 10
1009.5
 20
764.822
 30
0.0
 11
1010.7
 21
764.247
 31
0.0
  0
LINE
  8
0
 62
     250
 10
1010.7
 20
764.247
 30
0.0
 11
1011.1
 21
764.247
 31
0.0
  0
LINE
  8
0
 62
     250
 10
1011.1
 20
764.247
 30
0.0
 11
1011.55
 21
764.247
 31
0.0
  0
LINE
  8
0
 62
     250
 10
1011.55
 20
764.247
 30
0.0
 11
1012.9
 21
764.889
 31
0.0
  0
LINE
  8
0
 62
     250
 10
1012.9
 20
764.889
 30
0.0
 11
1014.1
 21
766.643
 31
0.0
  0
LINE
  8
0
 62
     250
 10
1014.1
 20
766.643
 30
0.0
 11
1014.78
 21
769.239
 31
0.0
  0
LINE
  8
0
 62
     250
 10
1014.78
 20
769.239
 30
0.0
 11
1014.99
 21
771.631
 31
0.0
  0
LINE
  8
0
 62
     250
 10
1014.99
 20
771.631
 30
0.0
 11
1014.99
 21
772.425
 31
0.0
  0
LINE
  8
0
 62
     250
 10
1005.16
 20
772.273
 30
0.0
 11
1005.16
 21
773.363
 31
0.0
  0
LINE
  8
0
 62
     250
 10
1005.16
 20
773.363
 30
0.0
 11
1005.62
 21
776.626
 31
0.0
  0
LINE
  8
0
 62
     250
 10
1005.62
 20
776.626
 30
0.0
 11
1006.89
 21
779.709
 31
0.0
  0
LINE
  8
0
 62
     250
 10
1006.89
 20
779.709
 30
0.0
 11
1008.84
 21
781.547
 31
0.0
  0
LINE
  8
0
 62
     250
 10
1008.84
 20
781.547
 30
0.0
 11
1010.69
 21
782.154
 31
0.0
  0
LINE
  8
0
 62
     250
 10
1010.69
 20
782.154
 30
0.0
 11
1011.3
 21
782.154
 31
0.0
  0
LINE
  8
0
 62
     250
 10
1011.3
 20
782.154
 30
0.0
 11
1011.91
 21
782.154
 31
0.0
  0
LINE
  8
0
 62
     250
 10
1011.91
 20
782.154
 30
0.0
 11
1013.73
 21
781.526
 31
0.0
  0
LINE
  8
0
 62
     250
 10
1013.73
 20
781.526
 30
0.0
 11
1015.56
 21
779.678
 31
0.0
  0
LINE
  8
0
 62
     250
 10
1015.56
 20
779.678
 30
0.0
 11
1016.72
 21
776.658
 31
0.0
  0
LINE
  8
0
 62
     250
 10
1016.72
 20
776.658
 30
0.0
 11
1017.12
 21
773.561
 31
0.0
  0
LINE
  8
0
 62
     250
 10
1017.12
 20
773.561
 30
0.0
 11
1017.12
 21
772.527
 31
0.0
  0
LINE
  8
0
 62
     250
 10
1017.12
 20
772.527
 30
0.0
 11
1017.12
 21
771.44
 31
0.0
  0
LINE
  8
0
 62
     250
 10
1017.12
 20
771.44
 30
0.0
 11
1016.7
 21
768.177
 31
0.0
  0
LINE
  8
0
 62
     250
 10
1016.7
 20
768.177
 30
0.0
 11
1015.49
 21
765.048
 31
0.0
  0
LINE
  8
0
 62
     250
 10
1015.49
 20
765.048
 30
0.0
 11
1013.57
 21
763.154
 31
0.0
  0
LINE
  8
0
 62
     250
 10
1013.57
 20
763.154
 30
0.0
 11
1011.66
 21
762.519
 31
0.0
  0
LINE
  8
0
 62
     250
 10
1011.66
 20
762.519
 30
0.0
 11
1011.02
 21
762.519
 31
0.0
  0
LINE
  8
0
 62
     250
 10
1011.02
 20
762.519
 30
0.0
 11
1010.43
 21
762.519
 31
0.0
  0
LINE
  8
0
 62
     250
 10
1010.43
 20
762.519
 30
0.0
 11
1008.65
 21
763.15
 31
0.0
  0
LINE
  8
0
 62
     250
 10
1008.65
 20
763.15
 30
0.0
 11
1006.79
 21
765.016
 31
0.0
  0
LINE
  8
0
 62
     250
 10
1006.79
 20
765.016
 30
0.0
 11
1005.59
 21
768.071
 31
0.0
  0
LINE
  8
0
 62
     250
 10
1005.59
 20
768.071
 30
0.0
 11
1005.16
 21
771.222
 31
0.0
  0
LINE
  8
0
 62
     250
 10
1005.16
 20
771.222
 30
0.0
 11
1005.16
 21
772.273
 31
0.0
  0
LINE
  8
0
 62
     250
 10
740.738
 20
637.836
 30
0.0
 11
0.179145
 21
637.836
 31
0.0
  0
LINE
  8
0
 62
     250
 10
740.738
 20
20.4859
 30
0.0
 11
0.179145
 21
20.4859
 31
0.0
  0
LINE
  8
0
 62
     250
 10
40.1796
 20
25.4703
 30
0.0
 11
40.1796
 21
632.852
 31
0.0
  0
LINE
  8
0
 62
     250
 10
45.7895
 20
35.8965
 30
0.0
 11
44.1304
 21
36.5002
 31
0.0
  0
LINE
  8
0
 62
     250
 10
44.1304
 20
36.5002
 30
0.0
 11
40.1796
 21
25.6425
 31
0.0
  0
LINE
  8
0
 62
     250
 10
40.1796
 20
25.6425
 30
0.0
 11
36.2271
 21
36.5002
 31
0.0
  0
LINE
  8
0
 62
     250
 10
36.2271
 20
36.5002
 30
0.0
 11
34.5708
 21
35.8965
 31
0.0
  0
LINE
  8
0
 62
     250
 10
34.5708
 20
35.8965
 30
0.0
 11
40.1796
 21
20.4859
 31
0.0
  0
LINE
  8
0
 62
     250
 10
40.1796
 20
20.4859
 30
0.0
 11
45.7895
 21
35.8965
 31
0.0
  0
LINE
  8
0
 62
     250
 10
45.7895
 20
622.423
 30
0.0
 11
44.1304
 21
621.82
 31
0.0
  0
LINE
  8
0
 62
     250
 10
44.1304
 20
621.82
 30
0.0
 11
40.1796
 21
632.679
 31
0.0
  0
LINE
  8
0
 62
     250
 10
40.1796
 20
632.679
 30
0.0
 11
36.2271
 21
621.82
 31
0.0
  0
LINE
  8
0
 62
     250
 10
36.2271
 20
621.82
 30
0.0
 11
34.5708
 21
622.423
 31
0.0
  0
LINE
  8
0
 62
     250
 10
34.5708
 20
622.423
 30
0.0
 11
40.1796
 21
637.836
 31
0.0
  0
LINE
  8
0
 62
     250
 10
40.1796
 20
637.836
 30
0.0
 11
45.7895
 21
622.423
 31
0.0
  0
LINE
  8
0
 62
     250
 10
18.7151
 20
322.325
 30
0.0
 11
18.2259
 21
322.325
 31
0.0
  0
LINE
  8
0
 62
     250
 10
18.2259
 20
322.325
 30
0.0
 11
16.7597
 21
322.043
 31
0.0
  0
LINE
  8
0
 62
     250
 10
16.7597
 20
322.043
 30
0.0
 11
15.3072
 21
321.253
 31
0.0
  0
LINE
  8
0
 62
     250
 10
15.3072
 20
321.253
 30
0.0
 11
14.4032
 21
320.033
 31
0.0
  0
LINE
  8
0
 62
     250
 10
14.4032
 20
320.033
 30
0.0
 11
14.0918
 21
318.856
 31
0.0
  0
LINE
  8
0
 62
     250
 10
14.0918
 20
318.856
 30
0.0
 11
14.0918
 21
318.463
 31
0.0
  0
LINE
  8
0
 62
     250
 10
14.0918
 20
318.463
 30
0.0
 11
14.0918
 21
318.261
 31
0.0
  0
LINE
  8
0
 62
     250
 10
14.0918
 20
318.261
 30
0.0
 11
14.1883
 21
317.653
 31
0.0
  0
LINE
  8
0
 62
     250
 10
14.1883
 20
317.653
 30
0.0
 11
14.4543
 21
316.906
 31
0.0
  0
LINE
  8
0
 62
     250
 10
14.4543
 20
316.906
 30
0.0
 11
14.8566
 21
316.236
 31
0.0
  0
LINE
  8
0
 62
     250
 10
14.8566
 20
316.236
 30
0.0
 11
15.361
 21
315.657
 31
0.0
  0
LINE
  8
0
 62
     250
 10
15.361
 20
315.657
 30
0.0
 11
15.9315
 21
315.184
 31
0.0
  0
LINE
  8
0
 62
     250
 10
15.9315
 20
315.184
 30
0.0
 11
16.5351
 21
314.828
 31
0.0
  0
LINE
  8
0
 62
     250
 10
16.5351
 20
314.828
 30
0.0
 11
17.1345
 21
314.605
 31
0.0
  0
LINE
  8
0
 62
     250
 10
17.1345
 20
314.605
 30
0.0
 11
17.5576
 21
314.526
 31
0.0
  0
LINE
  8
0
 62
     250
 10
17.5576
 20
314.526
 30
0.0
 11
17.6995
 21
314.526
 31
0.0
  0
LINE
  8
0
 62
     250
 10
17.6995
 20
314.526
 30
0.0
 11
18.2948
 21
314.532
 31
0.0
  0
LINE
  8
0
 62
     250
 10
18.2948
 20
314.532
 30
0.0
 11
20.0835
 21
314.813
 31
0.0
  0
LINE
  8
0
 62
     250
 10
20.0835
 20
314.813
 30
0.0
 11
21.937
 21
315.616
 31
0.0
  0
LINE
  8
0
 62
     250
 10
21.937
 20
315.616
 30
0.0
 11
23.1386
 21
316.91
 31
0.0
  0
LINE
  8
0
 62
     250
 10
23.1386
 20
316.91
 30
0.0
 11
23.5672
 21
318.229
 31
0.0
  0
LINE
  8
0
 62
     250
 10
23.5672
 20
318.229
 30
0.0
 11
23.5672
 21
318.667
 31
0.0
  0
LINE
  8
0
 62
     250
 10
23.5672
 20
318.667
 30
0.0
 11
23.5672
 21
319.043
 31
0.0
  0
LINE
  8
0
 62
     250
 10
23.5672
 20
319.043
 30
0.0
 11
23.2117
 21
320.172
 31
0.0
  0
LINE
  8
0
 62
     250
 10
23.2117
 20
320.172
 30
0.0
 11
22.2167
 21
321.326
 31
0.0
  0
LINE
  8
0
 62
     250
 10
22.2167
 20
321.326
 30
0.0
 11
20.683
 21
322.064
 31
0.0
  0
LINE
  8
0
 62
     250
 10
20.683
 20
322.064
 30
0.0
 11
19.2071
 21
322.325
 31
0.0
  0
LINE
  8
0
 62
     250
 10
19.2071
 20
322.325
 30
0.0
 11
18.7151
 21
322.325
 31
0.0
  0
LINE
  8
0
 62
     250
 10
14.8291
 20
314.628
 30
0.0
 11
14.5852
 21
314.795
 31
0.0
  0
LINE
  8
0
 62
     250
 10
14.5852
 20
314.795
 30
0.0
 11
13.9278
 21
315.403
 31
0.0
  0
LINE
  8
0
 62
     250
 10
13.9278
 20
315.403
 30
0.0
 11
13.1837
 21
316.413
 31
0.0
  0
LINE
  8
0
 62
     250
 10
13.1837
 20
316.413
 30
0.0
 11
12.678
 21
317.643
 31
0.0
  0
LINE
  8
0
 62
     250
 10
12.678
 20
317.643
 30
0.0
 11
12.4919
 21
318.717
 31
0.0
  0
LINE
  8
0
 62
     250
 10
12.4919
 20
318.717
 30
0.0
 11
12.4919
 21
319.074
 31
0.0
  0
LINE
  8
0
 62
     250
 10
12.4919
 20
319.074
 30
0.0
 11
12.4919
 21
319.625
 31
0.0
  0
LINE
  8
0
 62
     250
 10
12.4919
 20
319.625
 30
0.0
 11
12.926
 21
321.277
 31
0.0
  0
LINE
  8
0
 62
     250
 10
12.926
 20
321.277
 30
0.0
 11
14.1552
 21
322.976
 31
0.0
  0
LINE
  8
0
 62
     250
 10
14.1552
 20
322.976
 30
0.0
 11
16.0707
 21
324.072
 31
0.0
  0
LINE
  8
0
 62
     250
 10
16.0707
 20
324.072
 30
0.0
 11
17.9393
 21
324.459
 31
0.0
  0
LINE
  8
0
 62
     250
 10
17.9393
 20
324.459
 30
0.0
 11
18.5622
 21
324.459
 31
0.0
  0
LINE
  8
0
 62
     250
 10
18.5622
 20
324.459
 30
0.0
 11
19.1892
 21
324.459
 31
0.0
  0
LINE
  8
0
 62
     250
 10
19.1892
 20
324.459
 30
0.0
 11
21.0702
 21
324.068
 31
0.0
  0
LINE
  8
0
 62
     250
 10
21.0702
 20
324.068
 30
0.0
 11
23.1951
 21
322.93
 31
0.0
  0
LINE
  8
0
 62
     250
 10
23.1951
 20
322.93
 30
0.0
 11
24.6669
 21
321.094
 31
0.0
  0
LINE
  8
0
 62
     250
 10
24.6669
 20
321.094
 30
0.0
 11
25.2181
 21
319.236
 31
0.0
  0
LINE
  8
0
 62
     250
 10
25.2181
 20
319.236
 30
0.0
 11
25.2181
 21
318.616
 31
0.0
  0
LINE
  8
0
 62
     250
 10
25.2181
 20
318.616
 30
0.0
 11
25.2181
 21
317.984
 31
0.0
  0
LINE
  8
0
 62
     250
 10
25.2181
 20
317.984
 30
0.0
 11
24.66
 21
316.083
 31
0.0
  0
LINE
  8
0
 62
     250
 10
24.66
 20
316.083
 30
0.0
 11
23.0642
 21
314.127
 31
0.0
  0
LINE
  8
0
 62
     250
 10
23.0642
 20
314.127
 30
0.0
 11
20.5452
 21
312.866
 31
0.0
  0
LINE
  8
0
 62
     250
 10
20.5452
 20
312.866
 30
0.0
 11
18.0482
 21
312.418
 31
0.0
  0
LINE
  8
0
 62
     250
 10
18.0482
 20
312.418
 30
0.0
 11
17.2158
 21
312.418
 31
0.0
  0
LINE
  8
0
 62
     250
 10
17.2158
 20
312.418
 30
0.0
 11
16.7363
 21
312.418
 31
0.0
  0
LINE
  8
0
 62
     250
 10
16.7363
 20
312.418
 30
0.0
 11
15.299
 21
312.534
 31
0.0
  0
LINE
  8
0
 62
     250
 10
15.299
 20
312.534
 30
0.0
 11
13.4138
 21
312.888
 31
0.0
  0
LINE
  8
0
 62
     250
 10
13.4138
 20
312.888
 30
0.0
 11
11.6141
 21
313.499
 31
0.0
  0
LINE
  8
0
 62
     250
 10
11.6141
 20
313.499
 30
0.0
 11
9.95355
 21
314.384
 31
0.0
  0
LINE
  8
0
 62
     250
 10
9.95355
 20
314.384
 30
0.0
 11
8.48459
 21
315.558
 31
0.0
  0
LINE
  8
0
 62
     250
 10
8.48459
 20
315.558
 30
0.0
 11
7.2595
 21
317.037
 31
0.0
  0
LINE
  8
0
 62
     250
 10
7.2595
 20
317.037
 30
0.0
 11
6.33345
 21
318.839
 31
0.0
  0
LINE
  8
0
 62
     250
 10
6.33345
 20
318.839
 30
0.0
 11
5.84839
 21
320.435
 31
0.0
  0
LINE
  8
0
 62
     250
 10
5.84839
 20
320.435
 30
0.0
 11
5.76019
 21
320.978
 31
0.0
  0
LINE
  8
0
 62
     250
 10
5.76019
 20
320.978
 30
0.0
 11
5.73401
 21
321.157
 31
0.0
  0
LINE
  8
0
 62
     250
 10
5.73401
 20
321.157
 30
0.0
 11
5.63203
 21
321.973
 31
0.0
  0
LINE
  8
0
 62
     250
 10
5.63203
 20
321.973
 30
0.0
 11
5.58243
 21
322.562
 31
0.0
  0
LINE
  8
0
 62
     250
 10
5.58243
 20
322.562
 30
0.0
 11
5.58243
 21
322.757
 31
0.0
  0
LINE
  8
0
 62
     250
 10
5.58243
 20
322.757
 30
0.0
 11
7.33531
 21
322.782
 31
0.0
  0
LINE
  8
0
 62
     250
 10
7.33531
 20
322.782
 30
0.0
 11
7.33531
 21
321.919
 31
0.0
  0
LINE
  8
0
 62
     250
 10
7.33531
 20
321.919
 30
0.0
 11
7.99123
 21
319.329
 31
0.0
  0
LINE
  8
0
 62
     250
 10
7.99123
 20
319.329
 30
0.0
 11
9.70964
 21
316.848
 31
0.0
  0
LINE
  8
0
 62
     250
 10
9.70964
 20
316.848
 30
0.0
 11
12.1143
 21
315.279
 31
0.0
  0
LINE
  8
0
 62
     250
 10
12.1143
 20
315.279
 30
0.0
 11
14.1387
 21
314.634
 31
0.0
  0
LINE
  8
0
 62
     250
 10
14.1387
 20
314.634
 30
0.0
 11
14.8291
 21
314.553
 31
0.0
  0
LINE
  8
0
 62
     250
 10
14.8291
 20
314.553
 30
0.0
 11
14.8291
 21
314.628
 31
0.0
  0
LINE
  8
0
 62
     250
 10
24.9136
 20
332.027
 30
0.0
 11
7.8686
 21
332.027
 31
0.0
  0
LINE
  8
0
 62
     250
 10
7.8686
 20
332.027
 30
0.0
 11
7.8686
 21
331.976
 31
0.0
  0
LINE
  8
0
 62
     250
 10
7.8686
 20
331.976
 30
0.0
 11
9.67246
 21
328.852
 31
0.0
  0
LINE
  8
0
 62
     250
 10
9.67246
 20
328.852
 30
0.0
 11
8.09734
 21
328.344
 31
0.0
  0
LINE
  8
0
 62
     250
 10
8.09734
 20
328.344
 30
0.0
 11
5.88698
 21
332.281
 31
0.0
  0
LINE
  8
0
 62
     250
 10
5.88698
 20
332.281
 30
0.0
 11
5.88698
 21
334.085
 31
0.0
  0
LINE
  8
0
 62
     250
 10
5.88698
 20
334.085
 30
0.0
 11
24.9136
 21
334.085
 31
0.0
  0
LINE
  8
0
 62
     250
 10
24.9136
 20
334.085
 30
0.0
 11
24.9136
 21
332.027
 31
0.0
  0
LINE
  8
0
 62
     250
 10
15.3114
 20
350.264
 30
0.0
 11
14.4956
 21
350.264
 31
0.0
  0
LINE
  8
0
 62
     250
 10
14.4956
 20
350.264
 30
0.0
 11
12.0523
 21
350.045
 31
0.0
  0
LINE
  8
0
 62
     250
 10
12.0523
 20
350.045
 30
0.0
 11
9.51537
 21
349.36
 31
0.0
  0
LINE
  8
0
 62
     250
 10
9.51537
 20
349.36
 30
0.0
 11
7.86998
 21
348.175
 31
0.0
  0
LINE
  8
0
 62
     250
 10
7.86998
 20
348.175
 30
0.0
 11
7.2843
 21
346.885
 31
0.0
  0
LINE
  8
0
 62
     250
 10
7.2843
 20
346.885
 30
0.0
 11
7.2843
 21
346.454
 31
0.0
  0
LINE
  8
0
 62
     250
 10
7.2843
 20
346.454
 30
0.0
 11
7.2843
 21
346.065
 31
0.0
  0
LINE
  8
0
 62
     250
 10
7.2843
 20
346.065
 30
0.0
 11
7.83414
 21
344.898
 31
0.0
  0
LINE
  8
0
 62
     250
 10
7.83414
 20
344.898
 30
0.0
 11
9.42026
 21
343.676
 31
0.0
  0
LINE
  8
0
 62
     250
 10
9.42026
 20
343.676
 30
0.0
 11
11.9448
 21
342.879
 31
0.0
  0
LINE
  8
0
 62
     250
 10
11.9448
 20
342.879
 30
0.0
 11
14.4694
 21
342.593
 31
0.0
  0
LINE
  8
0
 62
     250
 10
14.4694
 20
342.593
 30
0.0
 11
15.3114
 21
342.593
 31
0.0
  0
LINE
  8
0
 62
     250
 10
15.3114
 20
342.593
 30
0.0
 11
16.1575
 21
342.593
 31
0.0
  0
LINE
  8
0
 62
     250
 10
16.1575
 20
342.593
 30
0.0
 11
18.7
 21
342.849
 31
0.0
  0
LINE
  8
0
 62
     250
 10
18.7
 20
342.849
 30
0.0
 11
21.2769
 21
343.59
 31
0.0
  0
LINE
  8
0
 62
     250
 10
21.2769
 20
343.59
 30
0.0
 11
22.9154
 21
344.78
 31
0.0
  0
LINE
  8
0
 62
     250
 10
22.9154
 20
344.78
 30
0.0
 11
23.49
 21
345.979
 31
0.0
  0
LINE
  8
0
 62
     250
 10
23.49
 20
345.979
 30
0.0
 11
23.49
 21
346.378
 31
0.0
  0
LINE
  8
0
 62
     250
 10
23.49
 20
346.378
 30
0.0
 11
23.49
 21
346.827
 31
0.0
  0
LINE
  8
0
 62
     250
 10
23.49
 20
346.827
 30
0.0
 11
22.8479
 21
348.175
 31
0.0
  0
LINE
  8
0
 62
     250
 10
22.8479
 20
348.175
 30
0.0
 11
21.095
 21
349.379
 31
0.0
  0
LINE
  8
0
 62
     250
 10
21.095
 20
349.379
 30
0.0
 11
18.496
 21
350.055
 31
0.0
  0
LINE
  8
0
 62
     250
 10
18.496
 20
350.055
 30
0.0
 11
16.1065
 21
350.264
 31
0.0
  0
LINE
  8
0
 62
     250
 10
16.1065
 20
350.264
 30
0.0
 11
15.3114
 21
350.264
 31
0.0
  0
LINE
  8
0
 62
     250
 10
15.463
 20
340.435
 30
0.0
 11
14.3743
 21
340.435
 31
0.0
  0
LINE
  8
0
 62
     250
 10
14.3743
 20
340.435
 30
0.0
 11
11.1111
 21
340.896
 31
0.0
  0
LINE
  8
0
 62
     250
 10
11.1111
 20
340.896
 30
0.0
 11
8.02707
 21
342.175
 31
0.0
  0
LINE
  8
0
 62
     250
 10
8.02707
 20
342.175
 30
0.0
 11
6.19016
 21
344.122
 31
0.0
  0
LINE
  8
0
 62
     250
 10
6.19016
 20
344.122
 30
0.0
 11
5.58243
 21
345.967
 31
0.0
  0
LINE
  8
0
 62
     250
 10
5.58243
 20
345.967
 30
0.0
 11
5.58243
 21
346.582
 31
0.0
  0
LINE
  8
0
 62
     250
 10
5.58243
 20
346.582
 30
0.0
 11
5.58243
 21
347.19
 31
0.0
  0
LINE
  8
0
 62
     250
 10
5.58243
 20
347.19
 30
0.0
 11
6.21083
 21
349.013
 31
0.0
  0
LINE
  8
0
 62
     250
 10
6.21083
 20
349.013
 30
0.0
 11
8.06154
 21
350.843
 31
0.0
  0
LINE
  8
0
 62
     250
 10
8.06154
 20
350.843
 30
0.0
 11
11.0794
 21
351.998
 31
0.0
  0
LINE
  8
0
 62
     250
 10
11.0794
 20
351.998
 30
0.0
 11
14.1759
 21
352.399
 31
0.0
  0
LINE
  8
0
 62
     250
 10
14.1759
 20
352.399
 30
0.0
 11
15.2094
 21
352.399
 31
0.0
  0
LINE
  8
0
 62
     250
 10
15.2094
 20
352.399
 30
0.0
 11
16.2967
 21
352.399
 31
0.0
  0
LINE
  8
0
 62
     250
 10
16.2967
 20
352.399
 30
0.0
 11
19.5585
 21
351.978
 31
0.0
  0
LINE
  8
0
 62
     250
 10
19.5585
 20
351.978
 30
0.0
 11
22.6894
 21
350.77
 31
0.0
  0
LINE
  8
0
 62
     250
 10
22.6894
 20
350.77
 30
0.0
 11
24.5828
 21
348.852
 31
0.0
  0
LINE
  8
0
 62
     250
 10
24.5828
 20
348.852
 30
0.0
 11
25.2181
 21
346.94
 31
0.0
  0
LINE
  8
0
 62
     250
 10
25.2181
 20
346.94
 30
0.0
 11
25.2181
 21
346.303
 31
0.0
  0
LINE
  8
0
 62
     250
 10
25.2181
 20
346.303
 30
0.0
 11
25.2181
 21
345.71
 31
0.0
  0
LINE
  8
0
 62
     250
 10
25.2181
 20
345.71
 30
0.0
 11
24.587
 21
343.929
 31
0.0
  0
LINE
  8
0
 62
     250
 10
24.587
 20
343.929
 30
0.0
 11
22.7211
 21
342.073
 31
0.0
  0
LINE
  8
0
 62
     250
 10
22.7211
 20
342.073
 30
0.0
 11
19.666
 21
340.866
 31
0.0
  0
LINE
  8
0
 62
     250
 10
19.666
 20
340.866
 30
0.0
 11
16.513
 21
340.435
 31
0.0
  0
LINE
  8
0
 62
     250
 10
16.513
 20
340.435
 30
0.0
 11
15.463
 21
340.435
 31
0.0
  0
LINE
  8
0
 62
     250
 10
2055.88
 20
582.115
 30
0.0
 11
1598.61
 21
582.115
 31
0.0
  0
LINE
  8
0
 62
     250
 10
2055.88
 20
0.176389
 30
0.0
 11
1598.61
 21
0.176389
 31
0.0
  0
LINE
  8
0
 62
     250
 10
2015.88
 20
5.16075
 30
0.0
 11
2015.88
 21
577.13
 31
0.0
  0
LINE
  8
0
 62
     250
 10
2021.49
 20
15.587
 30
0.0
 11
2019.83
 21
16.1892
 31
0.0
  0
LINE
  8
0
 62
     250
 10
2019.83
 20
16.1892
 30
0.0
 11
2015.88
 21
5.33301
 31
0.0
  0
LINE
  8
0
 62
     250
 10
2015.88
 20
5.33301
 30
0.0
 11
2011.93
 21
16.1892
 31
0.0
  0
LINE
  8
0
 62
     250
 10
2011.93
 20
16.1892
 30
0.0
 11
2010.27
 21
15.587
 31
0.0
  0
LINE
  8
0
 62
     250
 10
2010.27
 20
15.587
 30
0.0
 11
2015.88
 21
0.176389
 31
0.0
  0
LINE
  8
0
 62
     250
 10
2015.88
 20
0.176389
 30
0.0
 11
2021.49
 21
15.587
 31
0.0
  0
LINE
  8
0
 62
     250
 10
2021.49
 20
566.706
 30
0.0
 11
2019.83
 21
566.102
 31
0.0
  0
LINE
  8
0
 62
     250
 10
2019.83
 20
566.102
 30
0.0
 11
2015.88
 21
576.961
 31
0.0
  0
LINE
  8
0
 62
     250
 10
2015.88
 20
576.961
 30
0.0
 11
2011.93
 21
566.102
 31
0.0
  0
LINE
  8
0
 62
     250
 10
2011.93
 20
566.102
 30
0.0
 11
2010.27
 21
566.706
 31
0.0
  0
LINE
  8
0
 62
     250
 10
2010.27
 20
566.706
 30
0.0
 11
2015.88
 21
582.115
 31
0.0
  0
LINE
  8
0
 62
     250
 10
2015.88
 20
582.115
 30
0.0
 11
2021.49
 21
566.706
 31
0.0
  0
LINE
  8
0
 62
     250
 10
1984.2
 20
287.293
 30
0.0
 11
1985.95
 21
287.293
 31
0.0
  0
LINE
  8
0
 62
     250
 10
1985.95
 20
287.293
 30
0.0
 11
1985.95
 21
280.461
 31
0.0
  0
LINE
  8
0
 62
     250
 10
1985.95
 20
280.461
 30
0.0
 11
1991.33
 21
279.673
 31
0.0
  0
LINE
  8
0
 62
     250
 10
1991.33
 20
279.673
 30
0.0
 11
1991.32
 21
279.775
 31
0.0
  0
LINE
  8
0
 62
     250
 10
1991.32
 20
279.775
 30
0.0
 11
1991.26
 21
280.315
 31
0.0
  0
LINE
  8
0
 62
     250
 10
1991.26
 20
280.315
 30
0.0
 11
1991.23
 21
280.939
 31
0.0
  0
LINE
  8
0
 62
     250
 10
1991.23
 20
280.939
 30
0.0
 11
1991.23
 21
281.146
 31
0.0
  0
LINE
  8
0
 62
     250
 10
1991.23
 20
281.146
 30
0.0
 11
1991.23
 21
281.754
 31
0.0
  0
LINE
  8
0
 62
     250
 10
1991.23
 20
281.754
 30
0.0
 11
1991.6
 21
283.573
 31
0.0
  0
LINE
  8
0
 62
     250
 10
1991.6
 20
283.573
 30
0.0
 11
1992.71
 21
285.615
 31
0.0
  0
LINE
  8
0
 62
     250
 10
1992.71
 20
285.615
 30
0.0
 11
1994.54
 21
287.023
 31
0.0
  0
LINE
  8
0
 62
     250
 10
1994.54
 20
287.023
 30
0.0
 11
1996.44
 21
287.548
 31
0.0
  0
LINE
  8
0
 62
     250
 10
1996.44
 20
287.548
 30
0.0
 11
1997.08
 21
287.548
 31
0.0
  0
LINE
  8
0
 62
     250
 10
1997.08
 20
287.548
 30
0.0
 11
1997.72
 21
287.548
 31
0.0
  0
LINE
  8
0
 62
     250
 10
1997.72
 20
287.548
 30
0.0
 11
1999.67
 21
287.054
 31
0.0
  0
LINE
  8
0
 62
     250
 10
1999.67
 20
287.054
 30
0.0
 11
2001.71
 21
285.681
 31
0.0
  0
LINE
  8
0
 62
     250
 10
2001.71
 20
285.681
 30
0.0
 11
2003.05
 21
283.604
 31
0.0
  0
LINE
  8
0
 62
     250
 10
2003.05
 20
283.604
 30
0.0
 11
2003.53
 21
281.648
 31
0.0
  0
LINE
  8
0
 62
     250
 10
2003.53
 20
281.648
 30
0.0
 11
2003.53
 21
280.995
 31
0.0
  0
LINE
  8
0
 62
     250
 10
2003.53
 20
280.995
 30
0.0
 11
2003.53
 21
280.654
 31
0.0
  0
LINE
  8
0
 62
     250
 10
2003.53
 20
280.654
 30
0.0
 11
2003.43
 21
279.63
 31
0.0
  0
LINE
  8
0
 62
     250
 10
2003.43
 20
279.63
 30
0.0
 11
2003.17
 21
278.419
 31
0.0
  0
LINE
  8
0
 62
     250
 10
2003.17
 20
278.419
 30
0.0
 11
2002.82
 21
277.405
 31
0.0
  0
LINE
  8
0
 62
     250
 10
2002.82
 20
277.405
 30
0.0
 11
2002.53
 21
276.809
 31
0.0
  0
LINE
  8
0
 62
     250
 10
2002.53
 20
276.809
 30
0.0
 11
2002.41
 21
276.625
 31
0.0
  0
LINE
  8
0
 62
     250
 10
2002.41
 20
276.625
 30
0.0
 11
2000.76
 21
277.235
 31
0.0
  0
LINE
  8
0
 62
     250
 10
2000.76
 20
277.235
 30
0.0
 11
2000.86
 21
277.391
 31
0.0
  0
LINE
  8
0
 62
     250
 10
2000.86
 20
277.391
 30
0.0
 11
2001.12
 21
277.891
 31
0.0
  0
LINE
  8
0
 62
     250
 10
2001.12
 20
277.891
 30
0.0
 11
2001.47
 21
278.763
 31
0.0
  0
LINE
  8
0
 62
     250
 10
2001.47
 20
278.763
 30
0.0
 11
2001.72
 21
279.811
 31
0.0
  0
LINE
  8
0
 62
     250
 10
2001.72
 20
279.811
 30
0.0
 11
2001.82
 21
280.7
 31
0.0
  0
LINE
  8
0
 62
     250
 10
2001.82
 20
280.7
 30
0.0
 11
2001.82
 21
280.995
 31
0.0
  0
LINE
  8
0
 62
     250
 10
2001.82
 20
280.995
 30
0.0
 11
2001.82
 21
281.214
 31
0.0
  0
LINE
  8
0
 62
     250
 10
2001.82
 20
281.214
 30
0.0
 11
2001.74
 21
281.871
 31
0.0
  0
LINE
  8
0
 62
     250
 10
2001.74
 20
281.871
 30
0.0
 11
2001.51
 21
282.696
 31
0.0
  0
LINE
  8
0
 62
     250
 10
2001.51
 20
282.696
 30
0.0
 11
2001.12
 21
283.449
 31
0.0
  0
LINE
  8
0
 62
     250
 10
2001.12
 20
283.449
 30
0.0
 11
2000.6
 21
284.11
 31
0.0
  0
LINE
  8
0
 62
     250
 10
2000.6
 20
284.11
 30
0.0
 11
1999.95
 21
284.657
 31
0.0
  0
LINE
  8
0
 62
     250
 10
1999.95
 20
284.657
 30
0.0
 11
1999.18
 21
285.071
 31
0.0
  0
LINE
  8
0
 62
     250
 10
1999.18
 20
285.071
 30
0.0
 11
1998.31
 21
285.33
 31
0.0
  0
LINE
  8
0
 62
     250
 10
1998.31
 20
285.33
 30
0.0
 11
1997.57
 21
285.417
 31
0.0
  0
LINE
  8
0
 62
     250
 10
1997.57
 20
285.417
 30
0.0
 11
1997.33
 21
285.414
 31
0.0
  0
LINE
  8
0
 62
     250
 10
1997.33
 20
285.414
 30
0.0
 11
1996.88
 21
285.414
 31
0.0
  0
LINE
  8
0
 62
     250
 10
1996.88
 20
285.414
 30
0.0
 11
1995.53
 21
285.097
 31
0.0
  0
LINE
  8
0
 62
     250
 10
1995.53
 20
285.097
 30
0.0
 11
1994.12
 21
284.132
 31
0.0
  0
LINE
  8
0
 62
     250
 10
1994.12
 20
284.132
 30
0.0
 11
1993.21
 21
282.501
 31
0.0
  0
LINE
  8
0
 62
     250
 10
1993.21
 20
282.501
 30
0.0
 11
1992.88
 21
280.761
 31
0.0
  0
LINE
  8
0
 62
     250
 10
1992.88
 20
280.761
 30
0.0
 11
1992.88
 21
280.181
 31
0.0
  0
LINE
  8
0
 62
     250
 10
1992.88
 20
280.181
 30
0.0
 11
1992.88
 21
279.841
 31
0.0
  0
LINE
  8
0
 62
     250
 10
1992.88
 20
279.841
 30
0.0
 11
1992.93
 21
278.82
 31
0.0
  0
LINE
  8
0
 62
     250
 10
1992.93
 20
278.82
 30
0.0
 11
1993.04
 21
277.902
 31
0.0
  0
LINE
  8
0
 62
     250
 10
1993.04
 20
277.902
 30
0.0
 11
1993.06
 21
277.742
 31
0.0
  0
LINE
  8
0
 62
     250
 10
1993.06
 20
277.742
 30
0.0
 11
1984.2
 21
278.937
 31
0.0
  0
LINE
  8
0
 62
     250
 10
1984.2
 20
278.937
 30
0.0
 11
1984.2
 21
287.293
 31
0.0
  0
LINE
  8
0
 62
     250
 10
1988.64
 20
293.288
 30
0.0
 11
1988.98
 21
293.284
 31
0.0
  0
LINE
  8
0
 62
     250
 10
1988.98
 20
293.284
 30
0.0
 11
1990
 21
293.533
 31
0.0
  0
LINE
  8
0
 62
     250
 10
1990
 20
293.533
 30
0.0
 11
1991.06
 21
294.254
 31
0.0
  0
LINE
  8
0
 62
     250
 10
1991.06
 20
294.254
 30
0.0
 11
1991.85
 21
295.374
 31
0.0
  0
LINE
  8
0
 62
     250
 10
1991.85
 20
295.374
 30
0.0
 11
1992.31
 21
296.449
 31
0.0
  0
LINE
  8
0
 62
     250
 10
1992.31
 20
296.449
 30
0.0
 11
1992.43
 21
296.818
 31
0.0
  0
LINE
  8
0
 62
     250
 10
1992.43
 20
296.818
 30
0.0
 11
1992.31
 21
297.119
 31
0.0
  0
LINE
  8
0
 62
     250
 10
1992.31
 20
297.119
 30
0.0
 11
1991.83
 21
297.968
 31
0.0
  0
LINE
  8
0
 62
     250
 10
1991.83
 20
297.968
 30
0.0
 11
1991
 21
298.885
 31
0.0
  0
LINE
  8
0
 62
     250
 10
1991
 20
298.885
 30
0.0
 11
1989.95
 21
299.495
 31
0.0
  0
LINE
  8
0
 62
     250
 10
1989.95
 20
299.495
 30
0.0
 11
1989
 21
299.714
 31
0.0
  0
LINE
  8
0
 62
     250
 10
1989
 20
299.714
 30
0.0
 11
1988.69
 21
299.714
 31
0.0
  0
LINE
  8
0
 62
     250
 10
1988.69
 20
299.714
 30
0.0
 11
1988.39
 21
299.714
 31
0.0
  0
LINE
  8
0
 62
     250
 10
1988.39
 20
299.714
 30
0.0
 11
1987.51
 21
299.54
 31
0.0
  0
LINE
  8
0
 62
     250
 10
1987.51
 20
299.54
 30
0.0
 11
1986.47
 21
298.99
 31
0.0
  0
LINE
  8
0
 62
     250
 10
1986.47
 20
298.99
 30
0.0
 11
1985.72
 21
298.021
 31
0.0
  0
LINE
  8
0
 62
     250
 10
1985.72
 20
298.021
 30
0.0
 11
1985.44
 21
296.948
 31
0.0
  0
LINE
  8
0
 62
     250
 10
1985.44
 20
296.948
 30
0.0
 11
1985.44
 21
296.59
 31
0.0
  0
LINE
  8
0
 62
     250
 10
1985.44
 20
296.59
 30
0.0
 11
1985.44
 21
296.229
 31
0.0
  0
LINE
  8
0
 62
     250
 10
1985.44
 20
296.229
 30
0.0
 11
1985.71
 21
295.141
 31
0.0
  0
LINE
  8
0
 62
     250
 10
1985.71
 20
295.141
 30
0.0
 11
1986.42
 21
294.11
 31
0.0
  0
LINE
  8
0
 62
     250
 10
1986.42
 20
294.11
 30
0.0
 11
1987.44
 21
293.493
 31
0.0
  0
LINE
  8
0
 62
     250
 10
1987.44
 20
293.493
 30
0.0
 11
1988.34
 21
293.288
 31
0.0
  0
LINE
  8
0
 62
     250
 10
1988.34
 20
293.288
 30
0.0
 11
1988.64
 21
293.288
 31
0.0
  0
LINE
  8
0
 62
     250
 10
1998.32
 20
300.273
 30
0.0
 11
1997.92
 21
300.273
 31
0.0
  0
LINE
  8
0
 62
     250
 10
1997.92
 20
300.273
 30
0.0
 11
1996.74
 21
299.985
 31
0.0
  0
LINE
  8
0
 62
     250
 10
1996.74
 20
299.985
 30
0.0
 11
1995.52
 21
299.16
 31
0.0
  0
LINE
  8
0
 62
     250
 10
1995.52
 20
299.16
 30
0.0
 11
1994.6
 21
297.863
 31
0.0
  0
LINE
  8
0
 62
     250
 10
1994.6
 20
297.863
 30
0.0
 11
1994.04
 21
296.595
 31
0.0
  0
LINE
  8
0
 62
     250
 10
1994.04
 20
296.595
 30
0.0
 11
1993.9
 21
296.158
 31
0.0
  0
LINE
  8
0
 62
     250
 10
1993.9
 20
296.158
 30
0.0
 11
1994.03
 21
295.772
 31
0.0
  0
LINE
  8
0
 62
     250
 10
1994.03
 20
295.772
 30
0.0
 11
1994.61
 21
294.68
 31
0.0
  0
LINE
  8
0
 62
     250
 10
1994.61
 20
294.68
 30
0.0
 11
1995.59
 21
293.606
 31
0.0
  0
LINE
  8
0
 62
     250
 10
1995.59
 20
293.606
 30
0.0
 11
1996.79
 21
292.95
 31
0.0
  0
LINE
  8
0
 62
     250
 10
1996.79
 20
292.95
 30
0.0
 11
1997.8
 21
292.728
 31
0.0
  0
LINE
  8
0
 62
     250
 10
1997.8
 20
292.728
 30
0.0
 11
1998.14
 21
292.728
 31
0.0
  0
LINE
  8
0
 62
     250
 10
1998.14
 20
292.728
 30
0.0
 11
1998.52
 21
292.728
 31
0.0
  0
LINE
  8
0
 62
     250
 10
1998.52
 20
292.728
 30
0.0
 11
1999.65
 21
292.991
 31
0.0
  0
LINE
  8
0
 62
     250
 10
1999.65
 20
292.991
 30
0.0
 11
2000.85
 21
293.739
 31
0.0
  0
LINE
  8
0
 62
     250
 10
2000.85
 20
293.739
 30
0.0
 11
2001.66
 21
294.915
 31
0.0
  0
LINE
  8
0
 62
     250
 10
2001.66
 20
294.915
 30
0.0
 11
2001.95
 21
296.077
 31
0.0
  0
LINE
  8
0
 62
     250
 10
2001.95
 20
296.077
 30
0.0
 11
2001.95
 21
296.463
 31
0.0
  0
LINE
  8
0
 62
     250
 10
2001.95
 20
296.463
 30
0.0
 11
2001.95
 21
296.87
 31
0.0
  0
LINE
  8
0
 62
     250
 10
2001.95
 20
296.87
 30
0.0
 11
2001.66
 21
298.088
 31
0.0
  0
LINE
  8
0
 62
     250
 10
2001.66
 20
298.088
 30
0.0
 11
2000.88
 21
299.282
 31
0.0
  0
LINE
  8
0
 62
     250
 10
2000.88
 20
299.282
 30
0.0
 11
1999.72
 21
300.021
 31
0.0
  0
LINE
  8
0
 62
     250
 10
1999.72
 20
300.021
 30
0.0
 11
1998.67
 21
300.273
 31
0.0
  0
LINE
  8
0
 62
     250
 10
1998.67
 20
300.273
 30
0.0
 11
1998.32
 21
300.273
 31
0.0
  0
LINE
  8
0
 62
     250
 10
1993.14
 20
294.253
 30
0.0
 11
1992.97
 21
293.898
 31
0.0
  0
LINE
  8
0
 62
     250
 10
1992.97
 20
293.898
 30
0.0
 11
1992.27
 21
292.921
 31
0.0
  0
LINE
  8
0
 62
     250
 10
1992.27
 20
292.921
 30
0.0
 11
1991.23
 21
291.997
 31
0.0
  0
LINE
  8
0
 62
     250
 10
1991.23
 20
291.997
 30
0.0
 11
1990.06
 21
291.457
 31
0.0
  0
LINE
  8
0
 62
     250
 10
1990.06
 20
291.457
 30
0.0
 11
1989.15
 21
291.282
 31
0.0
  0
LINE
  8
0
 62
     250
 10
1989.15
 20
291.282
 30
0.0
 11
1988.84
 21
291.282
 31
0.0
  0
LINE
  8
0
 62
     250
 10
1988.84
 20
291.282
 30
0.0
 11
1988.58
 21
291.282
 31
0.0
  0
LINE
  8
0
 62
     250
 10
1988.58
 20
291.282
 30
0.0
 11
1987.78
 21
291.387
 31
0.0
  0
LINE
  8
0
 62
     250
 10
1987.78
 20
291.387
 30
0.0
 11
1986.83
 21
291.691
 31
0.0
  0
LINE
  8
0
 62
     250
 10
1986.83
 20
291.691
 30
0.0
 11
1985.98
 21
292.176
 31
0.0
  0
LINE
  8
0
 62
     250
 10
1985.98
 20
292.176
 30
0.0
 11
1985.26
 21
292.822
 31
0.0
  0
LINE
  8
0
 62
     250
 10
1985.26
 20
292.822
 30
0.0
 11
1984.68
 21
293.612
 31
0.0
  0
LINE
  8
0
 62
     250
 10
1984.68
 20
293.612
 30
0.0
 11
1984.25
 21
294.528
 31
0.0
  0
LINE
  8
0
 62
     250
 10
1984.25
 20
294.528
 30
0.0
 11
1983.98
 21
295.552
 31
0.0
  0
LINE
  8
0
 62
     250
 10
1983.98
 20
295.552
 30
0.0
 11
1983.89
 21
296.387
 31
0.0
  0
LINE
  8
0
 62
     250
 10
1983.89
 20
296.387
 30
0.0
 11
1983.89
 21
296.665
 31
0.0
  0
LINE
  8
0
 62
     250
 10
1983.89
 20
296.665
 30
0.0
 11
1983.89
 21
296.969
 31
0.0
  0
LINE
  8
0
 62
     250
 10
1983.89
 20
296.969
 30
0.0
 11
1983.99
 21
297.877
 31
0.0
  0
LINE
  8
0
 62
     250
 10
1983.99
 20
297.877
 30
0.0
 11
1984.29
 21
298.921
 31
0.0
  0
LINE
  8
0
 62
     250
 10
1984.29
 20
298.921
 30
0.0
 11
1984.75
 21
299.799
 31
0.0
  0
LINE
  8
0
 62
     250
 10
1984.75
 20
299.799
 30
0.0
 11
1985.35
 21
300.514
 31
0.0
  0
LINE
  8
0
 62
     250
 10
1985.35
 20
300.514
 30
0.0
 11
1986.04
 21
301.067
 31
0.0
  0
LINE
  8
0
 62
     250
 10
1986.04
 20
301.067
 30
0.0
 11
1986.83
 21
301.46
 31
0.0
  0
LINE
  8
0
 62
     250
 10
1986.83
 20
301.46
 30
0.0
 11
1987.66
 21
301.694
 31
0.0
  0
LINE
  8
0
 62
     250
 10
1987.66
 20
301.694
 30
0.0
 11
1988.3
 21
301.771
 31
0.0
  0
LINE
  8
0
 62
     250
 10
1988.3
 20
301.771
 30
0.0
 11
1988.51
 21
301.771
 31
0.0
  0
LINE
  8
0
 62
     250
 10
1988.51
 20
301.771
 30
0.0
 11
1988.82
 21
301.771
 31
0.0
  0
LINE
  8
0
 62
     250
 10
1988.82
 20
301.771
 30
0.0
 11
1989.75
 21
301.602
 31
0.0
  0
LINE
  8
0
 62
     250
 10
1989.75
 20
301.602
 30
0.0
 11
1990.96
 21
301.057
 31
0.0
  0
LINE
  8
0
 62
     250
 10
1990.96
 20
301.057
 30
0.0
 11
1992.07
 21
300.09
 31
0.0
  0
LINE
  8
0
 62
     250
 10
1992.07
 20
300.09
 30
0.0
 11
1992.82
 21
299.031
 31
0.0
  0
LINE
  8
0
 62
     250
 10
1992.82
 20
299.031
 30
0.0
 11
1993.01
 21
298.647
 31
0.0
  0
LINE
  8
0
 62
     250
 10
1993.01
 20
298.647
 30
0.0
 11
1993.11
 21
298.647
 31
0.0
  0
LINE
  8
0
 62
     250
 10
1993.11
 20
298.647
 30
0.0
 11
1993.29
 21
299.06
 31
0.0
  0
LINE
  8
0
 62
     250
 10
1993.29
 20
299.06
 30
0.0
 11
1993.98
 21
300.225
 31
0.0
  0
LINE
  8
0
 62
     250
 10
1993.98
 20
300.225
 30
0.0
 11
1995.11
 21
301.417
 31
0.0
  0
LINE
  8
0
 62
     250
 10
1995.11
 20
301.417
 30
0.0
 11
1996.49
 21
302.171
 31
0.0
  0
LINE
  8
0
 62
     250
 10
1996.49
 20
302.171
 30
0.0
 11
1997.69
 21
302.433
 31
0.0
  0
LINE
  8
0
 62
     250
 10
1997.69
 20
302.433
 30
0.0
 11
1998.09
 21
302.433
 31
0.0
  0
LINE
  8
0
 62
     250
 10
1998.09
 20
302.433
 30
0.0
 11
1998.64
 21
302.433
 31
0.0
  0
LINE
  8
0
 62
     250
 10
1998.64
 20
302.433
 30
0.0
 11
2000.3
 21
301.968
 31
0.0
  0
LINE
  8
0
 62
     250
 10
2000.3
 20
301.968
 30
0.0
 11
2002.02
 21
300.693
 31
0.0
  0
LINE
  8
0
 62
     250
 10
2002.02
 20
300.693
 30
0.0
 11
2003.13
 21
298.789
 31
0.0
  0
LINE
  8
0
 62
     250
 10
2003.13
 20
298.789
 30
0.0
 11
2003.53
 21
297.025
 31
0.0
  0
LINE
  8
0
 62
     250
 10
2003.53
 20
297.025
 30
0.0
 11
2003.53
 21
296.437
 31
0.0
  0
LINE
  8
0
 62
     250
 10
2003.53
 20
296.437
 30
0.0
 11
2003.53
 21
295.825
 31
0.0
  0
LINE
  8
0
 62
     250
 10
2003.53
 20
295.825
 30
0.0
 11
2003.12
 21
293.988
 31
0.0
  0
LINE
  8
0
 62
     250
 10
2003.12
 20
293.988
 30
0.0
 11
2002.03
 21
292.141
 31
0.0
  0
LINE
  8
0
 62
     250
 10
2002.03
 20
292.141
 30
0.0
 11
2000.42
 21
290.976
 31
0.0
  0
LINE
  8
0
 62
     250
 10
2000.42
 20
290.976
 30
0.0
 11
1998.96
 21
290.569
 31
0.0
  0
LINE
  8
0
 62
     250
 10
1998.96
 20
290.569
 30
0.0
 11
1998.47
 21
290.569
 31
0.0
  0
LINE
  8
0
 62
     250
 10
1998.47
 20
290.569
 30
0.0
 11
1998.04
 21
290.569
 31
0.0
  0
LINE
  8
0
 62
     250
 10
1998.04
 20
290.569
 30
0.0
 11
1996.75
 21
290.835
 31
0.0
  0
LINE
  8
0
 62
     250
 10
1996.75
 20
290.835
 30
0.0
 11
1995.3
 21
291.582
 31
0.0
  0
LINE
  8
0
 62
     250
 10
1995.3
 20
291.582
 30
0.0
 11
1994.13
 21
292.745
 31
0.0
  0
LINE
  8
0
 62
     250
 10
1994.13
 20
292.745
 30
0.0
 11
1993.42
 21
293.857
 31
0.0
  0
LINE
  8
0
 62
     250
 10
1993.42
 20
293.857
 30
0.0
 11
1993.24
 21
294.253
 31
0.0
  0
LINE
  8
0
 62
     250
 10
1993.24
 20
294.253
 30
0.0
 11
1993.14
 21
294.253
 31
0.0
  0
LINE
  8
0
 62
     250
 10
1993.62
 20
314.319
 30
0.0
 11
1992.8
 21
314.319
 31
0.0
  0
LINE
  8
0
 62
     250
 10
1992.8
 20
314.319
 30
0.0
 11
1990.36
 21
314.1
 31
0.0
  0
LINE
  8
0
 62
     250
 10
1990.36
 20
314.1
 30
0.0
 11
1987.82
 21
313.416
 31
0.0
  0
LINE
  8
0
 62
     250
 10
1987.82
 20
313.416
 30
0.0
 11
1986.18
 21
312.231
 31
0.0
  0
LINE
  8
0
 62
     250
 10
1986.18
 20
312.231
 30
0.0
 11
1985.59
 21
310.94
 31
0.0
  0
LINE
  8
0
 62
     250
 10
1985.59
 20
310.94
 30
0.0
 11
1985.59
 21
310.509
 31
0.0
  0
LINE
  8
0
 62
     250
 10
1985.59
 20
310.509
 30
0.0
 11
1985.59
 21
310.121
 31
0.0
  0
LINE
  8
0
 62
     250
 10
1985.59
 20
310.121
 30
0.0
 11
1986.14
 21
308.952
 31
0.0
  0
LINE
  8
0
 62
     250
 10
1986.14
 20
308.952
 30
0.0
 11
1987.73
 21
307.731
 31
0.0
  0
LINE
  8
0
 62
     250
 10
1987.73
 20
307.731
 30
0.0
 11
1990.25
 21
306.935
 31
0.0
  0
LINE
  8
0
 62
     250
 10
1990.25
 20
306.935
 30
0.0
 11
1992.78
 21
306.648
 31
0.0
  0
LINE
  8
0
 62
     250
 10
1992.78
 20
306.648
 30
0.0
 11
1993.62
 21
306.648
 31
0.0
  0
LINE
  8
0
 62
     250
 10
1993.62
 20
306.648
 30
0.0
 11
1994.46
 21
306.648
 31
0.0
  0
LINE
  8
0
 62
     250
 10
1994.46
 20
306.648
 30
0.0
 11
1997.01
 21
306.904
 31
0.0
  0
LINE
  8
0
 62
     250
 10
1997.01
 20
306.904
 30
0.0
 11
1999.59
 21
307.645
 31
0.0
  0
LINE
  8
0
 62
     250
 10
1999.59
 20
307.645
 30
0.0
 11
2001.22
 21
308.835
 31
0.0
  0
LINE
  8
0
 62
     250
 10
2001.22
 20
308.835
 30
0.0
 11
2001.8
 21
310.034
 31
0.0
  0
LINE
  8
0
 62
     250
 10
2001.8
 20
310.034
 30
0.0
 11
2001.8
 21
310.432
 31
0.0
  0
LINE
  8
0
 62
     250
 10
2001.8
 20
310.432
 30
0.0
 11
2001.8
 21
310.883
 31
0.0
  0
LINE
  8
0
 62
     250
 10
2001.8
 20
310.883
 30
0.0
 11
2001.16
 21
312.231
 31
0.0
  0
LINE
  8
0
 62
     250
 10
2001.16
 20
312.231
 30
0.0
 11
1999.4
 21
313.435
 31
0.0
  0
LINE
  8
0
 62
     250
 10
1999.4
 20
313.435
 30
0.0
 11
1996.8
 21
314.11
 31
0.0
  0
LINE
  8
0
 62
     250
 10
1996.8
 20
314.11
 30
0.0
 11
1994.42
 21
314.319
 31
0.0
  0
LINE
  8
0
 62
     250
 10
1994.42
 20
314.319
 30
0.0
 11
1993.62
 21
314.319
 31
0.0
  0
LINE
  8
0
 62
     250
 10
1993.77
 20
304.488
 30
0.0
 11
1992.68
 21
304.488
 31
0.0
  0
LINE
  8
0
 62
     250
 10
1992.68
 20
304.488
 30
0.0
 11
1989.42
 21
304.95
 31
0.0
  0
LINE
  8
0
 62
     250
 10
1989.42
 20
304.95
 30
0.0
 11
1986.33
 21
306.229
 31
0.0
  0
LINE
  8
0
 62
     250
 10
1986.33
 20
306.229
 30
0.0
 11
1984.5
 21
308.176
 31
0.0
  0
LINE
  8
0
 62
     250
 10
1984.5
 20
308.176
 30
0.0
 11
1983.89
 21
310.021
 31
0.0
  0
LINE
  8
0
 62
     250
 10
1983.89
 20
310.021
 30
0.0
 11
1983.89
 21
310.636
 31
0.0
  0
LINE
  8
0
 62
     250
 10
1983.89
 20
310.636
 30
0.0
 11
1983.89
 21
311.244
 31
0.0
  0
LINE
  8
0
 62
     250
 10
1983.89
 20
311.244
 30
0.0
 11
1984.52
 21
313.067
 31
0.0
  0
LINE
  8
0
 62
     250
 10
1984.52
 20
313.067
 30
0.0
 11
1986.37
 21
314.897
 31
0.0
  0
LINE
  8
0
 62
     250
 10
1986.37
 20
314.897
 30
0.0
 11
1989.39
 21
316.052
 31
0.0
  0
LINE
  8
0
 62
     250
 10
1989.39
 20
316.052
 30
0.0
 11
1992.48
 21
316.453
 31
0.0
  0
LINE
  8
0
 62
     250
 10
1992.48
 20
316.453
 30
0.0
 11
1993.52
 21
316.453
 31
0.0
  0
LINE
  8
0
 62
     250
 10
1993.52
 20
316.453
 30
0.0
 11
1994.61
 21
316.453
 31
0.0
  0
LINE
  8
0
 62
     250
 10
1994.61
 20
316.453
 30
0.0
 11
1997.87
 21
316.034
 31
0.0
  0
LINE
  8
0
 62
     250
 10
1997.87
 20
316.034
 30
0.0
 11
2001
 21
314.825
 31
0.0
  0
LINE
  8
0
 62
     250
 10
2001
 20
314.825
 30
0.0
 11
2002.89
 21
312.907
 31
0.0
  0
LINE
  8
0
 62
     250
 10
2002.89
 20
312.907
 30
0.0
 11
2003.53
 21
310.994
 31
0.0
  0
LINE
  8
0
 62
     250
 10
2003.53
 20
310.994
 30
0.0
 11
2003.53
 21
310.356
 31
0.0
  0
LINE
  8
0
 62
     250
 10
2003.53
 20
310.356
 30
0.0
 11
2003.53
 21
309.764
 31
0.0
  0
LINE
  8
0
 62
     250
 10
2003.53
 20
309.764
 30
0.0
 11
2002.9
 21
307.983
 31
0.0
  0
LINE
  8
0
 62
     250
 10
2002.9
 20
307.983
 30
0.0
 11
2001.03
 21
306.127
 31
0.0
  0
LINE
  8
0
 62
     250
 10
2001.03
 20
306.127
 30
0.0
 11
1997.97
 21
304.92
 31
0.0
  0
LINE
  8
0
 62
     250
 10
1997.97
 20
304.92
 30
0.0
 11
1994.82
 21
304.488
 31
0.0
  0
LINE
  8
0
 62
     250
 10
1994.82
 20
304.488
 30
0.0
 11
1993.77
 21
304.488
 31
0.0
  0
ENDSEC
  0
EOF
