  0
SECTION
  2
HEADER
  9
$ACADVER
  1
AC1009
  9
$EXTMIN
 10
0.0
 20
0.0
 30
0.0
  9
$EXTMAX
 10
1000.0
 20
1000.0
 30
0.0
  9
$FILLMODE
 70
 0
  9
$SPLFRAME
 70
 1
  0
ENDSEC
  0
SECTION
  2
TABLES
  0
TABLE
  2
LAYER
 70
1
  0
LAYER
  2
0
 70
     0
 62
     7
  6
CONTINUOUS
  0
ENDTAB
  0
ENDSEC
  0
SECTION
  2
ENTITIES
  0
LINE
  8
0
 62
     250
 10
1934.63
 20
324.85
 30
0.0
 11
1934.58
 21
323.171
 31
0.0
  0
LINE
  8
0
 62
     250
 10
1934.58
 20
323.171
 30
0.0
 11
1934.43
 21
318.127
 31
0.0
  0
LINE
  8
0
 62
     250
 10
1934.43
 20
318.127
 30
0.0
 11
1934.15
 21
310.855
 31
0.0
  0
LINE
  8
0
 62
     250
 10
1934.15
 20
310.855
 30
0.0
 11
1933.73
 21
303.021
 31
0.0
  0
LINE
  8
0
 62
     250
 10
1933.73
 20
303.021
 30
0.0
 11
1933.1
 21
294.609
 31
0.0
  0
LINE
  8
0
 62
     250
 10
1933.1
 20
294.609
 30
0.0
 11
1932.21
 21
285.605
 31
0.0
  0
LINE
  8
0
 62
     250
 10
1932.21
 20
285.605
 30
0.0
 11
1931
 21
275.994
 31
0.0
  0
LINE
  8
0
 62
     250
 10
1931
 20
275.994
 30
0.0
 11
1929.41
 21
265.762
 31
0.0
  0
LINE
  8
0
 62
     250
 10
1929.41
 20
265.762
 30
0.0
 11
1927.93
 21
257.601
 31
0.0
  0
LINE
  8
0
 62
     250
 10
1927.93
 20
257.601
 30
0.0
 11
1927.38
 21
254.891
 31
0.0
  0
LINE
  8
0
 62
     250
 10
1927.38
 20
254.891
 30
0.0
 11
1926.83
 21
252.196
 31
0.0
  0
LINE
  8
0
 62
     250
 10
1926.83
 20
252.196
 30
0.0
 11
1925.09
 21
244.128
 31
0.0
  0
LINE
  8
0
 62
     250
 10
1925.09
 20
244.128
 30
0.0
 11
1922.7
 21
234.083
 31
0.0
  0
LINE
  8
0
 62
     250
 10
1922.7
 20
234.083
 30
0.0
 11
1920.13
 21
224.55
 31
0.0
  0
LINE
  8
0
 62
     250
 10
1920.13
 20
224.55
 30
0.0
 11
1917.28
 21
215.324
 31
0.0
  0
LINE
  8
0
 62
     250
 10
1917.28
 20
215.324
 30
0.0
 11
1914.05
 21
206.2
 31
0.0
  0
LINE
  8
0
 62
     250
 10
1914.05
 20
206.2
 30
0.0
 11
1910.35
 21
196.971
 31
0.0
  0
LINE
  8
0
 62
     250
 10
1910.35
 20
196.971
 30
0.0
 11
1906.09
 21
187.43
 31
0.0
  0
LINE
  8
0
 62
     250
 10
1906.09
 20
187.43
 30
0.0
 11
1902.44
 21
179.868
 31
0.0
  0
LINE
  8
0
 62
     250
 10
1902.44
 20
179.868
 30
0.0
 11
1901.18
 21
177.373
 31
0.0
  0
LINE
  8
0
 62
     250
 10
1901.18
 20
177.373
 30
0.0
 11
1898.55
 21
172.205
 31
0.0
  0
LINE
  8
0
 62
     250
 10
1898.55
 20
172.205
 30
0.0
 11
1889.9
 21
157.095
 31
0.0
  0
LINE
  8
0
 62
     250
 10
1889.9
 20
157.095
 30
0.0
 11
1877.18
 21
137.492
 31
0.0
  0
LINE
  8
0
 62
     250
 10
1877.18
 20
137.492
 30
0.0
 11
1863.06
 21
118.109
 31
0.0
  0
LINE
  8
0
 62
     250
 10
1863.06
 20
118.109
 30
0.0
 11
1851.52
 21
103.338
 31
0.0
  0
LINE
  8
0
 62
     250
 10
1851.52
 20
103.338
 30
0.0
 11
1847.58
 21
98.4871
 31
0.0
  0
LINE
  8
0
 62
     250
 10
1847.58
 20
98.4871
 30
0.0
 11
1845.52
 21
95.9527
 31
0.0
  0
LINE
  8
0
 62
     250
 10
1845.52
 20
95.9527
 30
0.0
 11
1839
 21
88.6273
 31
0.0
  0
LINE
  8
0
 62
     250
 10
1839
 20
88.6273
 30
0.0
 11
1829.59
 21
79.0166
 31
0.0
  0
LINE
  8
0
 62
     250
 10
1829.59
 20
79.0166
 30
0.0
 11
1819.61
 21
69.7727
 31
0.0
  0
LINE
  8
0
 62
     250
 10
1819.61
 20
69.7727
 30
0.0
 11
1809.3
 21
61.0126
 31
0.0
  0
LINE
  8
0
 62
     250
 10
1809.3
 20
61.0126
 30
0.0
 11
1798.93
 21
52.8532
 31
0.0
  0
LINE
  8
0
 62
     250
 10
1798.93
 20
52.8532
 30
0.0
 11
1788.76
 21
45.4106
 31
0.0
  0
LINE
  8
0
 62
     250
 10
1788.76
 20
45.4106
 30
0.0
 11
1779.04
 21
38.8041
 31
0.0
  0
LINE
  8
0
 62
     250
 10
1779.04
 20
38.8041
 30
0.0
 11
1772.31
 21
34.5157
 31
0.0
  0
LINE
  8
0
 62
     250
 10
1772.31
 20
34.5157
 30
0.0
 11
1770.02
 21
33.1473
 31
0.0
  0
LINE
  8
0
 62
     250
 10
1770.02
 20
33.1473
 30
0.0
 11
1767.82
 21
31.8258
 31
0.0
  0
LINE
  8
0
 62
     250
 10
1767.82
 20
31.8258
 30
0.0
 11
1761.02
 21
28.1767
 31
0.0
  0
LINE
  8
0
 62
     250
 10
1761.02
 20
28.1767
 30
0.0
 11
1751.33
 21
23.5686
 31
0.0
  0
LINE
  8
0
 62
     250
 10
1751.33
 20
23.5686
 30
0.0
 11
1741.22
 21
19.3669
 31
0.0
  0
LINE
  8
0
 62
     250
 10
1741.22
 20
19.3669
 30
0.0
 11
1730.97
 21
15.609
 31
0.0
  0
LINE
  8
0
 62
     250
 10
1730.97
 20
15.609
 30
0.0
 11
1720.84
 21
12.3376
 31
0.0
  0
LINE
  8
0
 62
     250
 10
1720.84
 20
12.3376
 30
0.0
 11
1711.1
 21
9.58977
 31
0.0
  0
LINE
  8
0
 62
     250
 10
1711.1
 20
9.58977
 30
0.0
 11
1702.03
 21
7.40833
 31
0.0
  0
LINE
  8
0
 62
     250
 10
1702.03
 20
7.40833
 30
0.0
 11
1695.93
 21
6.17224
 31
0.0
  0
LINE
  8
0
 62
     250
 10
1695.93
 20
6.17224
 30
0.0
 11
1693.88
 21
5.83188
 31
0.0
  0
LINE
  8
0
 62
     250
 10
1693.88
 20
5.83188
 30
0.0
 11
1690.25
 21
5.22827
 31
0.0
  0
LINE
  8
0
 62
     250
 10
1690.25
 20
5.22827
 30
0.0
 11
1679.29
 21
3.79236
 31
0.0
  0
LINE
  8
0
 62
     250
 10
1679.29
 20
3.79236
 30
0.0
 11
1665.67
 21
2.61276
 31
0.0
  0
LINE
  8
0
 62
     250
 10
1665.67
 20
2.61276
 30
0.0
 11
1652.81
 21
2.14147
 31
0.0
  0
LINE
  8
0
 62
     250
 10
1652.81
 20
2.14147
 30
0.0
 11
1643.54
 21
2.14974
 31
0.0
  0
LINE
  8
0
 62
     250
 10
1643.54
 20
2.14974
 30
0.0
 11
1640.45
 21
2.22966
 31
0.0
  0
LINE
  8
0
 62
     250
 10
1640.45
 20
2.22966
 30
0.0
 11
1638.9
 21
2.27101
 31
0.0
  0
LINE
  8
0
 62
     250
 10
1638.9
 20
2.27101
 30
0.0
 11
1634.26
 21
2.4846
 31
0.0
  0
LINE
  8
0
 62
     250
 10
1634.26
 20
2.4846
 30
0.0
 11
1627.82
 21
2.96278
 31
0.0
  0
LINE
  8
0
 62
     250
 10
1627.82
 20
2.96278
 30
0.0
 11
1621.08
 21
3.71242
 31
0.0
  0
LINE
  8
0
 62
     250
 10
1621.08
 20
3.71242
 30
0.0
 11
1614
 21
4.7818
 31
0.0
  0
LINE
  8
0
 62
     250
 10
1614
 20
4.7818
 30
0.0
 11
1606.52
 21
6.21908
 31
0.0
  0
LINE
  8
0
 62
     250
 10
1606.52
 20
6.21908
 30
0.0
 11
1598.59
 21
8.07392
 31
0.0
  0
LINE
  8
0
 62
     250
 10
1598.59
 20
8.07392
 30
0.0
 11
1590.15
 21
10.3945
 31
0.0
  0
LINE
  8
0
 62
     250
 10
1590.15
 20
10.3945
 30
0.0
 11
1583.38
 21
12.4823
 31
0.0
  0
LINE
  8
0
 62
     250
 10
1583.38
 20
12.4823
 30
0.0
 11
1581.15
 21
13.2292
 31
0.0
  0
LINE
  8
0
 62
     250
 10
1581.15
 20
13.2292
 30
0.0
 11
1580.02
 21
13.6081
 31
0.0
  0
LINE
  8
0
 62
     250
 10
1580.02
 20
13.6081
 30
0.0
 11
1576.63
 21
14.7726
 31
0.0
  0
LINE
  8
0
 62
     250
 10
1576.63
 20
14.7726
 30
0.0
 11
1572.36
 21
16.3105
 31
0.0
  0
LINE
  8
0
 62
     250
 10
1572.36
 20
16.3105
 30
0.0
 11
1568.29
 21
17.8663
 31
0.0
  0
LINE
  8
0
 62
     250
 10
1568.29
 20
17.8663
 30
0.0
 11
1564.38
 21
19.4662
 31
0.0
  0
LINE
  8
0
 62
     250
 10
1564.38
 20
19.4662
 30
0.0
 11
1560.59
 21
21.1336
 31
0.0
  0
LINE
  8
0
 62
     250
 10
1560.59
 20
21.1336
 30
0.0
 11
1556.88
 21
22.892
 31
0.0
  0
LINE
  8
0
 62
     250
 10
1556.88
 20
22.892
 30
0.0
 11
1553.22
 21
24.7675
 31
0.0
  0
LINE
  8
0
 62
     250
 10
1553.22
 20
24.7675
 30
0.0
 11
1549.57
 21
26.7836
 31
0.0
  0
LINE
  8
0
 62
     250
 10
1549.57
 20
26.7836
 30
0.0
 11
1545.89
 21
28.9664
 31
0.0
  0
LINE
  8
0
 62
     250
 10
1545.89
 20
28.9664
 30
0.0
 11
1542.13
 21
31.3366
 31
0.0
  0
LINE
  8
0
 62
     250
 10
1542.13
 20
31.3366
 30
0.0
 11
1538.26
 21
33.9218
 31
0.0
  0
LINE
  8
0
 62
     250
 10
1538.26
 20
33.9218
 30
0.0
 11
1534.24
 21
36.7467
 31
0.0
  0
LINE
  8
0
 62
     250
 10
1534.24
 20
36.7467
 30
0.0
 11
1530.03
 21
39.8336
 31
0.0
  0
LINE
  8
0
 62
     250
 10
1530.03
 20
39.8336
 30
0.0
 11
1525.59
 21
43.2082
 31
0.0
  0
LINE
  8
0
 62
     250
 10
1525.59
 20
43.2082
 30
0.0
 11
1520.89
 21
46.8947
 31
0.0
  0
LINE
  8
0
 62
     250
 10
1520.89
 20
46.8947
 30
0.0
 11
1517.12
 21
49.9043
 31
0.0
  0
LINE
  8
0
 62
     250
 10
1517.12
 20
49.9043
 30
0.0
 11
1515.88
 21
50.9157
 31
0.0
  0
LINE
  8
0
 62
     250
 10
1515.88
 20
50.9157
 30
0.0
 11
1514.56
 21
51.9878
 31
0.0
  0
LINE
  8
0
 62
     250
 10
1514.56
 20
51.9878
 30
0.0
 11
1510.68
 21
55.3131
 31
0.0
  0
LINE
  8
0
 62
     250
 10
1510.68
 20
55.3131
 30
0.0
 11
1505.47
 21
60.0576
 31
0.0
  0
LINE
  8
0
 62
     250
 10
1505.47
 20
60.0576
 30
0.0
 11
1500.29
 21
65.0861
 31
0.0
  0
LINE
  8
0
 62
     250
 10
1500.29
 20
65.0861
 30
0.0
 11
1495.16
 21
70.3255
 31
0.0
  0
LINE
  8
0
 62
     250
 10
1495.16
 20
70.3255
 30
0.0
 11
1490.12
 21
75.7107
 31
0.0
  0
LINE
  8
0
 62
     250
 10
1490.12
 20
75.7107
 30
0.0
 11
1485.21
 21
81.1735
 31
0.0
  0
LINE
  8
0
 62
     250
 10
1485.21
 20
81.1735
 30
0.0
 11
1480.46
 21
86.644
 31
0.0
  0
LINE
  8
0
 62
     250
 10
1480.46
 20
86.644
 30
0.0
 11
1475.91
 21
92.0542
 31
0.0
  0
LINE
  8
0
 62
     250
 10
1475.91
 20
92.0542
 30
0.0
 11
1471.59
 21
97.3377
 31
0.0
  0
LINE
  8
0
 62
     250
 10
1471.59
 20
97.3377
 30
0.0
 11
1467.53
 21
102.423
 31
0.0
  0
LINE
  8
0
 62
     250
 10
1467.53
 20
102.423
 30
0.0
 11
1463.77
 21
107.244
 31
0.0
  0
LINE
  8
0
 62
     250
 10
1463.77
 20
107.244
 30
0.0
 11
1460.36
 21
111.733
 31
0.0
  0
LINE
  8
0
 62
     250
 10
1460.36
 20
111.733
 30
0.0
 11
1457.3
 21
115.82
 31
0.0
  0
LINE
  8
0
 62
     250
 10
1457.3
 20
115.82
 30
0.0
 11
1454.66
 21
119.439
 31
0.0
  0
LINE
  8
0
 62
     250
 10
1454.66
 20
119.439
 30
0.0
 11
1452.46
 21
122.519
 31
0.0
  0
LINE
  8
0
 62
     250
 10
1452.46
 20
122.519
 30
0.0
 11
1451.15
 21
124.372
 31
0.0
  0
LINE
  8
0
 62
     250
 10
1451.15
 20
124.372
 30
0.0
 11
1450.73
 21
124.992
 31
0.0
  0
LINE
  8
0
 62
     250
 10
1450.73
 20
124.992
 30
0.0
 11
1450.32
 21
125.586
 31
0.0
  0
LINE
  8
0
 62
     250
 10
1450.32
 20
125.586
 30
0.0
 11
1449.17
 21
127.424
 31
0.0
  0
LINE
  8
0
 62
     250
 10
1449.17
 20
127.424
 30
0.0
 11
1447.49
 21
130.377
 31
0.0
  0
LINE
  8
0
 62
     250
 10
1447.49
 20
130.377
 30
0.0
 11
1445.71
 21
133.781
 31
0.0
  0
LINE
  8
0
 62
     250
 10
1445.71
 20
133.781
 30
0.0
 11
1443.85
 21
137.567
 31
0.0
  0
LINE
  8
0
 62
     250
 10
1443.85
 20
137.567
 30
0.0
 11
1441.93
 21
141.664
 31
0.0
  0
LINE
  8
0
 62
     250
 10
1441.93
 20
141.664
 30
0.0
 11
1439.98
 21
146.004
 31
0.0
  0
LINE
  8
0
 62
     250
 10
1439.98
 20
146.004
 30
0.0
 11
1438.04
 21
150.519
 31
0.0
  0
LINE
  8
0
 62
     250
 10
1438.04
 20
150.519
 30
0.0
 11
1436.12
 21
155.137
 31
0.0
  0
LINE
  8
0
 62
     250
 10
1436.12
 20
155.137
 30
0.0
 11
1434.24
 21
159.789
 31
0.0
  0
LINE
  8
0
 62
     250
 10
1434.24
 20
159.789
 30
0.0
 11
1432.44
 21
164.407
 31
0.0
  0
LINE
  8
0
 62
     250
 10
1432.44
 20
164.407
 30
0.0
 11
1430.74
 21
168.92
 31
0.0
  0
LINE
  8
0
 62
     250
 10
1430.74
 20
168.92
 30
0.0
 11
1429.16
 21
173.259
 31
0.0
  0
LINE
  8
0
 62
     250
 10
1429.16
 20
173.259
 30
0.0
 11
1427.72
 21
177.356
 31
0.0
  0
LINE
  8
0
 62
     250
 10
1427.72
 20
177.356
 30
0.0
 11
1426.47
 21
181.139
 31
0.0
  0
LINE
  8
0
 62
     250
 10
1426.47
 20
181.139
 30
0.0
 11
1425.41
 21
184.541
 31
0.0
  0
LINE
  8
0
 62
     250
 10
1425.41
 20
184.541
 30
0.0
 11
1424.78
 21
186.75
 31
0.0
  0
LINE
  8
0
 62
     250
 10
1424.78
 20
186.75
 30
0.0
 11
1424.58
 21
187.49
 31
0.0
  0
LINE
  8
0
 62
     250
 10
1424.58
 20
187.49
 30
0.0
 11
1424.39
 21
188.24
 31
0.0
  0
LINE
  8
0
 62
     250
 10
1424.39
 20
188.24
 30
0.0
 11
1423.85
 21
190.504
 31
0.0
  0
LINE
  8
0
 62
     250
 10
1423.85
 20
190.504
 30
0.0
 11
1423.07
 21
194.105
 31
0.0
  0
LINE
  8
0
 62
     250
 10
1423.07
 20
194.105
 30
0.0
 11
1422.26
 21
198.236
 31
0.0
  0
LINE
  8
0
 62
     250
 10
1422.26
 20
198.236
 30
0.0
 11
1421.42
 21
202.843
 31
0.0
  0
LINE
  8
0
 62
     250
 10
1421.42
 20
202.843
 30
0.0
 11
1420.57
 21
207.87
 31
0.0
  0
LINE
  8
0
 62
     250
 10
1420.57
 20
207.87
 30
0.0
 11
1419.71
 21
213.26
 31
0.0
  0
LINE
  8
0
 62
     250
 10
1419.71
 20
213.26
 30
0.0
 11
1418.85
 21
218.958
 31
0.0
  0
LINE
  8
0
 62
     250
 10
1418.85
 20
218.958
 30
0.0
 11
1418.01
 21
224.908
 31
0.0
  0
LINE
  8
0
 62
     250
 10
1418.01
 20
224.908
 30
0.0
 11
1417.18
 21
231.056
 31
0.0
  0
LINE
  8
0
 62
     250
 10
1417.18
 20
231.056
 30
0.0
 11
1416.39
 21
237.342
 31
0.0
  0
LINE
  8
0
 62
     250
 10
1416.39
 20
237.342
 30
0.0
 11
1415.62
 21
243.716
 31
0.0
  0
LINE
  8
0
 62
     250
 10
1415.62
 20
243.716
 30
0.0
 11
1414.91
 21
250.117
 31
0.0
  0
LINE
  8
0
 62
     250
 10
1414.91
 20
250.117
 30
0.0
 11
1414.25
 21
256.492
 31
0.0
  0
LINE
  8
0
 62
     250
 10
1414.25
 20
256.492
 30
0.0
 11
1413.66
 21
262.783
 31
0.0
  0
LINE
  8
0
 62
     250
 10
1413.66
 20
262.783
 30
0.0
 11
1413.14
 21
268.938
 31
0.0
  0
LINE
  8
0
 62
     250
 10
1413.14
 20
268.938
 30
0.0
 11
1412.8
 21
273.408
 31
0.0
  0
LINE
  8
0
 62
     250
 10
1412.8
 20
273.408
 30
0.0
 11
1412.7
 21
274.898
 31
0.0
  0
LINE
  8
0
 62
     250
 10
1412.7
 20
274.898
 30
0.0
 11
1412.5
 21
277.879
 31
0.0
  0
LINE
  8
0
 62
     250
 10
1412.5
 20
277.879
 30
0.0
 11
1412.02
 21
286.828
 31
0.0
  0
LINE
  8
0
 62
     250
 10
1412.02
 20
286.828
 30
0.0
 11
1411.55
 21
299.142
 31
0.0
  0
LINE
  8
0
 62
     250
 10
1411.55
 20
299.142
 30
0.0
 11
1411.29
 21
311.699
 31
0.0
  0
LINE
  8
0
 62
     250
 10
1411.29
 20
311.699
 30
0.0
 11
1411.26
 21
324.353
 31
0.0
  0
LINE
  8
0
 62
     250
 10
1411.26
 20
324.353
 30
0.0
 11
1411.44
 21
336.962
 31
0.0
  0
LINE
  8
0
 62
     250
 10
1411.44
 20
336.962
 30
0.0
 11
1411.84
 21
349.384
 31
0.0
  0
LINE
  8
0
 62
     250
 10
1411.84
 20
349.384
 30
0.0
 11
1412.47
 21
361.474
 31
0.0
  0
LINE
  8
0
 62
     250
 10
1412.47
 20
361.474
 30
0.0
 11
1413.08
 21
370.191
 31
0.0
  0
LINE
  8
0
 62
     250
 10
1413.08
 20
370.191
 30
0.0
 11
1413.33
 21
373.087
 31
0.0
  0
LINE
  8
0
 62
     250
 10
1413.33
 20
373.087
 30
0.0
 11
1413.58
 21
376.051
 31
0.0
  0
LINE
  8
0
 62
     250
 10
1413.58
 20
376.051
 30
0.0
 11
1414.49
 21
384.93
 31
0.0
  0
LINE
  8
0
 62
     250
 10
1414.49
 20
384.93
 30
0.0
 11
1415.98
 21
397.521
 31
0.0
  0
LINE
  8
0
 62
     250
 10
1415.98
 20
397.521
 30
0.0
 11
1417.72
 21
410.478
 31
0.0
  0
LINE
  8
0
 62
     250
 10
1417.72
 20
410.478
 30
0.0
 11
1419.65
 21
423.4
 31
0.0
  0
LINE
  8
0
 62
     250
 10
1419.65
 20
423.4
 30
0.0
 11
1421.69
 21
435.896
 31
0.0
  0
LINE
  8
0
 62
     250
 10
1421.69
 20
435.896
 30
0.0
 11
1423.8
 21
447.573
 31
0.0
  0
LINE
  8
0
 62
     250
 10
1423.8
 20
447.573
 30
0.0
 11
1425.87
 21
458.033
 31
0.0
  0
LINE
  8
0
 62
     250
 10
1425.87
 20
458.033
 30
0.0
 11
1427.33
 21
464.682
 31
0.0
  0
LINE
  8
0
 62
     250
 10
1427.33
 20
464.682
 30
0.0
 11
1427.87
 21
466.887
 31
0.0
  0
LINE
  8
0
 62
     250
 10
1427.87
 20
466.887
 30
0.0
 11
1428.35
 21
468.877
 31
0.0
  0
LINE
  8
0
 62
     250
 10
1428.35
 20
468.877
 30
0.0
 11
1430.06
 21
474.775
 31
0.0
  0
LINE
  8
0
 62
     250
 10
1430.06
 20
474.775
 30
0.0
 11
1432.73
 21
482.565
 31
0.0
  0
LINE
  8
0
 62
     250
 10
1432.73
 20
482.565
 30
0.0
 11
1435.83
 21
490.185
 31
0.0
  0
LINE
  8
0
 62
     250
 10
1435.83
 20
490.185
 30
0.0
 11
1439.28
 21
497.582
 31
0.0
  0
LINE
  8
0
 62
     250
 10
1439.28
 20
497.582
 30
0.0
 11
1443.04
 21
504.694
 31
0.0
  0
LINE
  8
0
 62
     250
 10
1443.04
 20
504.694
 30
0.0
 11
1447.03
 21
511.454
 31
0.0
  0
LINE
  8
0
 62
     250
 10
1447.03
 20
511.454
 30
0.0
 11
1451.19
 21
517.8
 31
0.0
  0
LINE
  8
0
 62
     250
 10
1451.19
 20
517.8
 30
0.0
 11
1454.37
 21
522.231
 31
0.0
  0
LINE
  8
0
 62
     250
 10
1454.37
 20
522.231
 30
0.0
 11
1455.47
 21
523.674
 31
0.0
  0
LINE
  8
0
 62
     250
 10
1455.47
 20
523.674
 30
0.0
 11
1456.58
 21
525.117
 31
0.0
  0
LINE
  8
0
 62
     250
 10
1456.58
 20
525.117
 30
0.0
 11
1460.05
 21
529.343
 31
0.0
  0
LINE
  8
0
 62
     250
 10
1460.05
 20
529.343
 30
0.0
 11
1465.17
 21
535.051
 31
0.0
  0
LINE
  8
0
 62
     250
 10
1465.17
 20
535.051
 30
0.0
 11
1470.85
 21
540.688
 31
0.0
  0
LINE
  8
0
 62
     250
 10
1470.85
 20
540.688
 30
0.0
 11
1477.1
 21
546.149
 31
0.0
  0
LINE
  8
0
 62
     250
 10
1477.1
 20
546.149
 30
0.0
 11
1483.95
 21
551.328
 31
0.0
  0
LINE
  8
0
 62
     250
 10
1483.95
 20
551.328
 30
0.0
 11
1491.4
 21
556.115
 31
0.0
  0
LINE
  8
0
 62
     250
 10
1491.4
 20
556.115
 30
0.0
 11
1499.48
 21
560.412
 31
0.0
  0
LINE
  8
0
 62
     250
 10
1499.48
 20
560.412
 30
0.0
 11
1505.98
 21
563.28
 31
0.0
  0
LINE
  8
0
 62
     250
 10
1505.98
 20
563.28
 30
0.0
 11
1508.2
 21
564.102
 31
0.0
  0
LINE
  8
0
 62
     250
 10
1508.2
 20
564.102
 30
0.0
 11
1509.38
 21
564.54
 31
0.0
  0
LINE
  8
0
 62
     250
 10
1509.38
 20
564.54
 30
0.0
 11
1512.96
 21
565.739
 31
0.0
  0
LINE
  8
0
 62
     250
 10
1512.96
 20
565.739
 30
0.0
 11
1518.12
 21
567.291
 31
0.0
  0
LINE
  8
0
 62
     250
 10
1518.12
 20
567.291
 30
0.0
 11
1523.62
 21
568.759
 31
0.0
  0
LINE
  8
0
 62
     250
 10
1523.62
 20
568.759
 30
0.0
 11
1529.38
 21
570.138
 31
0.0
  0
LINE
  8
0
 62
     250
 10
1529.38
 20
570.138
 30
0.0
 11
1535.33
 21
571.436
 31
0.0
  0
LINE
  8
0
 62
     250
 10
1535.33
 20
571.436
 30
0.0
 11
1541.39
 21
572.647
 31
0.0
  0
LINE
  8
0
 62
     250
 10
1541.39
 20
572.647
 30
0.0
 11
1547.48
 21
573.772
 31
0.0
  0
LINE
  8
0
 62
     250
 10
1547.48
 20
573.772
 30
0.0
 11
1553.54
 21
574.809
 31
0.0
  0
LINE
  8
0
 62
     250
 10
1553.54
 20
574.809
 30
0.0
 11
1559.48
 21
575.762
 31
0.0
  0
LINE
  8
0
 62
     250
 10
1559.48
 20
575.762
 30
0.0
 11
1565.23
 21
576.629
 31
0.0
  0
LINE
  8
0
 62
     250
 10
1565.23
 20
576.629
 30
0.0
 11
1570.71
 21
577.405
 31
0.0
  0
LINE
  8
0
 62
     250
 10
1570.71
 20
577.405
 30
0.0
 11
1575.86
 21
578.097
 31
0.0
  0
LINE
  8
0
 62
     250
 10
1575.86
 20
578.097
 30
0.0
 11
1580.59
 21
578.7
 31
0.0
  0
LINE
  8
0
 62
     250
 10
1580.59
 20
578.7
 30
0.0
 11
1584.83
 21
579.215
 31
0.0
  0
LINE
  8
0
 62
     250
 10
1584.83
 20
579.215
 30
0.0
 11
1588.51
 21
579.642
 31
0.0
  0
LINE
  8
0
 62
     250
 10
1588.51
 20
579.642
 30
0.0
 11
1590.78
 21
579.896
 31
0.0
  0
LINE
  8
0
 62
     250
 10
1590.78
 20
579.896
 30
0.0
 11
1591.54
 21
579.981
 31
0.0
  0
LINE
  8
0
 62
     250
 10
1591.54
 20
579.981
 30
0.0
 11
1593.06
 21
580.147
 31
0.0
  0
LINE
  8
0
 62
     250
 10
1593.06
 20
580.147
 30
0.0
 11
1597.64
 21
580.535
 31
0.0
  0
LINE
  8
0
 62
     250
 10
1597.64
 20
580.535
 30
0.0
 11
1604.91
 21
581.014
 31
0.0
  0
LINE
  8
0
 62
     250
 10
1604.91
 20
581.014
 30
0.0
 11
1612.95
 21
581.417
 31
0.0
  0
LINE
  8
0
 62
     250
 10
1612.95
 20
581.417
 30
0.0
 11
1621.38
 21
581.734
 31
0.0
  0
LINE
  8
0
 62
     250
 10
1621.38
 20
581.734
 30
0.0
 11
1629.82
 21
581.96
 31
0.0
  0
LINE
  8
0
 62
     250
 10
1629.82
 20
581.96
 30
0.0
 11
1637.85
 21
582.087
 31
0.0
  0
LINE
  8
0
 62
     250
 10
1637.85
 20
582.087
 30
0.0
 11
1645.11
 21
582.112
 31
0.0
  0
LINE
  8
0
 62
     250
 10
1645.11
 20
582.112
 30
0.0
 11
1649.67
 21
582.069
 31
0.0
  0
LINE
  8
0
 62
     250
 10
1649.67
 20
582.069
 30
0.0
 11
1651.19
 21
582.027
 31
0.0
  0
LINE
  8
0
 62
     250
 10
1651.19
 20
582.027
 30
0.0
 11
1651.94
 21
582.009
 31
0.0
  0
LINE
  8
0
 62
     250
 10
1651.94
 20
582.009
 30
0.0
 11
1654.19
 21
581.914
 31
0.0
  0
LINE
  8
0
 62
     250
 10
1654.19
 20
581.914
 30
0.0
 11
1657.8
 21
581.713
 31
0.0
  0
LINE
  8
0
 62
     250
 10
1657.8
 20
581.713
 30
0.0
 11
1661.92
 21
581.431
 31
0.0
  0
LINE
  8
0
 62
     250
 10
1661.92
 20
581.431
 30
0.0
 11
1666.49
 21
581.078
 31
0.0
  0
LINE
  8
0
 62
     250
 10
1666.49
 20
581.078
 30
0.0
 11
1671.44
 21
580.655
 31
0.0
  0
LINE
  8
0
 62
     250
 10
1671.44
 20
580.655
 30
0.0
 11
1676.67
 21
580.175
 31
0.0
  0
LINE
  8
0
 62
     250
 10
1676.67
 20
580.175
 30
0.0
 11
1682.12
 21
579.639
 31
0.0
  0
LINE
  8
0
 62
     250
 10
1682.12
 20
579.639
 30
0.0
 11
1687.71
 21
579.06
 31
0.0
  0
LINE
  8
0
 62
     250
 10
1687.71
 20
579.06
 30
0.0
 11
1693.37
 21
578.436
 31
0.0
  0
LINE
  8
0
 62
     250
 10
1693.37
 20
578.436
 30
0.0
 11
1699.01
 21
577.779
 31
0.0
  0
LINE
  8
0
 62
     250
 10
1699.01
 20
577.779
 30
0.0
 11
1704.56
 21
577.095
 31
0.0
  0
LINE
  8
0
 62
     250
 10
1704.56
 20
577.095
 30
0.0
 11
1709.95
 21
576.389
 31
0.0
  0
LINE
  8
0
 62
     250
 10
1709.95
 20
576.389
 30
0.0
 11
1715.1
 21
575.666
 31
0.0
  0
LINE
  8
0
 62
     250
 10
1715.1
 20
575.666
 30
0.0
 11
1719.93
 21
574.94
 31
0.0
  0
LINE
  8
0
 62
     250
 10
1719.93
 20
574.94
 30
0.0
 11
1724.37
 21
574.209
 31
0.0
  0
LINE
  8
0
 62
     250
 10
1724.37
 20
574.209
 30
0.0
 11
1727.34
 21
573.673
 31
0.0
  0
LINE
  8
0
 62
     250
 10
1727.34
 20
573.673
 30
0.0
 11
1728.33
 21
573.479
 31
0.0
  0
LINE
  8
0
 62
     250
 10
1728.33
 20
573.479
 30
0.0
 11
1730.29
 21
573.102
 31
0.0
  0
LINE
  8
0
 62
     250
 10
1730.29
 20
573.102
 30
0.0
 11
1736.15
 21
571.93
 31
0.0
  0
LINE
  8
0
 62
     250
 10
1736.15
 20
571.93
 30
0.0
 11
1744.63
 21
570.191
 31
0.0
  0
LINE
  8
0
 62
     250
 10
1744.63
 20
570.191
 30
0.0
 11
1753.58
 21
568.286
 31
0.0
  0
LINE
  8
0
 62
     250
 10
1753.58
 20
568.286
 30
0.0
 11
1762.77
 21
566.24
 31
0.0
  0
LINE
  8
0
 62
     250
 10
1762.77
 20
566.24
 30
0.0
 11
1771.99
 21
564.085
 31
0.0
  0
LINE
  8
0
 62
     250
 10
1771.99
 20
564.085
 30
0.0
 11
1781.04
 21
561.844
 31
0.0
  0
LINE
  8
0
 62
     250
 10
1781.04
 20
561.844
 30
0.0
 11
1789.71
 21
559.548
 31
0.0
  0
LINE
  8
0
 62
     250
 10
1789.71
 20
559.548
 30
0.0
 11
1795.77
 21
557.826
 31
0.0
  0
LINE
  8
0
 62
     250
 10
1795.77
 20
557.826
 30
0.0
 11
1797.78
 21
557.216
 31
0.0
  0
LINE
  8
0
 62
     250
 10
1797.78
 20
557.216
 30
0.0
 11
1799.77
 21
556.609
 31
0.0
  0
LINE
  8
0
 62
     250
 10
1799.77
 20
556.609
 30
0.0
 11
1805.72
 21
554.665
 31
0.0
  0
LINE
  8
0
 62
     250
 10
1805.72
 20
554.665
 30
0.0
 11
1814.04
 21
551.706
 31
0.0
  0
LINE
  8
0
 62
     250
 10
1814.04
 20
551.706
 30
0.0
 11
1822.53
 21
548.351
 31
0.0
  0
LINE
  8
0
 62
     250
 10
1822.53
 20
548.351
 30
0.0
 11
1830.99
 21
544.625
 31
0.0
  0
LINE
  8
0
 62
     250
 10
1830.99
 20
544.625
 30
0.0
 11
1839.24
 21
540.547
 31
0.0
  0
LINE
  8
0
 62
     250
 10
1839.24
 20
540.547
 30
0.0
 11
1847.07
 21
536.138
 31
0.0
  0
LINE
  8
0
 62
     250
 10
1847.07
 20
536.138
 30
0.0
 11
1854.3
 21
531.414
 31
0.0
  0
LINE
  8
0
 62
     250
 10
1854.3
 20
531.414
 30
0.0
 11
1859.19
 21
527.727
 31
0.0
  0
LINE
  8
0
 62
     250
 10
1859.19
 20
527.727
 30
0.0
 11
1860.73
 21
526.394
 31
0.0
  0
LINE
  8
0
 62
     250
 10
1860.73
 20
526.394
 30
0.0
 11
1862.26
 21
525.067
 31
0.0
  0
LINE
  8
0
 62
     250
 10
1862.26
 20
525.067
 30
0.0
 11
1866.79
 21
520.996
 31
0.0
  0
LINE
  8
0
 62
     250
 10
1866.79
 20
520.996
 30
0.0
 11
1872.95
 21
515.158
 31
0.0
  0
LINE
  8
0
 62
     250
 10
1872.95
 20
515.158
 30
0.0
 11
1879.07
 21
508.967
 31
0.0
  0
LINE
  8
0
 62
     250
 10
1879.07
 20
508.967
 30
0.0
 11
1885
 21
502.493
 31
0.0
  0
LINE
  8
0
 62
     250
 10
1885
 20
502.493
 30
0.0
 11
1890.6
 21
495.822
 31
0.0
  0
LINE
  8
0
 62
     250
 10
1890.6
 20
495.822
 30
0.0
 11
1895.73
 21
489.031
 31
0.0
  0
LINE
  8
0
 62
     250
 10
1895.73
 20
489.031
 30
0.0
 11
1900.24
 21
482.194
 31
0.0
  0
LINE
  8
0
 62
     250
 10
1900.24
 20
482.194
 30
0.0
 11
1903.13
 21
477.135
 31
0.0
  0
LINE
  8
0
 62
     250
 10
1903.13
 20
477.135
 30
0.0
 11
1903.98
 21
475.396
 31
0.0
  0
LINE
  8
0
 62
     250
 10
1903.98
 20
475.396
 30
0.0
 11
1904.81
 21
473.696
 31
0.0
  0
LINE
  8
0
 62
     250
 10
1904.81
 20
473.696
 30
0.0
 11
1907.32
 21
468.602
 31
0.0
  0
LINE
  8
0
 62
     250
 10
1907.32
 20
468.602
 30
0.0
 11
1910.67
 21
461.638
 31
0.0
  0
LINE
  8
0
 62
     250
 10
1910.67
 20
461.638
 30
0.0
 11
1913.97
 21
454.385
 31
0.0
  0
LINE
  8
0
 62
     250
 10
1913.97
 20
454.385
 30
0.0
 11
1917.15
 21
446.712
 31
0.0
  0
LINE
  8
0
 62
     250
 10
1917.15
 20
446.712
 30
0.0
 11
1920.15
 21
438.503
 31
0.0
  0
LINE
  8
0
 62
     250
 10
1920.15
 20
438.503
 30
0.0
 11
1922.9
 21
429.62
 31
0.0
  0
LINE
  8
0
 62
     250
 10
1922.9
 20
429.62
 30
0.0
 11
1925.33
 21
419.947
 31
0.0
  0
LINE
  8
0
 62
     250
 10
1925.33
 20
419.947
 30
0.0
 11
1926.95
 21
412.016
 31
0.0
  0
LINE
  8
0
 62
     250
 10
1926.95
 20
412.016
 30
0.0
 11
1927.39
 21
409.356
 31
0.0
  0
LINE
  8
0
 62
     250
 10
1927.39
 20
409.356
 30
0.0
 11
1927.86
 21
406.545
 31
0.0
  0
LINE
  8
0
 62
     250
 10
1927.86
 20
406.545
 30
0.0
 11
1929.14
 21
398.082
 31
0.0
  0
LINE
  8
0
 62
     250
 10
1929.14
 20
398.082
 30
0.0
 11
1930.68
 21
386.584
 31
0.0
  0
LINE
  8
0
 62
     250
 10
1930.68
 20
386.584
 30
0.0
 11
1931.99
 21
375.073
 31
0.0
  0
LINE
  8
0
 62
     250
 10
1931.99
 20
375.073
 30
0.0
 11
1933.06
 21
363.77
 31
0.0
  0
LINE
  8
0
 62
     250
 10
1933.06
 20
363.77
 30
0.0
 11
1933.87
 21
352.88
 31
0.0
  0
LINE
  8
0
 62
     250
 10
1933.87
 20
352.88
 30
0.0
 11
1934.41
 21
342.622
 31
0.0
  0
LINE
  8
0
 62
     250
 10
1934.41
 20
342.622
 30
0.0
 11
1934.67
 21
333.207
 31
0.0
  0
LINE
  8
0
 62
     250
 10
1934.67
 20
333.207
 30
0.0
 11
1934.68
 21
326.938
 31
0.0
  0
LINE
  8
0
 62
     250
 10
1934.68
 20
326.938
 30
0.0
 11
1934.63
 21
324.85
 31
0.0
  0
LINE
  8
0
 62
     250
 10
1450.55
 20
478.935
 30
0.0
 11
1450.82
 21
480.042
 31
0.0
  0
LINE
  8
0
 62
     250
 10
1450.82
 20
480.042
 30
0.0
 11
1451.63
 21
483.369
 31
0.0
  0
LINE
  8
0
 62
     250
 10
1451.63
 20
483.369
 30
0.0
 11
1452.93
 21
488.438
 31
0.0
  0
LINE
  8
0
 62
     250
 10
1452.93
 20
488.438
 30
0.0
 11
1454.4
 21
493.868
 31
0.0
  0
LINE
  8
0
 62
     250
 10
1454.4
 20
493.868
 30
0.0
 11
1456.03
 21
499.385
 31
0.0
  0
LINE
  8
0
 62
     250
 10
1456.03
 20
499.385
 30
0.0
 11
1457.76
 21
504.712
 31
0.0
  0
LINE
  8
0
 62
     250
 10
1457.76
 20
504.712
 30
0.0
 11
1459.58
 21
509.573
 31
0.0
  0
LINE
  8
0
 62
     250
 10
1459.58
 20
509.573
 30
0.0
 11
1461.46
 21
513.694
 31
0.0
  0
LINE
  8
0
 62
     250
 10
1461.46
 20
513.694
 30
0.0
 11
1462.8
 21
516.079
 31
0.0
  0
LINE
  8
0
 62
     250
 10
1462.8
 20
516.079
 30
0.0
 11
1463.35
 21
516.798
 31
0.0
  0
LINE
  8
0
 62
     250
 10
1463.35
 20
516.798
 30
0.0
 11
1463.95
 21
517.592
 31
0.0
  0
LINE
  8
0
 62
     250
 10
1463.95
 20
517.592
 30
0.0
 11
1465.84
 21
519.892
 31
0.0
  0
LINE
  8
0
 62
     250
 10
1465.84
 20
519.892
 30
0.0
 11
1469.44
 21
523.946
 31
0.0
  0
LINE
  8
0
 62
     250
 10
1469.44
 20
523.946
 30
0.0
 11
1473.94
 21
528.648
 31
0.0
  0
LINE
  8
0
 62
     250
 10
1473.94
 20
528.648
 30
0.0
 11
1479.17
 21
533.679
 31
0.0
  0
LINE
  8
0
 62
     250
 10
1479.17
 20
533.679
 30
0.0
 11
1484.93
 21
538.723
 31
0.0
  0
LINE
  8
0
 62
     250
 10
1484.93
 20
538.723
 30
0.0
 11
1491.04
 21
543.461
 31
0.0
  0
LINE
  8
0
 62
     250
 10
1491.04
 20
543.461
 30
0.0
 11
1497.31
 21
547.575
 31
0.0
  0
LINE
  8
0
 62
     250
 10
1497.31
 20
547.575
 30
0.0
 11
1501.94
 21
550.072
 31
0.0
  0
LINE
  8
0
 62
     250
 10
1501.94
 20
550.072
 30
0.0
 11
1503.55
 21
550.75
 31
0.0
  0
LINE
  8
0
 62
     250
 10
1503.55
 20
550.75
 30
0.0
 11
1505.16
 21
551.43
 31
0.0
  0
LINE
  8
0
 62
     250
 10
1505.16
 20
551.43
 30
0.0
 11
1510.07
 21
553.311
 31
0.0
  0
LINE
  8
0
 62
     250
 10
1510.07
 20
553.311
 30
0.0
 11
1517.26
 21
555.777
 31
0.0
  0
LINE
  8
0
 62
     250
 10
1517.26
 20
555.777
 30
0.0
 11
1525.06
 21
558.126
 31
0.0
  0
LINE
  8
0
 62
     250
 10
1525.06
 20
558.126
 30
0.0
 11
1533.4
 21
560.335
 31
0.0
  0
LINE
  8
0
 62
     250
 10
1533.4
 20
560.335
 30
0.0
 11
1542.21
 21
562.384
 31
0.0
  0
LINE
  8
0
 62
     250
 10
1542.21
 20
562.384
 30
0.0
 11
1551.43
 21
564.247
 31
0.0
  0
LINE
  8
0
 62
     250
 10
1551.43
 20
564.247
 30
0.0
 11
1560.97
 21
565.901
 31
0.0
  0
LINE
  8
0
 62
     250
 10
1560.97
 20
565.901
 30
0.0
 11
1568.33
 21
567.002
 31
0.0
  0
LINE
  8
0
 62
     250
 10
1568.33
 20
567.002
 30
0.0
 11
1570.79
 21
567.327
 31
0.0
  0
LINE
  8
0
 62
     250
 10
1570.79
 20
567.327
 30
0.0
 11
1573.37
 21
567.665
 31
0.0
  0
LINE
  8
0
 62
     250
 10
1573.37
 20
567.665
 30
0.0
 11
1581.12
 21
568.565
 31
0.0
  0
LINE
  8
0
 62
     250
 10
1581.12
 20
568.565
 30
0.0
 11
1592.07
 21
569.659
 31
0.0
  0
LINE
  8
0
 62
     250
 10
1592.07
 20
569.659
 30
0.0
 11
1603.41
 21
570.569
 31
0.0
  0
LINE
  8
0
 62
     250
 10
1603.41
 20
570.569
 30
0.0
 11
1614.89
 21
571.26
 31
0.0
  0
LINE
  8
0
 62
     250
 10
1614.89
 20
571.26
 30
0.0
 11
1626.28
 21
571.701
 31
0.0
  0
LINE
  8
0
 62
     250
 10
1626.28
 20
571.701
 30
0.0
 11
1637.33
 21
571.856
 31
0.0
  0
LINE
  8
0
 62
     250
 10
1637.33
 20
571.856
 30
0.0
 11
1647.79
 21
571.691
 31
0.0
  0
LINE
  8
0
 62
     250
 10
1647.79
 20
571.691
 30
0.0
 11
1655.03
 21
571.355
 31
0.0
  0
LINE
  8
0
 62
     250
 10
1655.03
 20
571.355
 30
0.0
 11
1657.43
 21
571.168
 31
0.0
  0
LINE
  8
0
 62
     250
 10
1657.43
 20
571.168
 30
0.0
 11
1659.98
 21
570.971
 31
0.0
  0
LINE
  8
0
 62
     250
 10
1659.98
 20
570.971
 30
0.0
 11
1667.61
 21
570.202
 31
0.0
  0
LINE
  8
0
 62
     250
 10
1667.61
 20
570.202
 30
0.0
 11
1679.48
 21
568.766
 31
0.0
  0
LINE
  8
0
 62
     250
 10
1679.48
 20
568.766
 30
0.0
 11
1692.48
 21
566.932
 31
0.0
  0
LINE
  8
0
 62
     250
 10
1692.48
 20
566.932
 30
0.0
 11
1706.04
 21
564.776
 31
0.0
  0
LINE
  8
0
 62
     250
 10
1706.04
 20
564.776
 30
0.0
 11
1719.59
 21
562.363
 31
0.0
  0
LINE
  8
0
 62
     250
 10
1719.59
 20
562.363
 30
0.0
 11
1732.59
 21
559.767
 31
0.0
  0
LINE
  8
0
 62
     250
 10
1732.59
 20
559.767
 30
0.0
 11
1744.46
 21
557.061
 31
0.0
  0
LINE
  8
0
 62
     250
 10
1744.46
 20
557.061
 30
0.0
 11
1752.12
 21
555.071
 31
0.0
  0
LINE
  8
0
 62
     250
 10
1752.12
 20
555.071
 30
0.0
 11
1754.64
 21
554.316
 31
0.0
  0
LINE
  8
0
 62
     250
 10
1754.64
 20
554.316
 30
0.0
 11
1756.99
 21
553.614
 31
0.0
  0
LINE
  8
0
 62
     250
 10
1756.99
 20
553.614
 30
0.0
 11
1763.95
 21
551.307
 31
0.0
  0
LINE
  8
0
 62
     250
 10
1763.95
 20
551.307
 30
0.0
 11
1773.51
 21
547.793
 31
0.0
  0
LINE
  8
0
 62
     250
 10
1773.51
 20
547.793
 30
0.0
 11
1783.16
 21
543.828
 31
0.0
  0
LINE
  8
0
 62
     250
 10
1783.16
 20
543.828
 30
0.0
 11
1792.78
 21
539.461
 31
0.0
  0
LINE
  8
0
 62
     250
 10
1792.78
 20
539.461
 30
0.0
 11
1802.23
 21
534.748
 31
0.0
  0
LINE
  8
0
 62
     250
 10
1802.23
 20
534.748
 30
0.0
 11
1811.37
 21
529.742
 31
0.0
  0
LINE
  8
0
 62
     250
 10
1811.37
 20
529.742
 30
0.0
 11
1820.06
 21
524.492
 31
0.0
  0
LINE
  8
0
 62
     250
 10
1820.06
 20
524.492
 30
0.0
 11
1826.18
 21
520.467
 31
0.0
  0
LINE
  8
0
 62
     250
 10
1826.18
 20
520.467
 30
0.0
 11
1828.17
 21
519.053
 31
0.0
  0
LINE
  8
0
 62
     250
 10
1828.17
 20
519.053
 30
0.0
 11
1830.08
 21
517.698
 31
0.0
  0
LINE
  8
0
 62
     250
 10
1830.08
 20
517.698
 30
0.0
 11
1835.61
 21
513.341
 31
0.0
  0
LINE
  8
0
 62
     250
 10
1835.61
 20
513.341
 30
0.0
 11
1842.39
 21
507.263
 31
0.0
  0
LINE
  8
0
 62
     250
 10
1842.39
 20
507.263
 30
0.0
 11
1848.55
 21
500.842
 31
0.0
  0
LINE
  8
0
 62
     250
 10
1848.55
 20
500.842
 30
0.0
 11
1854.12
 21
494.118
 31
0.0
  0
LINE
  8
0
 62
     250
 10
1854.12
 20
494.118
 30
0.0
 11
1859.14
 21
487.112
 31
0.0
  0
LINE
  8
0
 62
     250
 10
1859.14
 20
487.112
 30
0.0
 11
1863.63
 21
479.859
 31
0.0
  0
LINE
  8
0
 62
     250
 10
1863.63
 20
479.859
 30
0.0
 11
1867.64
 21
472.387
 31
0.0
  0
LINE
  8
0
 62
     250
 10
1867.64
 20
472.387
 30
0.0
 11
1870.36
 21
466.661
 31
0.0
  0
LINE
  8
0
 62
     250
 10
1870.36
 20
466.661
 30
0.0
 11
1871.2
 21
464.725
 31
0.0
  0
LINE
  8
0
 62
     250
 10
1871.2
 20
464.725
 30
0.0
 11
1872.09
 21
462.65
 31
0.0
  0
LINE
  8
0
 62
     250
 10
1872.09
 20
462.65
 30
0.0
 11
1874.52
 21
456.315
 31
0.0
  0
LINE
  8
0
 62
     250
 10
1874.52
 20
456.315
 30
0.0
 11
1877.76
 21
446.867
 31
0.0
  0
LINE
  8
0
 62
     250
 10
1877.76
 20
446.867
 30
0.0
 11
1880.82
 21
436.806
 31
0.0
  0
LINE
  8
0
 62
     250
 10
1880.82
 20
436.806
 30
0.0
 11
1883.62
 21
426.565
 31
0.0
  0
LINE
  8
0
 62
     250
 10
1883.62
 20
426.565
 30
0.0
 11
1886.07
 21
416.574
 31
0.0
  0
LINE
  8
0
 62
     250
 10
1886.07
 20
416.574
 30
0.0
 11
1888.07
 21
407.264
 31
0.0
  0
LINE
  8
0
 62
     250
 10
1888.07
 20
407.264
 30
0.0
 11
1889.55
 21
399.066
 31
0.0
  0
LINE
  8
0
 62
     250
 10
1889.55
 20
399.066
 30
0.0
 11
1890.26
 21
394.077
 31
0.0
  0
LINE
  8
0
 62
     250
 10
1890.26
 20
394.077
 30
0.0
 11
1890.42
 21
392.405
 31
0.0
  0
LINE
  8
0
 62
     250
 10
1890.42
 20
392.405
 30
0.0
 11
1890.56
 21
390.843
 31
0.0
  0
LINE
  8
0
 62
     250
 10
1890.56
 20
390.843
 30
0.0
 11
1890.86
 21
386.136
 31
0.0
  0
LINE
  8
0
 62
     250
 10
1890.86
 20
386.136
 30
0.0
 11
1891.15
 21
378.89
 31
0.0
  0
LINE
  8
0
 62
     250
 10
1891.15
 20
378.89
 30
0.0
 11
1891.31
 21
370.784
 31
0.0
  0
LINE
  8
0
 62
     250
 10
1891.31
 20
370.784
 30
0.0
 11
1891.34
 21
361.925
 31
0.0
  0
LINE
  8
0
 62
     250
 10
1891.34
 20
361.925
 30
0.0
 11
1891.27
 21
352.435
 31
0.0
  0
LINE
  8
0
 62
     250
 10
1891.27
 20
352.435
 30
0.0
 11
1891.12
 21
342.421
 31
0.0
  0
LINE
  8
0
 62
     250
 10
1891.12
 20
342.421
 30
0.0
 11
1890.9
 21
331.997
 31
0.0
  0
LINE
  8
0
 62
     250
 10
1890.9
 20
331.997
 30
0.0
 11
1890.71
 21
323.959
 31
0.0
  0
LINE
  8
0
 62
     250
 10
1890.71
 20
323.959
 30
0.0
 11
1890.64
 21
321.279
 31
0.0
  0
LINE
  8
0
 62
     250
 10
1890.64
 20
321.279
 30
0.0
 11
1890.57
 21
318.647
 31
0.0
  0
LINE
  8
0
 62
     250
 10
1890.57
 20
318.647
 30
0.0
 11
1890.43
 21
310.745
 31
0.0
  0
LINE
  8
0
 62
     250
 10
1890.43
 20
310.745
 30
0.0
 11
1890.35
 21
300.776
 31
0.0
  0
LINE
  8
0
 62
     250
 10
1890.35
 20
300.776
 30
0.0
 11
1890.32
 21
291.348
 31
0.0
  0
LINE
  8
0
 62
     250
 10
1890.32
 20
291.348
 30
0.0
 11
1890.28
 21
282.429
 31
0.0
  0
LINE
  8
0
 62
     250
 10
1890.28
 20
282.429
 30
0.0
 11
1890.16
 21
273.995
 31
0.0
  0
LINE
  8
0
 62
     250
 10
1890.16
 20
273.995
 30
0.0
 11
1889.89
 21
266.018
 31
0.0
  0
LINE
  8
0
 62
     250
 10
1889.89
 20
266.018
 30
0.0
 11
1889.42
 21
258.469
 31
0.0
  0
LINE
  8
0
 62
     250
 10
1889.42
 20
258.469
 30
0.0
 11
1888.9
 21
253.103
 31
0.0
  0
LINE
  8
0
 62
     250
 10
1888.9
 20
253.103
 30
0.0
 11
1888.67
 21
251.321
 31
0.0
  0
LINE
  8
0
 62
     250
 10
1888.67
 20
251.321
 30
0.0
 11
1888.43
 21
249.523
 31
0.0
  0
LINE
  8
0
 62
     250
 10
1888.43
 20
249.523
 30
0.0
 11
1887.56
 21
244.144
 31
0.0
  0
LINE
  8
0
 62
     250
 10
1887.56
 20
244.144
 30
0.0
 11
1886.07
 21
236.56
 31
0.0
  0
LINE
  8
0
 62
     250
 10
1886.07
 20
236.56
 30
0.0
 11
1884.21
 21
228.615
 31
0.0
  0
LINE
  8
0
 62
     250
 10
1884.21
 20
228.615
 30
0.0
 11
1882.02
 21
220.363
 31
0.0
  0
LINE
  8
0
 62
     250
 10
1882.02
 20
220.363
 30
0.0
 11
1879.51
 21
211.851
 31
0.0
  0
LINE
  8
0
 62
     250
 10
1879.51
 20
211.851
 30
0.0
 11
1876.7
 21
203.133
 31
0.0
  0
LINE
  8
0
 62
     250
 10
1876.7
 20
203.133
 30
0.0
 11
1873.61
 21
194.254
 31
0.0
  0
LINE
  8
0
 62
     250
 10
1873.61
 20
194.254
 30
0.0
 11
1871.13
 21
187.504
 31
0.0
  0
LINE
  8
0
 62
     250
 10
1871.13
 20
187.504
 30
0.0
 11
1870.27
 21
185.266
 31
0.0
  0
LINE
  8
0
 62
     250
 10
1870.27
 20
185.266
 30
0.0
 11
1869.36
 21
182.911
 31
0.0
  0
LINE
  8
0
 62
     250
 10
1869.36
 20
182.911
 30
0.0
 11
1866.42
 21
175.934
 31
0.0
  0
LINE
  8
0
 62
     250
 10
1866.42
 20
175.934
 30
0.0
 11
1861.88
 21
166.091
 31
0.0
  0
LINE
  8
0
 62
     250
 10
1861.88
 20
166.091
 30
0.0
 11
1856.78
 21
155.899
 31
0.0
  0
LINE
  8
0
 62
     250
 10
1856.78
 20
155.899
 30
0.0
 11
1851.24
 21
145.517
 31
0.0
  0
LINE
  8
0
 62
     250
 10
1851.24
 20
145.517
 30
0.0
 11
1845.39
 21
135.103
 31
0.0
  0
LINE
  8
0
 62
     250
 10
1845.39
 20
135.103
 30
0.0
 11
1839.34
 21
124.817
 31
0.0
  0
LINE
  8
0
 62
     250
 10
1839.34
 20
124.817
 30
0.0
 11
1833.24
 21
114.821
 31
0.0
  0
LINE
  8
0
 62
     250
 10
1833.24
 20
114.821
 30
0.0
 11
1828.73
 21
107.647
 31
0.0
  0
LINE
  8
0
 62
     250
 10
1828.73
 20
107.647
 30
0.0
 11
1827.2
 21
105.271
 31
0.0
  0
LINE
  8
0
 62
     250
 10
1827.2
 20
105.271
 30
0.0
 11
1825.65
 21
102.866
 31
0.0
  0
LINE
  8
0
 62
     250
 10
1825.65
 20
102.866
 30
0.0
 11
1820.65
 21
95.873
 31
0.0
  0
LINE
  8
0
 62
     250
 10
1820.65
 20
95.873
 30
0.0
 11
1813.12
 21
86.3755
 31
0.0
  0
LINE
  8
0
 62
     250
 10
1813.12
 20
86.3755
 30
0.0
 11
1804.84
 21
77.016
 31
0.0
  0
LINE
  8
0
 62
     250
 10
1804.84
 20
77.016
 30
0.0
 11
1796.03
 21
68.0268
 31
0.0
  0
LINE
  8
0
 62
     250
 10
1796.03
 20
68.0268
 30
0.0
 11
1786.93
 21
59.6456
 31
0.0
  0
LINE
  8
0
 62
     250
 10
1786.93
 20
59.6456
 30
0.0
 11
1777.77
 21
52.1049
 31
0.0
  0
LINE
  8
0
 62
     250
 10
1777.77
 20
52.1049
 30
0.0
 11
1768.79
 21
45.642
 31
0.0
  0
LINE
  8
0
 62
     250
 10
1768.79
 20
45.642
 30
0.0
 11
1762.42
 21
41.6638
 31
0.0
  0
LINE
  8
0
 62
     250
 10
1762.42
 20
41.6638
 30
0.0
 11
1760.22
 21
40.4883
 31
0.0
  0
LINE
  8
0
 62
     250
 10
1760.22
 20
40.4883
 30
0.0
 11
1758.09
 21
39.3569
 31
0.0
  0
LINE
  8
0
 62
     250
 10
1758.09
 20
39.3569
 30
0.0
 11
1751.67
 21
36.0454
 31
0.0
  0
LINE
  8
0
 62
     250
 10
1751.67
 20
36.0454
 30
0.0
 11
1742.6
 21
31.6343
 31
0.0
  0
LINE
  8
0
 62
     250
 10
1742.6
 20
31.6343
 30
0.0
 11
1733.02
 21
27.3802
 31
0.0
  0
LINE
  8
0
 62
     250
 10
1733.02
 20
27.3802
 30
0.0
 11
1722.92
 21
23.4074
 31
0.0
  0
LINE
  8
0
 62
     250
 10
1722.92
 20
23.4074
 30
0.0
 11
1712.3
 21
19.8382
 31
0.0
  0
LINE
  8
0
 62
     250
 10
1712.3
 20
19.8382
 30
0.0
 11
1701.15
 21
16.7983
 31
0.0
  0
LINE
  8
0
 62
     250
 10
1701.15
 20
16.7983
 30
0.0
 11
1689.47
 21
14.4088
 31
0.0
  0
LINE
  8
0
 62
     250
 10
1689.47
 20
14.4088
 30
0.0
 11
1680.32
 21
13.0859
 31
0.0
  0
LINE
  8
0
 62
     250
 10
1680.32
 20
13.0859
 30
0.0
 11
1677.26
 21
12.7951
 31
0.0
  0
LINE
  8
0
 62
     250
 10
1677.26
 20
12.7951
 30
0.0
 11
1674.22
 21
12.5084
 31
0.0
  0
LINE
  8
0
 62
     250
 10
1674.22
 20
12.5084
 30
0.0
 11
1665.1
 21
11.8759
 31
0.0
  0
LINE
  8
0
 62
     250
 10
1665.1
 20
11.8759
 30
0.0
 11
1653.52
 21
11.4804
 31
0.0
  0
LINE
  8
0
 62
     250
 10
1653.52
 20
11.4804
 30
0.0
 11
1642.43
 21
11.6017
 31
0.0
  0
LINE
  8
0
 62
     250
 10
1642.43
 20
11.6017
 30
0.0
 11
1631.75
 21
12.2342
 31
0.0
  0
LINE
  8
0
 62
     250
 10
1631.75
 20
12.2342
 30
0.0
 11
1621.4
 21
13.3739
 31
0.0
  0
LINE
  8
0
 62
     250
 10
1621.4
 20
13.3739
 30
0.0
 11
1611.29
 21
15.0124
 31
0.0
  0
LINE
  8
0
 62
     250
 10
1611.29
 20
15.0124
 30
0.0
 11
1601.34
 21
17.1456
 31
0.0
  0
LINE
  8
0
 62
     250
 10
1601.34
 20
17.1456
 30
0.0
 11
1593.91
 21
19.0541
 31
0.0
  0
LINE
  8
0
 62
     250
 10
1593.91
 20
19.0541
 30
0.0
 11
1591.46
 21
19.7652
 31
0.0
  0
LINE
  8
0
 62
     250
 10
1591.46
 20
19.7652
 30
0.0
 11
1588.92
 21
20.5011
 31
0.0
  0
LINE
  8
0
 62
     250
 10
1588.92
 20
20.5011
 30
0.0
 11
1581.42
 21
23.1138
 31
0.0
  0
LINE
  8
0
 62
     250
 10
1581.42
 20
23.1138
 30
0.0
 11
1571.16
 21
27.3761
 31
0.0
  0
LINE
  8
0
 62
     250
 10
1571.16
 20
27.3761
 30
0.0
 11
1560.84
 21
32.4611
 31
0.0
  0
LINE
  8
0
 62
     250
 10
1560.84
 20
32.4611
 30
0.0
 11
1550.6
 21
38.2859
 31
0.0
  0
LINE
  8
0
 62
     250
 10
1550.6
 20
38.2859
 30
0.0
 11
1540.61
 21
44.7615
 31
0.0
  0
LINE
  8
0
 62
     250
 10
1540.61
 20
44.7615
 30
0.0
 11
1531.02
 21
51.8019
 31
0.0
  0
LINE
  8
0
 62
     250
 10
1531.02
 20
51.8019
 30
0.0
 11
1521.99
 21
59.3189
 31
0.0
  0
LINE
  8
0
 62
     250
 10
1521.99
 20
59.3189
 30
0.0
 11
1515.67
 21
65.1771
 31
0.0
  0
LINE
  8
0
 62
     250
 10
1515.67
 20
65.1771
 30
0.0
 11
1513.67
 21
67.225
 31
0.0
  0
LINE
  8
0
 62
     250
 10
1513.67
 20
67.225
 30
0.0
 11
1512.66
 21
68.253
 31
0.0
  0
LINE
  8
0
 62
     250
 10
1512.66
 20
68.253
 30
0.0
 11
1509.66
 21
71.3588
 31
0.0
  0
LINE
  8
0
 62
     250
 10
1509.66
 20
71.3588
 30
0.0
 11
1505.57
 21
75.6613
 31
0.0
  0
LINE
  8
0
 62
     250
 10
1505.57
 20
75.6613
 30
0.0
 11
1501.44
 21
80.0887
 31
0.0
  0
LINE
  8
0
 62
     250
 10
1501.44
 20
80.0887
 30
0.0
 11
1497.29
 21
84.6018
 31
0.0
  0
LINE
  8
0
 62
     250
 10
1497.29
 20
84.6018
 30
0.0
 11
1493.18
 21
89.1604
 31
0.0
  0
LINE
  8
0
 62
     250
 10
1493.18
 20
89.1604
 30
0.0
 11
1489.12
 21
93.7218
 31
0.0
  0
LINE
  8
0
 62
     250
 10
1489.12
 20
93.7218
 30
0.0
 11
1485.17
 21
98.2472
 31
0.0
  0
LINE
  8
0
 62
     250
 10
1485.17
 20
98.2472
 30
0.0
 11
1481.35
 21
102.695
 31
0.0
  0
LINE
  8
0
 62
     250
 10
1481.35
 20
102.695
 30
0.0
 11
1477.69
 21
107.025
 31
0.0
  0
LINE
  8
0
 62
     250
 10
1477.69
 20
107.025
 30
0.0
 11
1474.23
 21
111.195
 31
0.0
  0
LINE
  8
0
 62
     250
 10
1474.23
 20
111.195
 30
0.0
 11
1471.02
 21
115.165
 31
0.0
  0
LINE
  8
0
 62
     250
 10
1471.02
 20
115.165
 30
0.0
 11
1468.08
 21
118.896
 31
0.0
  0
LINE
  8
0
 62
     250
 10
1468.08
 20
118.896
 30
0.0
 11
1465.45
 21
122.344
 31
0.0
  0
LINE
  8
0
 62
     250
 10
1465.45
 20
122.344
 30
0.0
 11
1463.16
 21
125.469
 31
0.0
  0
LINE
  8
0
 62
     250
 10
1463.16
 20
125.469
 30
0.0
 11
1461.25
 21
128.232
 31
0.0
  0
LINE
  8
0
 62
     250
 10
1461.25
 20
128.232
 30
0.0
 11
1460.12
 21
129.99
 31
0.0
  0
LINE
  8
0
 62
     250
 10
1460.12
 20
129.99
 30
0.0
 11
1459.76
 21
130.59
 31
0.0
  0
LINE
  8
0
 62
     250
 10
1459.76
 20
130.59
 30
0.0
 11
1459.07
 21
131.757
 31
0.0
  0
LINE
  8
0
 62
     250
 10
1459.07
 20
131.757
 30
0.0
 11
1457.26
 21
135.418
 31
0.0
  0
LINE
  8
0
 62
     250
 10
1457.26
 20
135.418
 30
0.0
 11
1454.88
 21
141.108
 31
0.0
  0
LINE
  8
0
 62
     250
 10
1454.88
 20
141.108
 30
0.0
 11
1452.66
 21
147.325
 31
0.0
  0
LINE
  8
0
 62
     250
 10
1452.66
 20
147.325
 30
0.0
 11
1450.65
 21
153.731
 31
0.0
  0
LINE
  8
0
 62
     250
 10
1450.65
 20
153.731
 30
0.0
 11
1448.89
 21
159.996
 31
0.0
  0
LINE
  8
0
 62
     250
 10
1448.89
 20
159.996
 30
0.0
 11
1447.44
 21
165.781
 31
0.0
  0
LINE
  8
0
 62
     250
 10
1447.44
 20
165.781
 30
0.0
 11
1446.34
 21
170.754
 31
0.0
  0
LINE
  8
0
 62
     250
 10
1446.34
 20
170.754
 30
0.0
 11
1445.79
 21
173.618
 31
0.0
  0
LINE
  8
0
 62
     250
 10
1445.79
 20
173.618
 30
0.0
 11
1445.63
 21
174.577
 31
0.0
  0
LINE
  8
0
 62
     250
 10
1445.63
 20
174.577
 30
0.0
 11
1445.51
 21
175.405
 31
0.0
  0
LINE
  8
0
 62
     250
 10
1445.51
 20
175.405
 30
0.0
 11
1445.07
 21
177.877
 31
0.0
  0
LINE
  8
0
 62
     250
 10
1445.07
 20
177.877
 30
0.0
 11
1444.37
 21
181.408
 31
0.0
  0
LINE
  8
0
 62
     250
 10
1444.37
 20
181.408
 30
0.0
 11
1443.59
 21
185.033
 31
0.0
  0
LINE
  8
0
 62
     250
 10
1443.59
 20
185.033
 30
0.0
 11
1442.77
 21
188.612
 31
0.0
  0
LINE
  8
0
 62
     250
 10
1442.77
 20
188.612
 30
0.0
 11
1441.97
 21
192.009
 31
0.0
  0
LINE
  8
0
 62
     250
 10
1441.97
 20
192.009
 30
0.0
 11
1441.21
 21
195.086
 31
0.0
  0
LINE
  8
0
 62
     250
 10
1441.21
 20
195.086
 30
0.0
 11
1440.55
 21
197.704
 31
0.0
  0
LINE
  8
0
 62
     250
 10
1440.55
 20
197.704
 30
0.0
 11
1440.17
 21
199.222
 31
0.0
  0
LINE
  8
0
 62
     250
 10
1440.17
 20
199.222
 30
0.0
 11
1440.04
 21
199.726
 31
0.0
  0
LINE
  8
0
 62
     250
 10
1440.04
 20
199.726
 30
0.0
 11
1439.89
 21
200.346
 31
0.0
  0
LINE
  8
0
 62
     250
 10
1439.89
 20
200.346
 30
0.0
 11
1439.41
 21
202.208
 31
0.0
  0
LINE
  8
0
 62
     250
 10
1439.41
 20
202.208
 30
0.0
 11
1438.46
 21
206.094
 31
0.0
  0
LINE
  8
0
 62
     250
 10
1438.46
 20
206.094
 30
0.0
 11
1437.27
 21
211.085
 31
0.0
  0
LINE
  8
0
 62
     250
 10
1437.27
 20
211.085
 30
0.0
 11
1435.96
 21
216.885
 31
0.0
  0
LINE
  8
0
 62
     250
 10
1435.96
 20
216.885
 30
0.0
 11
1434.63
 21
223.194
 31
0.0
  0
LINE
  8
0
 62
     250
 10
1434.63
 20
223.194
 30
0.0
 11
1433.39
 21
229.711
 31
0.0
  0
LINE
  8
0
 62
     250
 10
1433.39
 20
229.711
 30
0.0
 11
1432.33
 21
236.138
 31
0.0
  0
LINE
  8
0
 62
     250
 10
1432.33
 20
236.138
 30
0.0
 11
1431.72
 21
240.663
 31
0.0
  0
LINE
  8
0
 62
     250
 10
1431.72
 20
240.663
 30
0.0
 11
1431.57
 21
242.176
 31
0.0
  0
LINE
  8
0
 62
     250
 10
1431.57
 20
242.176
 30
0.0
 11
1431.49
 21
242.981
 31
0.0
  0
LINE
  8
0
 62
     250
 10
1431.49
 20
242.981
 30
0.0
 11
1431.28
 21
245.397
 31
0.0
  0
LINE
  8
0
 62
     250
 10
1431.28
 20
245.397
 30
0.0
 11
1430.97
 21
249.262
 31
0.0
  0
LINE
  8
0
 62
     250
 10
1430.97
 20
249.262
 30
0.0
 11
1430.66
 21
253.697
 31
0.0
  0
LINE
  8
0
 62
     250
 10
1430.66
 20
253.697
 30
0.0
 11
1430.36
 21
258.627
 31
0.0
  0
LINE
  8
0
 62
     250
 10
1430.36
 20
258.627
 30
0.0
 11
1430.06
 21
263.98
 31
0.0
  0
LINE
  8
0
 62
     250
 10
1430.06
 20
263.98
 30
0.0
 11
1429.77
 21
269.677
 31
0.0
  0
LINE
  8
0
 62
     250
 10
1429.77
 20
269.677
 30
0.0
 11
1429.49
 21
275.645
 31
0.0
  0
LINE
  8
0
 62
     250
 10
1429.49
 20
275.645
 30
0.0
 11
1429.24
 21
281.809
 31
0.0
  0
LINE
  8
0
 62
     250
 10
1429.24
 20
281.809
 30
0.0
 11
1429.01
 21
288.095
 31
0.0
  0
LINE
  8
0
 62
     250
 10
1429.01
 20
288.095
 30
0.0
 11
1428.82
 21
294.428
 31
0.0
  0
LINE
  8
0
 62
     250
 10
1428.82
 20
294.428
 30
0.0
 11
1428.66
 21
300.732
 31
0.0
  0
LINE
  8
0
 62
     250
 10
1428.66
 20
300.732
 30
0.0
 11
1428.54
 21
306.933
 31
0.0
  0
LINE
  8
0
 62
     250
 10
1428.54
 20
306.933
 30
0.0
 11
1428.46
 21
312.957
 31
0.0
  0
LINE
  8
0
 62
     250
 10
1428.46
 20
312.957
 30
0.0
 11
1428.44
 21
318.728
 31
0.0
  0
LINE
  8
0
 62
     250
 10
1428.44
 20
318.728
 30
0.0
 11
1428.47
 21
324.171
 31
0.0
  0
LINE
  8
0
 62
     250
 10
1428.47
 20
324.171
 30
0.0
 11
1428.54
 21
327.952
 31
0.0
  0
LINE
  8
0
 62
     250
 10
1428.54
 20
327.952
 30
0.0
 11
1428.57
 21
329.212
 31
0.0
  0
LINE
  8
0
 62
     250
 10
1428.57
 20
329.212
 30
0.0
 11
1428.61
 21
330.489
 31
0.0
  0
LINE
  8
0
 62
     250
 10
1428.61
 20
330.489
 30
0.0
 11
1428.74
 21
334.322
 31
0.0
  0
LINE
  8
0
 62
     250
 10
1428.74
 20
334.322
 30
0.0
 11
1428.99
 21
339.959
 31
0.0
  0
LINE
  8
0
 62
     250
 10
1428.99
 20
339.959
 30
0.0
 11
1429.31
 21
346.031
 31
0.0
  0
LINE
  8
0
 62
     250
 10
1429.31
 20
346.031
 30
0.0
 11
1429.7
 21
352.446
 31
0.0
  0
LINE
  8
0
 62
     250
 10
1429.7
 20
352.446
 30
0.0
 11
1430.14
 21
359.11
 31
0.0
  0
LINE
  8
0
 62
     250
 10
1430.14
 20
359.11
 30
0.0
 11
1430.64
 21
365.936
 31
0.0
  0
LINE
  8
0
 62
     250
 10
1430.64
 20
365.936
 30
0.0
 11
1431.18
 21
372.826
 31
0.0
  0
LINE
  8
0
 62
     250
 10
1431.18
 20
372.826
 30
0.0
 11
1431.75
 21
379.691
 31
0.0
  0
LINE
  8
0
 62
     250
 10
1431.75
 20
379.691
 30
0.0
 11
1432.35
 21
386.436
 31
0.0
  0
LINE
  8
0
 62
     250
 10
1432.35
 20
386.436
 30
0.0
 11
1432.97
 21
392.977
 31
0.0
  0
LINE
  8
0
 62
     250
 10
1432.97
 20
392.977
 30
0.0
 11
1433.61
 21
399.21
 31
0.0
  0
LINE
  8
0
 62
     250
 10
1433.61
 20
399.21
 30
0.0
 11
1434.25
 21
405.052
 31
0.0
  0
LINE
  8
0
 62
     250
 10
1434.25
 20
405.052
 30
0.0
 11
1434.88
 21
410.404
 31
0.0
  0
LINE
  8
0
 62
     250
 10
1434.88
 20
410.404
 30
0.0
 11
1435.52
 21
415.177
 31
0.0
  0
LINE
  8
0
 62
     250
 10
1435.52
 20
415.177
 30
0.0
 11
1436.13
 21
419.283
 31
0.0
  0
LINE
  8
0
 62
     250
 10
1436.13
 20
419.283
 30
0.0
 11
1436.55
 21
421.792
 31
0.0
  0
LINE
  8
0
 62
     250
 10
1436.55
 20
421.792
 30
0.0
 11
1436.71
 21
422.621
 31
0.0
  0
LINE
  8
0
 62
     250
 10
1436.71
 20
422.621
 30
0.0
 11
1437.23
 21
425.302
 31
0.0
  0
LINE
  8
0
 62
     250
 10
1437.23
 20
425.302
 30
0.0
 11
1438.85
 21
433.331
 31
0.0
  0
LINE
  8
0
 62
     250
 10
1438.85
 20
433.331
 30
0.0
 11
1440.73
 21
442.158
 31
0.0
  0
LINE
  8
0
 62
     250
 10
1440.73
 20
442.158
 30
0.0
 11
1442.41
 21
449.294
 31
0.0
  0
LINE
  8
0
 62
     250
 10
1442.41
 20
449.294
 30
0.0
 11
1443.53
 21
453.538
 31
0.0
  0
LINE
  8
0
 62
     250
 10
1443.53
 20
453.538
 30
0.0
 11
1443.95
 21
454.939
 31
0.0
  0
LINE
  8
0
 62
     250
 10
1443.95
 20
454.939
 30
0.0
 11
1444.37
 21
456.343
 31
0.0
  0
LINE
  8
0
 62
     250
 10
1444.37
 20
456.343
 30
0.0
 11
1445.6
 21
460.566
 31
0.0
  0
LINE
  8
0
 62
     250
 10
1445.6
 20
460.566
 30
0.0
 11
1447.4
 21
466.983
 31
0.0
  0
LINE
  8
0
 62
     250
 10
1447.4
 20
466.983
 30
0.0
 11
1449.14
 21
473.378
 31
0.0
  0
LINE
  8
0
 62
     250
 10
1449.14
 20
473.378
 30
0.0
 11
1450.21
 21
477.541
 31
0.0
  0
LINE
  8
0
 62
     250
 10
1450.21
 20
477.541
 30
0.0
 11
1450.55
 21
478.935
 31
0.0
  0
LINE
  8
0
 62
     250
 10
1468.12
 20
518.527
 30
0.0
 11
1468.12
 21
518.527
 31
0.0
  0
LINE
  8
0
 62
     250
 10
1468.12
 20
518.527
 30
0.0
 11
1468.58
 21
517.941
 31
0.0
  0
LINE
  8
0
 62
     250
 10
1468.58
 20
517.941
 30
0.0
 11
1469.87
 21
516.28
 31
0.0
  0
LINE
  8
0
 62
     250
 10
1469.87
 20
516.28
 30
0.0
 11
1471.88
 21
513.694
 31
0.0
  0
LINE
  8
0
 62
     250
 10
1471.88
 20
513.694
 30
0.0
 11
1474.46
 21
510.339
 31
0.0
  0
LINE
  8
0
 62
     250
 10
1474.46
 20
510.339
 30
0.0
 11
1477.5
 21
506.356
 31
0.0
  0
LINE
  8
0
 62
     250
 10
1477.5
 20
506.356
 30
0.0
 11
1480.84
 21
501.9
 31
0.0
  0
LINE
  8
0
 62
     250
 10
1480.84
 20
501.9
 30
0.0
 11
1484.38
 21
497.124
 31
0.0
  0
LINE
  8
0
 62
     250
 10
1484.38
 20
497.124
 30
0.0
 11
1487.09
 21
493.413
 31
0.0
  0
LINE
  8
0
 62
     250
 10
1487.09
 20
493.413
 30
0.0
 11
1487.98
 21
492.171
 31
0.0
  0
LINE
  8
0
 62
     250
 10
1487.98
 20
492.171
 30
0.0
 11
1488.92
 21
490.869
 31
0.0
  0
LINE
  8
0
 62
     250
 10
1488.92
 20
490.869
 30
0.0
 11
1491.63
 21
486.904
 31
0.0
  0
LINE
  8
0
 62
     250
 10
1491.63
 20
486.904
 30
0.0
 11
1495.35
 21
481.185
 31
0.0
  0
LINE
  8
0
 62
     250
 10
1495.35
 20
481.185
 30
0.0
 11
1499.08
 21
475.153
 31
0.0
  0
LINE
  8
0
 62
     250
 10
1499.08
 20
475.153
 30
0.0
 11
1502.73
 21
468.944
 31
0.0
  0
LINE
  8
0
 62
     250
 10
1502.73
 20
468.944
 30
0.0
 11
1506.25
 21
462.7
 31
0.0
  0
LINE
  8
0
 62
     250
 10
1506.25
 20
462.7
 30
0.0
 11
1509.54
 21
456.561
 31
0.0
  0
LINE
  8
0
 62
     250
 10
1509.54
 20
456.561
 30
0.0
 11
1512.54
 21
450.667
 31
0.0
  0
LINE
  8
0
 62
     250
 10
1512.54
 20
450.667
 30
0.0
 11
1514.54
 21
446.543
 31
0.0
  0
LINE
  8
0
 62
     250
 10
1514.54
 20
446.543
 30
0.0
 11
1515.18
 21
445.156
 31
0.0
  0
LINE
  8
0
 62
     250
 10
1515.18
 20
445.156
 30
0.0
 11
1516.49
 21
442.33
 31
0.0
  0
LINE
  8
0
 62
     250
 10
1516.49
 20
442.33
 30
0.0
 11
1519.96
 21
433.652
 31
0.0
  0
LINE
  8
0
 62
     250
 10
1519.96
 20
433.652
 30
0.0
 11
1524.53
 21
420.289
 31
0.0
  0
LINE
  8
0
 62
     250
 10
1524.53
 20
420.289
 30
0.0
 11
1528.85
 21
405.141
 31
0.0
  0
LINE
  8
0
 62
     250
 10
1528.85
 20
405.141
 30
0.0
 11
1531.94
 21
392.525
 31
0.0
  0
LINE
  8
0
 62
     250
 10
1531.94
 20
392.525
 30
0.0
 11
1532.86
 21
388.295
 31
0.0
  0
LINE
  8
0
 62
     250
 10
1532.86
 20
388.295
 30
0.0
 11
1533.34
 21
386.101
 31
0.0
  0
LINE
  8
0
 62
     250
 10
1533.34
 20
386.101
 30
0.0
 11
1534.56
 21
379.476
 31
0.0
  0
LINE
  8
0
 62
     250
 10
1534.56
 20
379.476
 30
0.0
 11
1535.85
 21
370.745
 31
0.0
  0
LINE
  8
0
 62
     250
 10
1535.85
 20
370.745
 30
0.0
 11
1536.78
 21
362.197
 31
0.0
  0
LINE
  8
0
 62
     250
 10
1536.78
 20
362.197
 30
0.0
 11
1537.4
 21
353.91
 31
0.0
  0
LINE
  8
0
 62
     250
 10
1537.4
 20
353.91
 30
0.0
 11
1537.76
 21
345.983
 31
0.0
  0
LINE
  8
0
 62
     250
 10
1537.76
 20
345.983
 30
0.0
 11
1537.91
 21
338.495
 31
0.0
  0
LINE
  8
0
 62
     250
 10
1537.91
 20
338.495
 30
0.0
 11
1537.9
 21
331.535
 31
0.0
  0
LINE
  8
0
 62
     250
 10
1537.9
 20
331.535
 30
0.0
 11
1537.83
 21
326.78
 31
0.0
  0
LINE
  8
0
 62
     250
 10
1537.83
 20
326.78
 30
0.0
 11
1537.78
 21
325.194
 31
0.0
  0
LINE
  8
0
 62
     250
 10
1537.78
 20
325.194
 30
0.0
 11
1537.74
 21
323.552
 31
0.0
  0
LINE
  8
0
 62
     250
 10
1537.74
 20
323.552
 30
0.0
 11
1537.54
 21
318.629
 31
0.0
  0
LINE
  8
0
 62
     250
 10
1537.54
 20
318.629
 30
0.0
 11
1537.14
 21
311.153
 31
0.0
  0
LINE
  8
0
 62
     250
 10
1537.14
 20
311.153
 30
0.0
 11
1536.58
 21
303.08
 31
0.0
  0
LINE
  8
0
 62
     250
 10
1536.58
 20
303.08
 30
0.0
 11
1535.89
 21
294.731
 31
0.0
  0
LINE
  8
0
 62
     250
 10
1535.89
 20
294.731
 30
0.0
 11
1535.06
 21
286.419
 31
0.0
  0
LINE
  8
0
 62
     250
 10
1535.06
 20
286.419
 30
0.0
 11
1534.1
 21
278.462
 31
0.0
  0
LINE
  8
0
 62
     250
 10
1534.1
 20
278.462
 30
0.0
 11
1533.03
 21
271.176
 31
0.0
  0
LINE
  8
0
 62
     250
 10
1533.03
 20
271.176
 30
0.0
 11
1532.19
 21
266.444
 31
0.0
  0
LINE
  8
0
 62
     250
 10
1532.19
 20
266.444
 30
0.0
 11
1531.85
 21
264.878
 31
0.0
  0
LINE
  8
0
 62
     250
 10
1531.85
 20
264.878
 30
0.0
 11
1531.54
 21
263.409
 31
0.0
  0
LINE
  8
0
 62
     250
 10
1531.54
 20
263.409
 30
0.0
 11
1530.49
 21
259.023
 31
0.0
  0
LINE
  8
0
 62
     250
 10
1530.49
 20
259.023
 30
0.0
 11
1528.89
 21
252.934
 31
0.0
  0
LINE
  8
0
 62
     250
 10
1528.89
 20
252.934
 30
0.0
 11
1527.1
 21
246.733
 31
0.0
  0
LINE
  8
0
 62
     250
 10
1527.1
 20
246.733
 30
0.0
 11
1525.21
 21
240.548
 31
0.0
  0
LINE
  8
0
 62
     250
 10
1525.21
 20
240.548
 30
0.0
 11
1523.25
 21
234.497
 31
0.0
  0
LINE
  8
0
 62
     250
 10
1523.25
 20
234.497
 30
0.0
 11
1521.28
 21
228.705
 31
0.0
  0
LINE
  8
0
 62
     250
 10
1521.28
 20
228.705
 30
0.0
 11
1519.37
 21
223.297
 31
0.0
  0
LINE
  8
0
 62
     250
 10
1519.37
 20
223.297
 30
0.0
 11
1518.03
 21
219.618
 31
0.0
  0
LINE
  8
0
 62
     250
 10
1518.03
 20
219.618
 30
0.0
 11
1517.58
 21
218.394
 31
0.0
  0
LINE
  8
0
 62
     250
 10
1517.58
 20
218.394
 30
0.0
 11
1517.13
 21
217.184
 31
0.0
  0
LINE
  8
0
 62
     250
 10
1517.13
 20
217.184
 30
0.0
 11
1515.64
 21
213.6
 31
0.0
  0
LINE
  8
0
 62
     250
 10
1515.64
 20
213.6
 30
0.0
 11
1513.34
 21
208.533
 31
0.0
  0
LINE
  8
0
 62
     250
 10
1513.34
 20
208.533
 30
0.0
 11
1510.78
 21
203.342
 31
0.0
  0
LINE
  8
0
 62
     250
 10
1510.78
 20
203.342
 30
0.0
 11
1508.07
 21
198.177
 31
0.0
  0
LINE
  8
0
 62
     250
 10
1508.07
 20
198.177
 30
0.0
 11
1505.3
 21
193.187
 31
0.0
  0
LINE
  8
0
 62
     250
 10
1505.3
 20
193.187
 30
0.0
 11
1502.6
 21
188.523
 31
0.0
  0
LINE
  8
0
 62
     250
 10
1502.6
 20
188.523
 30
0.0
 11
1500.06
 21
184.329
 31
0.0
  0
LINE
  8
0
 62
     250
 10
1500.06
 20
184.329
 30
0.0
 11
1498.37
 21
181.645
 31
0.0
  0
LINE
  8
0
 62
     250
 10
1498.37
 20
181.645
 30
0.0
 11
1497.79
 21
180.759
 31
0.0
  0
LINE
  8
0
 62
     250
 10
1476.89
 20
520.982
 30
0.0
 11
1476.89
 21
520.982
 31
0.0
  0
LINE
  8
0
 62
     250
 10
1476.89
 20
520.982
 30
0.0
 11
1476.88
 21
520.767
 31
0.0
  0
LINE
  8
0
 62
     250
 10
1476.88
 20
520.767
 30
0.0
 11
1476.94
 21
520.125
 31
0.0
  0
LINE
  8
0
 62
     250
 10
1476.94
 20
520.125
 30
0.0
 11
1477.13
 21
519.056
 31
0.0
  0
LINE
  8
0
 62
     250
 10
1477.13
 20
519.056
 30
0.0
 11
1477.54
 21
517.574
 31
0.0
  0
LINE
  8
0
 62
     250
 10
1477.54
 20
517.574
 30
0.0
 11
1478.24
 21
515.68
 31
0.0
  0
LINE
  8
0
 62
     250
 10
1478.24
 20
515.68
 30
0.0
 11
1479.34
 21
513.38
 31
0.0
  0
LINE
  8
0
 62
     250
 10
1479.34
 20
513.38
 30
0.0
 11
1480.9
 21
510.678
 31
0.0
  0
LINE
  8
0
 62
     250
 10
1480.9
 20
510.678
 30
0.0
 11
1482.46
 21
508.335
 31
0.0
  0
LINE
  8
0
 62
     250
 10
1482.46
 20
508.335
 30
0.0
 11
1483.01
 21
507.577
 31
0.0
  0
LINE
  8
0
 62
     250
 10
1483.01
 20
507.577
 30
0.0
 11
1483.68
 21
506.674
 31
0.0
  0
LINE
  8
0
 62
     250
 10
1483.68
 20
506.674
 30
0.0
 11
1485.82
 21
504.07
 31
0.0
  0
LINE
  8
0
 62
     250
 10
1485.82
 20
504.07
 30
0.0
 11
1489.28
 21
500.2
 31
0.0
  0
LINE
  8
0
 62
     250
 10
1489.28
 20
500.2
 30
0.0
 11
1493.19
 21
496.09
 31
0.0
  0
LINE
  8
0
 62
     250
 10
1493.19
 20
496.09
 30
0.0
 11
1497.36
 21
491.853
 31
0.0
  0
LINE
  8
0
 62
     250
 10
1497.36
 20
491.853
 30
0.0
 11
1501.6
 21
487.609
 31
0.0
  0
LINE
  8
0
 62
     250
 10
1501.6
 20
487.609
 30
0.0
 11
1505.7
 21
483.464
 31
0.0
  0
LINE
  8
0
 62
     250
 10
1505.7
 20
483.464
 30
0.0
 11
1509.49
 21
479.545
 31
0.0
  0
LINE
  8
0
 62
     250
 10
1509.49
 20
479.545
 30
0.0
 11
1511.95
 21
476.878
 31
0.0
  0
LINE
  8
0
 62
     250
 10
1511.95
 20
476.878
 30
0.0
 11
1512.75
 21
475.961
 31
0.0
  0
LINE
  8
0
 62
     250
 10
1512.75
 20
475.961
 30
0.0
 11
1513.59
 21
474.994
 31
0.0
  0
LINE
  8
0
 62
     250
 10
1513.59
 20
474.994
 30
0.0
 11
1515.96
 21
471.96
 31
0.0
  0
LINE
  8
0
 62
     250
 10
1515.96
 20
471.96
 30
0.0
 11
1519.66
 21
466.852
 31
0.0
  0
LINE
  8
0
 62
     250
 10
1519.66
 20
466.852
 30
0.0
 11
1523.7
 21
460.862
 31
0.0
  0
LINE
  8
0
 62
     250
 10
1523.7
 20
460.862
 30
0.0
 11
1527.95
 21
454.208
 31
0.0
  0
LINE
  8
0
 62
     250
 10
1527.95
 20
454.208
 30
0.0
 11
1532.27
 21
447.114
 31
0.0
  0
LINE
  8
0
 62
     250
 10
1532.27
 20
447.114
 30
0.0
 11
1536.53
 21
439.801
 31
0.0
  0
LINE
  8
0
 62
     250
 10
1536.53
 20
439.801
 30
0.0
 11
1540.58
 21
432.491
 31
0.0
  0
LINE
  8
0
 62
     250
 10
1540.58
 20
432.491
 30
0.0
 11
1543.39
 21
427.193
 31
0.0
  0
LINE
  8
0
 62
     250
 10
1543.39
 20
427.193
 30
0.0
 11
1544.3
 21
425.408
 31
0.0
  0
LINE
  8
0
 62
     250
 10
1544.3
 20
425.408
 30
0.0
 11
1545.17
 21
423.686
 31
0.0
  0
LINE
  8
0
 62
     250
 10
1545.17
 20
423.686
 30
0.0
 11
1547.61
 21
418.43
 31
0.0
  0
LINE
  8
0
 62
     250
 10
1547.61
 20
418.43
 30
0.0
 11
1550.58
 21
411.244
 31
0.0
  0
LINE
  8
0
 62
     250
 10
1550.58
 20
411.244
 30
0.0
 11
1553.25
 21
403.779
 31
0.0
  0
LINE
  8
0
 62
     250
 10
1553.25
 20
403.779
 30
0.0
 11
1555.64
 21
395.965
 31
0.0
  0
LINE
  8
0
 62
     250
 10
1555.64
 20
395.965
 30
0.0
 11
1557.82
 21
387.731
 31
0.0
  0
LINE
  8
0
 62
     250
 10
1557.82
 20
387.731
 30
0.0
 11
1559.81
 21
379.007
 31
0.0
  0
LINE
  8
0
 62
     250
 10
1559.81
 20
379.007
 30
0.0
 11
1561.67
 21
369.722
 31
0.0
  0
LINE
  8
0
 62
     250
 10
1561.67
 20
369.722
 30
0.0
 11
1563
 21
362.289
 31
0.0
  0
LINE
  8
0
 62
     250
 10
1563
 20
362.289
 30
0.0
 11
1563.42
 21
359.805
 31
0.0
  0
LINE
  8
0
 62
     250
 10
1563.42
 20
359.805
 30
0.0
 11
1563.84
 21
357.269
 31
0.0
  0
LINE
  8
0
 62
     250
 10
1563.84
 20
357.269
 30
0.0
 11
1564.78
 21
349.604
 31
0.0
  0
LINE
  8
0
 62
     250
 10
1564.78
 20
349.604
 30
0.0
 11
1565.52
 21
339.641
 31
0.0
  0
LINE
  8
0
 62
     250
 10
1565.52
 20
339.641
 30
0.0
 11
1565.76
 21
330.121
 31
0.0
  0
LINE
  8
0
 62
     250
 10
1565.76
 20
330.121
 30
0.0
 11
1565.62
 21
321.248
 31
0.0
  0
LINE
  8
0
 62
     250
 10
1565.62
 20
321.248
 30
0.0
 11
1565.22
 21
313.223
 31
0.0
  0
LINE
  8
0
 62
     250
 10
1565.22
 20
313.223
 30
0.0
 11
1564.67
 21
306.251
 31
0.0
  0
LINE
  8
0
 62
     250
 10
1564.67
 20
306.251
 30
0.0
 11
1564.09
 21
300.534
 31
0.0
  0
LINE
  8
0
 62
     250
 10
1564.09
 20
300.534
 30
0.0
 11
1563.73
 21
297.339
 31
0.0
  0
LINE
  8
0
 62
     250
 10
1563.73
 20
297.339
 30
0.0
 11
1563.6
 21
296.274
 31
0.0
  0
LINE
  8
0
 62
     250
 10
1563.6
 20
296.274
 30
0.0
 11
1563.48
 21
295.235
 31
0.0
  0
LINE
  8
0
 62
     250
 10
1563.48
 20
295.235
 30
0.0
 11
1562.97
 21
292.135
 31
0.0
  0
LINE
  8
0
 62
     250
 10
1562.97
 20
292.135
 30
0.0
 11
1561.93
 21
286.834
 31
0.0
  0
LINE
  8
0
 62
     250
 10
1561.93
 20
286.834
 30
0.0
 11
1560.54
 21
280.672
 31
0.0
  0
LINE
  8
0
 62
     250
 10
1560.54
 20
280.672
 30
0.0
 11
1558.85
 21
273.941
 31
0.0
  0
LINE
  8
0
 62
     250
 10
1558.85
 20
273.941
 30
0.0
 11
1556.93
 21
266.94
 31
0.0
  0
LINE
  8
0
 62
     250
 10
1556.93
 20
266.94
 30
0.0
 11
1554.84
 21
259.963
 31
0.0
  0
LINE
  8
0
 62
     250
 10
1554.84
 20
259.963
 30
0.0
 11
1552.63
 21
253.304
 31
0.0
  0
LINE
  8
0
 62
     250
 10
1552.63
 20
253.304
 30
0.0
 11
1550.97
 21
248.758
 31
0.0
  0
LINE
  8
0
 62
     250
 10
1550.97
 20
248.758
 30
0.0
 11
1550.37
 21
247.261
 31
0.0
  0
LINE
  8
0
 62
     250
 10
1550.37
 20
247.261
 30
0.0
 11
1549.77
 21
245.769
 31
0.0
  0
LINE
  8
0
 62
     250
 10
1549.77
 20
245.769
 30
0.0
 11
1547.83
 21
241.346
 31
0.0
  0
LINE
  8
0
 62
     250
 10
1547.83
 20
241.346
 30
0.0
 11
1544.82
 21
235.016
 31
0.0
  0
LINE
  8
0
 62
     250
 10
1544.82
 20
235.016
 30
0.0
 11
1541.47
 21
228.495
 31
0.0
  0
LINE
  8
0
 62
     250
 10
1541.47
 20
228.495
 30
0.0
 11
1537.92
 21
222.006
 31
0.0
  0
LINE
  8
0
 62
     250
 10
1537.92
 20
222.006
 30
0.0
 11
1534.29
 21
215.771
 31
0.0
  0
LINE
  8
0
 62
     250
 10
1534.29
 20
215.771
 30
0.0
 11
1530.71
 21
210.012
 31
0.0
  0
LINE
  8
0
 62
     250
 10
1530.71
 20
210.012
 30
0.0
 11
1527.32
 21
204.95
 31
0.0
  0
LINE
  8
0
 62
     250
 10
1527.32
 20
204.95
 30
0.0
 11
1525.05
 21
201.818
 31
0.0
  0
LINE
  8
0
 62
     250
 10
1525.05
 20
201.818
 30
0.0
 11
1524.25
 21
200.809
 31
0.0
  0
LINE
  8
0
 62
     250
 10
1524.25
 20
200.809
 30
0.0
 11
1523.86
 21
200.32
 31
0.0
  0
LINE
  8
0
 62
     250
 10
1523.86
 20
200.32
 30
0.0
 11
1522.67
 21
198.859
 31
0.0
  0
LINE
  8
0
 62
     250
 10
1522.67
 20
198.859
 30
0.0
 11
1520.85
 21
196.643
 31
0.0
  0
LINE
  8
0
 62
     250
 10
1520.85
 20
196.643
 30
0.0
 11
1518.81
 21
194.204
 31
0.0
  0
LINE
  8
0
 62
     250
 10
1518.81
 20
194.204
 30
0.0
 11
1516.62
 21
191.587
 31
0.0
  0
LINE
  8
0
 62
     250
 10
1516.62
 20
191.587
 30
0.0
 11
1514.28
 21
188.834
 31
0.0
  0
LINE
  8
0
 62
     250
 10
1514.28
 20
188.834
 30
0.0
 11
1511.87
 21
185.988
 31
0.0
  0
LINE
  8
0
 62
     250
 10
1511.87
 20
185.988
 30
0.0
 11
1509.41
 21
183.094
 31
0.0
  0
LINE
  8
0
 62
     250
 10
1509.41
 20
183.094
 30
0.0
 11
1506.95
 21
180.195
 31
0.0
  0
LINE
  8
0
 62
     250
 10
1506.95
 20
180.195
 30
0.0
 11
1504.52
 21
177.334
 31
0.0
  0
LINE
  8
0
 62
     250
 10
1504.52
 20
177.334
 30
0.0
 11
1502.16
 21
174.555
 31
0.0
  0
LINE
  8
0
 62
     250
 10
1502.16
 20
174.555
 30
0.0
 11
1499.93
 21
171.899
 31
0.0
  0
LINE
  8
0
 62
     250
 10
1499.93
 20
171.899
 30
0.0
 11
1497.85
 21
169.413
 31
0.0
  0
LINE
  8
0
 62
     250
 10
1497.85
 20
169.413
 30
0.0
 11
1495.97
 21
167.139
 31
0.0
  0
LINE
  8
0
 62
     250
 10
1495.97
 20
167.139
 30
0.0
 11
1494.33
 21
165.119
 31
0.0
  0
LINE
  8
0
 62
     250
 10
1494.33
 20
165.119
 30
0.0
 11
1492.97
 21
163.4
 31
0.0
  0
LINE
  8
0
 62
     250
 10
1492.97
 20
163.4
 30
0.0
 11
1492.19
 21
162.37
 31
0.0
  0
LINE
  8
0
 62
     250
 10
1492.19
 20
162.37
 30
0.0
 11
1491.93
 21
162.02
 31
0.0
  0
LINE
  8
0
 62
     250
 10
1491.93
 20
162.02
 30
0.0
 11
1491.47
 21
161.383
 31
0.0
  0
LINE
  8
0
 62
     250
 10
1491.47
 20
161.383
 30
0.0
 11
1490.09
 21
159.463
 31
0.0
  0
LINE
  8
0
 62
     250
 10
1490.09
 20
159.463
 30
0.0
 11
1488.09
 21
156.656
 31
0.0
  0
LINE
  8
0
 62
     250
 10
1488.09
 20
156.656
 30
0.0
 11
1486.04
 21
153.741
 31
0.0
  0
LINE
  8
0
 62
     250
 10
1486.04
 20
153.741
 30
0.0
 11
1484.01
 21
150.862
 31
0.0
  0
LINE
  8
0
 62
     250
 10
1484.01
 20
150.862
 30
0.0
 11
1482.12
 21
148.161
 31
0.0
  0
LINE
  8
0
 62
     250
 10
1482.12
 20
148.161
 30
0.0
 11
1480.45
 21
145.784
 31
0.0
  0
LINE
  8
0
 62
     250
 10
1480.45
 20
145.784
 30
0.0
 11
1479.11
 21
143.87
 31
0.0
  0
LINE
  8
0
 62
     250
 10
1479.11
 20
143.87
 30
0.0
 11
1478.41
 21
142.889
 31
0.0
  0
LINE
  8
0
 62
     250
 10
1478.41
 20
142.889
 30
0.0
 11
1478.18
 21
142.563
 31
0.0
  0
LINE
  8
0
 62
     250
 10
1478.18
 20
142.563
 30
0.0
 11
1477.88
 21
142.143
 31
0.0
  0
LINE
  8
0
 62
     250
 10
1477.88
 20
142.143
 30
0.0
 11
1477.17
 21
140.745
 31
0.0
  0
LINE
  8
0
 62
     250
 10
1477.17
 20
140.745
 30
0.0
 11
1476.88
 21
138.941
 31
0.0
  0
LINE
  8
0
 62
     250
 10
1476.88
 20
138.941
 30
0.0
 11
1477.36
 21
136.908
 31
0.0
  0
LINE
  8
0
 62
     250
 10
1477.36
 20
136.908
 30
0.0
 11
1478.26
 21
135.006
 31
0.0
  0
LINE
  8
0
 62
     250
 10
1478.26
 20
135.006
 30
0.0
 11
1478.62
 21
134.403
 31
0.0
  0
LINE
  8
0
 62
     250
 10
1478.62
 20
134.403
 30
0.0
 11
1478.94
 21
133.852
 31
0.0
  0
LINE
  8
0
 62
     250
 10
1478.94
 20
133.852
 30
0.0
 11
1480.01
 21
132.25
 31
0.0
  0
LINE
  8
0
 62
     250
 10
1480.01
 20
132.25
 30
0.0
 11
1482.41
 21
128.796
 31
0.0
  0
LINE
  8
0
 62
     250
 10
1482.41
 20
128.796
 30
0.0
 11
1485.66
 21
124.313
 31
0.0
  0
LINE
  8
0
 62
     250
 10
1485.66
 20
124.313
 30
0.0
 11
1489.6
 21
119.079
 31
0.0
  0
LINE
  8
0
 62
     250
 10
1489.6
 20
119.079
 30
0.0
 11
1494.07
 21
113.366
 31
0.0
  0
LINE
  8
0
 62
     250
 10
1494.07
 20
113.366
 30
0.0
 11
1498.9
 21
107.45
 31
0.0
  0
LINE
  8
0
 62
     250
 10
1498.9
 20
107.45
 30
0.0
 11
1503.93
 21
101.603
 31
0.0
  0
LINE
  8
0
 62
     250
 10
1503.93
 20
101.603
 30
0.0
 11
1507.71
 21
97.4492
 31
0.0
  0
LINE
  8
0
 62
     250
 10
1507.71
 20
97.4492
 30
0.0
 11
1509.01
 21
96.1016
 31
0.0
  0
LINE
  8
0
 62
     250
 10
1509.01
 20
96.1016
 30
0.0
 11
1510.32
 21
94.7346
 31
0.0
  0
LINE
  8
0
 62
     250
 10
1510.32
 20
94.7346
 30
0.0
 11
1514.29
 21
90.6515
 31
0.0
  0
LINE
  8
0
 62
     250
 10
1514.29
 20
90.6515
 30
0.0
 11
1520.06
 21
84.8596
 31
0.0
  0
LINE
  8
0
 62
     250
 10
1520.06
 20
84.8596
 30
0.0
 11
1526.28
 21
78.861
 31
0.0
  0
LINE
  8
0
 62
     250
 10
1526.28
 20
78.861
 30
0.0
 11
1532.92
 21
72.7879
 31
0.0
  0
LINE
  8
0
 62
     250
 10
1532.92
 20
72.7879
 30
0.0
 11
1539.96
 21
66.7741
 31
0.0
  0
LINE
  8
0
 62
     250
 10
1539.96
 20
66.7741
 30
0.0
 11
1547.37
 21
60.9519
 31
0.0
  0
LINE
  8
0
 62
     250
 10
1547.37
 20
60.9519
 30
0.0
 11
1555.12
 21
55.4549
 31
0.0
  0
LINE
  8
0
 62
     250
 10
1555.12
 20
55.4549
 30
0.0
 11
1561.13
 21
51.6103
 31
0.0
  0
LINE
  8
0
 62
     250
 10
1561.13
 20
51.6103
 30
0.0
 11
1563.19
 21
50.4169
 31
0.0
  0
LINE
  8
0
 62
     250
 10
1563.19
 20
50.4169
 30
0.0
 11
1565.23
 21
49.2305
 31
0.0
  0
LINE
  8
0
 62
     250
 10
1565.23
 20
49.2305
 30
0.0
 11
1571.45
 21
45.8033
 31
0.0
  0
LINE
  8
0
 62
     250
 10
1571.45
 20
45.8033
 30
0.0
 11
1579.78
 21
41.5188
 31
0.0
  0
LINE
  8
0
 62
     250
 10
1579.78
 20
41.5188
 30
0.0
 11
1588.1
 21
37.6121
 31
0.0
  0
LINE
  8
0
 62
     250
 10
1588.1
 20
37.6121
 30
0.0
 11
1596.33
 21
34.1313
 31
0.0
  0
LINE
  8
0
 62
     250
 10
1596.33
 20
34.1313
 30
0.0
 11
1604.39
 21
31.123
 31
0.0
  0
LINE
  8
0
 62
     250
 10
1604.39
 20
31.123
 30
0.0
 11
1612.23
 21
28.6356
 31
0.0
  0
LINE
  8
0
 62
     250
 10
1612.23
 20
28.6356
 30
0.0
 11
1619.75
 21
26.716
 31
0.0
  0
LINE
  8
0
 62
     250
 10
1619.75
 20
26.716
 30
0.0
 11
1625.1
 21
25.6673
 31
0.0
  0
LINE
  8
0
 62
     250
 10
1625.1
 20
25.6673
 30
0.0
 11
1626.89
 21
25.4124
 31
0.0
  0
LINE
  8
0
 62
     250
 10
1626.89
 20
25.4124
 30
0.0
 11
1628.74
 21
25.152
 31
0.0
  0
LINE
  8
0
 62
     250
 10
1628.74
 20
25.152
 30
0.0
 11
1634.3
 21
24.5208
 31
0.0
  0
LINE
  8
0
 62
     250
 10
1634.3
 20
24.5208
 30
0.0
 11
1642.51
 21
23.829
 31
0.0
  0
LINE
  8
0
 62
     250
 10
1642.51
 20
23.829
 30
0.0
 11
1651.25
 21
23.3757
 31
0.0
  0
LINE
  8
0
 62
     250
 10
1651.25
 20
23.3757
 30
0.0
 11
1660.27
 21
23.1965
 31
0.0
  0
LINE
  8
0
 62
     250
 10
1660.27
 20
23.1965
 30
0.0
 11
1669.31
 21
23.3302
 31
0.0
  0
LINE
  8
0
 62
     250
 10
1669.31
 20
23.3302
 30
0.0
 11
1678.09
 21
23.8125
 31
0.0
  0
LINE
  8
0
 62
     250
 10
1678.09
 20
23.8125
 30
0.0
 11
1686.36
 21
24.682
 31
0.0
  0
LINE
  8
0
 62
     250
 10
1686.36
 20
24.682
 30
0.0
 11
1692
 21
25.5736
 31
0.0
  0
LINE
  8
0
 62
     250
 10
1692
 20
25.5736
 30
0.0
 11
1693.86
 21
25.9746
 31
0.0
  0
LINE
  8
0
 62
     250
 10
1693.86
 20
25.9746
 30
0.0
 11
1695.72
 21
26.3784
 31
0.0
  0
LINE
  8
0
 62
     250
 10
1695.72
 20
26.3784
 30
0.0
 11
1701.28
 21
27.7413
 31
0.0
  0
LINE
  8
0
 62
     250
 10
1701.28
 20
27.7413
 30
0.0
 11
1709.36
 21
30.0137
 31
0.0
  0
LINE
  8
0
 62
     250
 10
1709.36
 20
30.0137
 30
0.0
 11
1717.9
 21
32.8138
 31
0.0
  0
LINE
  8
0
 62
     250
 10
1717.9
 20
32.8138
 30
0.0
 11
1726.7
 21
36.1583
 31
0.0
  0
LINE
  8
0
 62
     250
 10
1726.7
 20
36.1583
 30
0.0
 11
1735.53
 21
40.0664
 31
0.0
  0
LINE
  8
0
 62
     250
 10
1735.53
 20
40.0664
 30
0.0
 11
1744.19
 21
44.5562
 31
0.0
  0
LINE
  8
0
 62
     250
 10
1744.19
 20
44.5562
 30
0.0
 11
1752.48
 21
49.6454
 31
0.0
  0
LINE
  8
0
 62
     250
 10
1752.48
 20
49.6454
 30
0.0
 11
1758.34
 21
53.8357
 31
0.0
  0
LINE
  8
0
 62
     250
 10
1758.34
 20
53.8357
 30
0.0
 11
1760.19
 21
55.353
 31
0.0
  0
LINE
  8
0
 62
     250
 10
1760.19
 20
55.353
 30
0.0
 11
1762.08
 21
56.9048
 31
0.0
  0
LINE
  8
0
 62
     250
 10
1762.08
 20
56.9048
 30
0.0
 11
1767.56
 21
61.7873
 31
0.0
  0
LINE
  8
0
 62
     250
 10
1767.56
 20
61.7873
 30
0.0
 11
1774.93
 21
68.9268
 31
0.0
  0
LINE
  8
0
 62
     250
 10
1774.93
 20
68.9268
 30
0.0
 11
1782.18
 21
76.6092
 31
0.0
  0
LINE
  8
0
 62
     250
 10
1782.18
 20
76.6092
 30
0.0
 11
1789.19
 21
84.6667
 31
0.0
  0
LINE
  8
0
 62
     250
 10
1789.19
 20
84.6667
 30
0.0
 11
1795.85
 21
92.9337
 31
0.0
  0
LINE
  8
0
 62
     250
 10
1795.85
 20
92.9337
 30
0.0
 11
1802.06
 21
101.242
 31
0.0
  0
LINE
  8
0
 62
     250
 10
1802.06
 20
101.242
 30
0.0
 11
1807.7
 21
109.427
 31
0.0
  0
LINE
  8
0
 62
     250
 10
1807.7
 20
109.427
 30
0.0
 11
1811.46
 21
115.32
 31
0.0
  0
LINE
  8
0
 62
     250
 10
1811.46
 20
115.32
 30
0.0
 11
1812.65
 21
117.321
 31
0.0
  0
LINE
  8
0
 62
     250
 10
1812.65
 20
117.321
 30
0.0
 11
1813.27
 21
118.36
 31
0.0
  0
LINE
  8
0
 62
     250
 10
1813.27
 20
118.36
 30
0.0
 11
1815.03
 21
121.532
 31
0.0
  0
LINE
  8
0
 62
     250
 10
1815.03
 20
121.532
 30
0.0
 11
1817.55
 21
126.387
 31
0.0
  0
LINE
  8
0
 62
     250
 10
1817.55
 20
126.387
 30
0.0
 11
1820.18
 21
131.758
 31
0.0
  0
LINE
  8
0
 62
     250
 10
1820.18
 20
131.758
 30
0.0
 11
1822.88
 21
137.521
 31
0.0
  0
LINE
  8
0
 62
     250
 10
1822.88
 20
137.521
 30
0.0
 11
1825.59
 21
143.547
 31
0.0
  0
LINE
  8
0
 62
     250
 10
1825.59
 20
143.547
 30
0.0
 11
1828.3
 21
149.714
 31
0.0
  0
LINE
  8
0
 62
     250
 10
1828.3
 20
149.714
 30
0.0
 11
1830.93
 21
155.892
 31
0.0
  0
LINE
  8
0
 62
     250
 10
1830.93
 20
155.892
 30
0.0
 11
1833.47
 21
161.955
 31
0.0
  0
LINE
  8
0
 62
     250
 10
1833.47
 20
161.955
 30
0.0
 11
1835.87
 21
167.779
 31
0.0
  0
LINE
  8
0
 62
     250
 10
1835.87
 20
167.779
 30
0.0
 11
1838.08
 21
173.236
 31
0.0
  0
LINE
  8
0
 62
     250
 10
1838.08
 20
173.236
 30
0.0
 11
1840.06
 21
178.2
 31
0.0
  0
LINE
  8
0
 62
     250
 10
1840.06
 20
178.2
 30
0.0
 11
1841.78
 21
182.545
 31
0.0
  0
LINE
  8
0
 62
     250
 10
1841.78
 20
182.545
 30
0.0
 11
1843.19
 21
186.144
 31
0.0
  0
LINE
  8
0
 62
     250
 10
1843.19
 20
186.144
 30
0.0
 11
1844.25
 21
188.87
 31
0.0
  0
LINE
  8
0
 62
     250
 10
1844.25
 20
188.87
 30
0.0
 11
1844.91
 21
190.599
 31
0.0
  0
LINE
  8
0
 62
     250
 10
1844.91
 20
190.599
 30
0.0
 11
1845.14
 21
191.203
 31
0.0
  0
LINE
  8
0
 62
     250
 10
1845.14
 20
191.203
 30
0.0
 11
1845.14
 21
191.203
 31
0.0
  0
LINE
  8
0
 62
     250
 10
1840.8
 20
184.37
 30
0.0
 11
1840.8
 21
184.37
 31
0.0
  0
LINE
  8
0
 62
     250
 10
1840.8
 20
184.37
 30
0.0
 11
1840.62
 21
184.1
 31
0.0
  0
LINE
  8
0
 62
     250
 10
1840.62
 20
184.1
 30
0.0
 11
1840.1
 21
183.322
 31
0.0
  0
LINE
  8
0
 62
     250
 10
1840.1
 20
183.322
 30
0.0
 11
1839.27
 21
182.084
 31
0.0
  0
LINE
  8
0
 62
     250
 10
1839.27
 20
182.084
 30
0.0
 11
1838.15
 21
180.433
 31
0.0
  0
LINE
  8
0
 62
     250
 10
1838.15
 20
180.433
 30
0.0
 11
1836.77
 21
178.422
 31
0.0
  0
LINE
  8
0
 62
     250
 10
1836.77
 20
178.422
 30
0.0
 11
1835.16
 21
176.095
 31
0.0
  0
LINE
  8
0
 62
     250
 10
1835.16
 20
176.095
 30
0.0
 11
1833.34
 21
173.503
 31
0.0
  0
LINE
  8
0
 62
     250
 10
1833.34
 20
173.503
 30
0.0
 11
1831.34
 21
170.693
 31
0.0
  0
LINE
  8
0
 62
     250
 10
1831.34
 20
170.693
 30
0.0
 11
1829.19
 21
167.715
 31
0.0
  0
LINE
  8
0
 62
     250
 10
1829.19
 20
167.715
 30
0.0
 11
1826.91
 21
164.618
 31
0.0
  0
LINE
  8
0
 62
     250
 10
1826.91
 20
164.618
 30
0.0
 11
1824.52
 21
161.449
 31
0.0
  0
LINE
  8
0
 62
     250
 10
1824.52
 20
161.449
 30
0.0
 11
1822.07
 21
158.257
 31
0.0
  0
LINE
  8
0
 62
     250
 10
1822.07
 20
158.257
 30
0.0
 11
1819.56
 21
155.091
 31
0.0
  0
LINE
  8
0
 62
     250
 10
1819.56
 20
155.091
 30
0.0
 11
1817.03
 21
151.999
 31
0.0
  0
LINE
  8
0
 62
     250
 10
1817.03
 20
151.999
 30
0.0
 11
1814.51
 21
149.029
 31
0.0
  0
LINE
  8
0
 62
     250
 10
1814.51
 20
149.029
 30
0.0
 11
1812.65
 21
146.922
 31
0.0
  0
LINE
  8
0
 62
     250
 10
1812.65
 20
146.922
 30
0.0
 11
1812.02
 21
146.231
 31
0.0
  0
LINE
  8
0
 62
     250
 10
1812.02
 20
146.231
 30
0.0
 11
1810.78
 21
144.877
 31
0.0
  0
LINE
  8
0
 62
     250
 10
1810.78
 20
144.877
 30
0.0
 11
1806.84
 21
141.026
 31
0.0
  0
LINE
  8
0
 62
     250
 10
1806.84
 20
141.026
 30
0.0
 11
1801.21
 21
136.183
 31
0.0
  0
LINE
  8
0
 62
     250
 10
1801.21
 20
136.183
 30
0.0
 11
1795.18
 21
131.689
 31
0.0
  0
LINE
  8
0
 62
     250
 10
1795.18
 20
131.689
 30
0.0
 11
1788.82
 21
127.531
 31
0.0
  0
LINE
  8
0
 62
     250
 10
1788.82
 20
127.531
 30
0.0
 11
1782.18
 21
123.691
 31
0.0
  0
LINE
  8
0
 62
     250
 10
1782.18
 20
123.691
 30
0.0
 11
1775.32
 21
120.157
 31
0.0
  0
LINE
  8
0
 62
     250
 10
1775.32
 20
120.157
 30
0.0
 11
1768.29
 21
116.914
 31
0.0
  0
LINE
  8
0
 62
     250
 10
1768.29
 20
116.914
 30
0.0
 11
1762.96
 21
114.657
 31
0.0
  0
LINE
  8
0
 62
     250
 10
1762.96
 20
114.657
 30
0.0
 11
1761.17
 21
113.946
 31
0.0
  0
LINE
  8
0
 62
     250
 10
1761.17
 20
113.946
 30
0.0
 11
1759.42
 21
113.253
 31
0.0
  0
LINE
  8
0
 62
     250
 10
1759.42
 20
113.253
 30
0.0
 11
1754.1
 21
111.329
 31
0.0
  0
LINE
  8
0
 62
     250
 10
1754.1
 20
111.329
 30
0.0
 11
1747.26
 21
109.128
 31
0.0
  0
LINE
  8
0
 62
     250
 10
1747.26
 20
109.128
 30
0.0
 11
1740.68
 21
107.325
 31
0.0
  0
LINE
  8
0
 62
     250
 10
1740.68
 20
107.325
 30
0.0
 11
1734.42
 21
105.895
 31
0.0
  0
LINE
  8
0
 62
     250
 10
1734.42
 20
105.895
 30
0.0
 11
1728.54
 21
104.822
 31
0.0
  0
LINE
  8
0
 62
     250
 10
1728.54
 20
104.822
 30
0.0
 11
1723.09
 21
104.083
 31
0.0
  0
LINE
  8
0
 62
     250
 10
1723.09
 20
104.083
 30
0.0
 11
1718.12
 21
103.656
 31
0.0
  0
LINE
  8
0
 62
     250
 10
1718.12
 20
103.656
 30
0.0
 11
1714.78
 21
103.521
 31
0.0
  0
LINE
  8
0
 62
     250
 10
1714.78
 20
103.521
 30
0.0
 11
1713.67
 21
103.521
 31
0.0
  0
LINE
  8
0
 62
     250
 10
1713.67
 20
103.521
 30
0.0
 11
1712.67
 21
103.522
 31
0.0
  0
LINE
  8
0
 62
     250
 10
1712.67
 20
103.522
 30
0.0
 11
1709.68
 21
103.619
 31
0.0
  0
LINE
  8
0
 62
     250
 10
1709.68
 20
103.619
 30
0.0
 11
1705.99
 21
103.923
 31
0.0
  0
LINE
  8
0
 62
     250
 10
1705.99
 20
103.923
 30
0.0
 11
1702.49
 21
104.469
 31
0.0
  0
LINE
  8
0
 62
     250
 10
1702.49
 20
104.469
 30
0.0
 11
1699.09
 21
105.293
 31
0.0
  0
LINE
  8
0
 62
     250
 10
1699.09
 20
105.293
 30
0.0
 11
1695.69
 21
106.43
 31
0.0
  0
LINE
  8
0
 62
     250
 10
1695.69
 20
106.43
 30
0.0
 11
1692.18
 21
107.914
 31
0.0
  0
LINE
  8
0
 62
     250
 10
1692.18
 20
107.914
 30
0.0
 11
1688.46
 21
109.781
 31
0.0
  0
LINE
  8
0
 62
     250
 10
1688.46
 20
109.781
 30
0.0
 11
1685.43
 21
111.475
 31
0.0
  0
LINE
  8
0
 62
     250
 10
1685.43
 20
111.475
 30
0.0
 11
1684.44
 21
112.066
 31
0.0
  0
LINE
  8
0
 62
     250
 10
1684.44
 20
112.066
 30
0.0
 11
1683.4
 21
112.688
 31
0.0
  0
LINE
  8
0
 62
     250
 10
1683.4
 20
112.688
 30
0.0
 11
1680.23
 21
114.474
 31
0.0
  0
LINE
  8
0
 62
     250
 10
1680.23
 20
114.474
 30
0.0
 11
1675.99
 21
116.651
 31
0.0
  0
LINE
  8
0
 62
     250
 10
1675.99
 20
116.651
 30
0.0
 11
1671.71
 21
118.549
 31
0.0
  0
LINE
  8
0
 62
     250
 10
1671.71
 20
118.549
 30
0.0
 11
1667.36
 21
120.119
 31
0.0
  0
LINE
  8
0
 62
     250
 10
1667.36
 20
120.119
 30
0.0
 11
1662.92
 21
121.314
 31
0.0
  0
LINE
  8
0
 62
     250
 10
1662.92
 20
121.314
 30
0.0
 11
1658.37
 21
122.086
 31
0.0
  0
LINE
  8
0
 62
     250
 10
1658.37
 20
122.086
 30
0.0
 11
1653.7
 21
122.385
 31
0.0
  0
LINE
  8
0
 62
     250
 10
1653.7
 20
122.385
 30
0.0
 11
1650.07
 21
122.286
 31
0.0
  0
LINE
  8
0
 62
     250
 10
1650.07
 20
122.286
 30
0.0
 11
1648.87
 21
122.164
 31
0.0
  0
LINE
  8
0
 62
     250
 10
1648.87
 20
122.164
 30
0.0
 11
1647.72
 21
122.049
 31
0.0
  0
LINE
  8
0
 62
     250
 10
1647.72
 20
122.049
 30
0.0
 11
1644.28
 21
121.44
 31
0.0
  0
LINE
  8
0
 62
     250
 10
1644.28
 20
121.44
 30
0.0
 11
1640.26
 21
120.312
 31
0.0
  0
LINE
  8
0
 62
     250
 10
1640.26
 20
120.312
 30
0.0
 11
1636.67
 21
118.867
 31
0.0
  0
LINE
  8
0
 62
     250
 10
1636.67
 20
118.867
 30
0.0
 11
1633.39
 21
117.189
 31
0.0
  0
LINE
  8
0
 62
     250
 10
1633.39
 20
117.189
 30
0.0
 11
1630.28
 21
115.363
 31
0.0
  0
LINE
  8
0
 62
     250
 10
1630.28
 20
115.363
 30
0.0
 11
1627.23
 21
113.473
 31
0.0
  0
LINE
  8
0
 62
     250
 10
1627.23
 20
113.473
 30
0.0
 11
1624.1
 21
111.606
 31
0.0
  0
LINE
  8
0
 62
     250
 10
1624.1
 20
111.606
 30
0.0
 11
1621.61
 21
110.254
 31
0.0
  0
LINE
  8
0
 62
     250
 10
1621.61
 20
110.254
 30
0.0
 11
1620.77
 21
109.843
 31
0.0
  0
LINE
  8
0
 62
     250
 10
1620.77
 20
109.843
 30
0.0
 11
1619.88
 21
109.415
 31
0.0
  0
LINE
  8
0
 62
     250
 10
1619.88
 20
109.415
 30
0.0
 11
1617.18
 21
108.204
 31
0.0
  0
LINE
  8
0
 62
     250
 10
1617.18
 20
108.204
 30
0.0
 11
1613.36
 21
106.682
 31
0.0
  0
LINE
  8
0
 62
     250
 10
1613.36
 20
106.682
 30
0.0
 11
1609.28
 21
105.344
 31
0.0
  0
LINE
  8
0
 62
     250
 10
1609.28
 20
105.344
 30
0.0
 11
1604.92
 21
104.251
 31
0.0
  0
LINE
  8
0
 62
     250
 10
1604.92
 20
104.251
 30
0.0
 11
1600.26
 21
103.466
 31
0.0
  0
LINE
  8
0
 62
     250
 10
1600.26
 20
103.466
 30
0.0
 11
1595.27
 21
103.05
 31
0.0
  0
LINE
  8
0
 62
     250
 10
1595.27
 20
103.05
 30
0.0
 11
1589.93
 21
103.066
 31
0.0
  0
LINE
  8
0
 62
     250
 10
1589.93
 20
103.066
 30
0.0
 11
1585.63
 21
103.39
 31
0.0
  0
LINE
  8
0
 62
     250
 10
1585.63
 20
103.39
 30
0.0
 11
1584.21
 21
103.577
 31
0.0
  0
LINE
  8
0
 62
     250
 10
1584.21
 20
103.577
 30
0.0
 11
1582.53
 21
103.799
 31
0.0
  0
LINE
  8
0
 62
     250
 10
1582.53
 20
103.799
 30
0.0
 11
1577.51
 21
104.622
 31
0.0
  0
LINE
  8
0
 62
     250
 10
1577.51
 20
104.622
 30
0.0
 11
1569.55
 21
106.116
 31
0.0
  0
LINE
  8
0
 62
     250
 10
1569.55
 20
106.116
 30
0.0
 11
1560.78
 21
107.943
 31
0.0
  0
LINE
  8
0
 62
     250
 10
1560.78
 20
107.943
 30
0.0
 11
1551.63
 21
109.988
 31
0.0
  0
LINE
  8
0
 62
     250
 10
1551.63
 20
109.988
 30
0.0
 11
1542.55
 21
112.136
 31
0.0
  0
LINE
  8
0
 62
     250
 10
1542.55
 20
112.136
 30
0.0
 11
1533.97
 21
114.27
 31
0.0
  0
LINE
  8
0
 62
     250
 10
1533.97
 20
114.27
 30
0.0
 11
1526.36
 21
116.275
 31
0.0
  0
LINE
  8
0
 62
     250
 10
1526.36
 20
116.275
 30
0.0
 11
1521.69
 21
117.574
 31
0.0
  0
LINE
  8
0
 62
     250
 10
1521.69
 20
117.574
 30
0.0
 11
1520.14
 21
118.035
 31
0.0
  0
LINE
  8
0
 62
     250
 10
1520.14
 20
118.035
 30
0.0
 11
1519.44
 21
118.243
 31
0.0
  0
LINE
  8
0
 62
     250
 10
1519.44
 20
118.243
 30
0.0
 11
1517.35
 21
118.911
 31
0.0
  0
LINE
  8
0
 62
     250
 10
1517.35
 20
118.911
 30
0.0
 11
1514.39
 21
119.924
 31
0.0
  0
LINE
  8
0
 62
     250
 10
1514.39
 20
119.924
 30
0.0
 11
1511.31
 21
121.044
 31
0.0
  0
LINE
  8
0
 62
     250
 10
1511.31
 20
121.044
 30
0.0
 11
1508.16
 21
122.247
 31
0.0
  0
LINE
  8
0
 62
     250
 10
1508.16
 20
122.247
 30
0.0
 11
1504.99
 21
123.507
 31
0.0
  0
LINE
  8
0
 62
     250
 10
1504.99
 20
123.507
 30
0.0
 11
1501.83
 21
124.795
 31
0.0
  0
LINE
  8
0
 62
     250
 10
1501.83
 20
124.795
 30
0.0
 11
1498.75
 21
126.086
 31
0.0
  0
LINE
  8
0
 62
     250
 10
1498.75
 20
126.086
 30
0.0
 11
1495.79
 21
127.356
 31
0.0
  0
LINE
  8
0
 62
     250
 10
1495.79
 20
127.356
 30
0.0
 11
1493
 21
128.574
 31
0.0
  0
LINE
  8
0
 62
     250
 10
1493
 20
128.574
 30
0.0
 11
1490.43
 21
129.715
 31
0.0
  0
LINE
  8
0
 62
     250
 10
1490.43
 20
129.715
 30
0.0
 11
1488.11
 21
130.754
 31
0.0
  0
LINE
  8
0
 62
     250
 10
1488.11
 20
130.754
 30
0.0
 11
1486.12
 21
131.663
 31
0.0
  0
LINE
  8
0
 62
     250
 10
1486.12
 20
131.663
 30
0.0
 11
1484.47
 21
132.417
 31
0.0
  0
LINE
  8
0
 62
     250
 10
1484.47
 20
132.417
 30
0.0
 11
1483.24
 21
132.988
 31
0.0
  0
LINE
  8
0
 62
     250
 10
1483.24
 20
132.988
 30
0.0
 11
1482.47
 21
133.35
 31
0.0
  0
LINE
  8
0
 62
     250
 10
1482.47
 20
133.35
 30
0.0
 11
1482.2
 21
133.475
 31
0.0
  0
LINE
  8
0
 62
     250
 10
1482.2
 20
133.475
 30
0.0
 11
1482.2
 21
133.475
 31
0.0
  0
LINE
  8
0
 62
     250
 10
1633.44
 20
74.0212
 30
0.0
 11
1633.49
 21
75.2669
 31
0.0
  0
LINE
  8
0
 62
     250
 10
1633.49
 20
75.2669
 30
0.0
 11
1634.14
 21
78.9824
 31
0.0
  0
LINE
  8
0
 62
     250
 10
1634.14
 20
78.9824
 30
0.0
 11
1635.75
 21
83.5723
 31
0.0
  0
LINE
  8
0
 62
     250
 10
1635.75
 20
83.5723
 30
0.0
 11
1638.18
 21
87.697
 31
0.0
  0
LINE
  8
0
 62
     250
 10
1638.18
 20
87.697
 30
0.0
 11
1641.33
 21
91.2619
 31
0.0
  0
LINE
  8
0
 62
     250
 10
1641.33
 20
91.2619
 30
0.0
 11
1645.09
 21
94.1698
 31
0.0
  0
LINE
  8
0
 62
     250
 10
1645.09
 20
94.1698
 30
0.0
 11
1649.37
 21
96.3277
 31
0.0
  0
LINE
  8
0
 62
     250
 10
1649.37
 20
96.3277
 30
0.0
 11
1654.07
 21
97.6383
 31
0.0
  0
LINE
  8
0
 62
     250
 10
1654.07
 20
97.6383
 30
0.0
 11
1657.82
 21
98.0391
 31
0.0
  0
LINE
  8
0
 62
     250
 10
1657.82
 20
98.0391
 30
0.0
 11
1659.07
 21
98.0062
 31
0.0
  0
LINE
  8
0
 62
     250
 10
1659.07
 20
98.0062
 30
0.0
 11
1660.33
 21
97.9745
 31
0.0
  0
LINE
  8
0
 62
     250
 10
1660.33
 20
97.9745
 30
0.0
 11
1664.1
 21
97.3667
 31
0.0
  0
LINE
  8
0
 62
     250
 10
1664.1
 20
97.3667
 30
0.0
 11
1668.74
 21
95.7887
 31
0.0
  0
LINE
  8
0
 62
     250
 10
1668.74
 20
95.7887
 30
0.0
 11
1672.93
 21
93.3732
 31
0.0
  0
LINE
  8
0
 62
     250
 10
1672.93
 20
93.3732
 30
0.0
 11
1676.55
 21
90.2257
 31
0.0
  0
LINE
  8
0
 62
     250
 10
1676.55
 20
90.2257
 30
0.0
 11
1679.5
 21
86.4471
 31
0.0
  0
LINE
  8
0
 62
     250
 10
1679.5
 20
86.4471
 30
0.0
 11
1681.69
 21
82.1436
 31
0.0
  0
LINE
  8
0
 62
     250
 10
1681.69
 20
82.1436
 30
0.0
 11
1683.03
 21
77.4139
 31
0.0
  0
LINE
  8
0
 62
     250
 10
1683.03
 20
77.4139
 30
0.0
 11
1683.43
 21
73.6244
 31
0.0
  0
LINE
  8
0
 62
     250
 10
1683.43
 20
73.6244
 30
0.0
 11
1683.4
 21
72.365
 31
0.0
  0
LINE
  8
0
 62
     250
 10
1683.4
 20
72.365
 30
0.0
 11
1683.37
 21
71.1069
 31
0.0
  0
LINE
  8
0
 62
     250
 10
1683.37
 20
71.1069
 30
0.0
 11
1682.76
 21
67.3435
 31
0.0
  0
LINE
  8
0
 62
     250
 10
1682.76
 20
67.3435
 30
0.0
 11
1681.18
 21
62.6911
 31
0.0
  0
LINE
  8
0
 62
     250
 10
1681.18
 20
62.6911
 30
0.0
 11
1678.77
 21
58.5075
 31
0.0
  0
LINE
  8
0
 62
     250
 10
1678.77
 20
58.5075
 30
0.0
 11
1675.62
 21
54.8887
 31
0.0
  0
LINE
  8
0
 62
     250
 10
1675.62
 20
54.8887
 30
0.0
 11
1671.85
 21
51.9356
 31
0.0
  0
LINE
  8
0
 62
     250
 10
1671.85
 20
51.9356
 30
0.0
 11
1667.54
 21
49.7431
 31
0.0
  0
LINE
  8
0
 62
     250
 10
1667.54
 20
49.7431
 30
0.0
 11
1662.81
 21
48.4092
 31
0.0
  0
LINE
  8
0
 62
     250
 10
1662.81
 20
48.4092
 30
0.0
 11
1659.02
 21
48.0011
 31
0.0
  0
LINE
  8
0
 62
     250
 10
1659.02
 20
48.0011
 30
0.0
 11
1657.76
 21
48.0328
 31
0.0
  0
LINE
  8
0
 62
     250
 10
1657.76
 20
48.0328
 30
0.0
 11
1656.68
 21
48.0617
 31
0.0
  0
LINE
  8
0
 62
     250
 10
1656.68
 20
48.0617
 30
0.0
 11
1653.44
 21
48.5221
 31
0.0
  0
LINE
  8
0
 62
     250
 10
1653.44
 20
48.5221
 30
0.0
 11
1649.38
 21
49.7099
 31
0.0
  0
LINE
  8
0
 62
     250
 10
1649.38
 20
49.7099
 30
0.0
 11
1645.64
 21
51.5345
 31
0.0
  0
LINE
  8
0
 62
     250
 10
1645.64
 20
51.5345
 30
0.0
 11
1642.28
 21
53.9295
 31
0.0
  0
LINE
  8
0
 62
     250
 10
1642.28
 20
53.9295
 30
0.0
 11
1639.37
 21
56.8318
 31
0.0
  0
LINE
  8
0
 62
     250
 10
1639.37
 20
56.8318
 30
0.0
 11
1636.97
 21
60.1733
 31
0.0
  0
LINE
  8
0
 62
     250
 10
1636.97
 20
60.1733
 30
0.0
 11
1635.14
 21
63.8912
 31
0.0
  0
LINE
  8
0
 62
     250
 10
1635.14
 20
63.8912
 30
0.0
 11
1634.15
 21
66.8955
 31
0.0
  0
LINE
  8
0
 62
     250
 10
1634.15
 20
66.8955
 30
0.0
 11
1633.94
 21
67.9192
 31
0.0
  0
LINE
  8
0
 62
     250
 10
1626.21
 20
73.2839
 30
0.0
 11
1625.91
 21
73.2607
 31
0.0
  0
LINE
  8
0
 62
     250
 10
1625.91
 20
73.2607
 30
0.0
 11
1625.04
 21
72.9576
 31
0.0
  0
LINE
  8
0
 62
     250
 10
1625.04
 20
72.9576
 30
0.0
 11
1624.1
 21
72.2464
 31
0.0
  0
LINE
  8
0
 62
     250
 10
1624.1
 20
72.2464
 30
0.0
 11
1623.51
 21
71.2459
 31
0.0
  0
LINE
  8
0
 62
     250
 10
1623.51
 20
71.2459
 30
0.0
 11
1623.32
 21
70.3446
 31
0.0
  0
LINE
  8
0
 62
     250
 10
1623.32
 20
70.3446
 30
0.0
 11
1623.34
 21
70.0486
 31
0.0
  0
LINE
  8
0
 62
     250
 10
1623.34
 20
70.0486
 30
0.0
 11
1623.36
 21
69.7523
 31
0.0
  0
LINE
  8
0
 62
     250
 10
1623.36
 20
69.7523
 30
0.0
 11
1623.65
 21
68.877
 31
0.0
  0
LINE
  8
0
 62
     250
 10
1623.65
 20
68.877
 30
0.0
 11
1624.37
 21
67.9482
 31
0.0
  0
LINE
  8
0
 62
     250
 10
1624.37
 20
67.9482
 30
0.0
 11
1625.38
 21
67.3544
 31
0.0
  0
LINE
  8
0
 62
     250
 10
1625.38
 20
67.3544
 30
0.0
 11
1626.28
 21
67.1682
 31
0.0
  0
LINE
  8
0
 62
     250
 10
1626.28
 20
67.1682
 30
0.0
 11
1626.58
 21
67.1862
 31
0.0
  0
LINE
  8
0
 62
     250
 10
1626.58
 20
67.1862
 30
0.0
 11
1626.58
 21
67.1862
 31
0.0
  0
LINE
  8
0
 62
     250
 10
1626.58
 20
67.1862
 30
0.0
 11
1627
 21
67.2303
 31
0.0
  0
LINE
  8
0
 62
     250
 10
1627
 20
67.2303
 30
0.0
 11
1628.1
 21
67.3446
 31
0.0
  0
LINE
  8
0
 62
     250
 10
1628.1
 20
67.3446
 30
0.0
 11
1629.67
 21
67.5086
 31
0.0
  0
LINE
  8
0
 62
     250
 10
1629.67
 20
67.5086
 30
0.0
 11
1631.49
 21
67.7002
 31
0.0
  0
LINE
  8
0
 62
     250
 10
1631.49
 20
67.7002
 30
0.0
 11
1633.34
 21
67.8988
 31
0.0
  0
LINE
  8
0
 62
     250
 10
1633.34
 20
67.8988
 30
0.0
 11
1634.99
 21
68.0791
 31
0.0
  0
LINE
  8
0
 62
     250
 10
1634.99
 20
68.0791
 30
0.0
 11
1636.23
 21
68.224
 31
0.0
  0
LINE
  8
0
 62
     250
 10
1636.23
 20
68.224
 30
0.0
 11
1636.69
 21
68.2763
 31
0.0
  0
LINE
  8
0
 62
     250
 10
1636.69
 20
68.2763
 30
0.0
 11
1636.83
 21
68.3066
 31
0.0
  0
LINE
  8
0
 62
     250
 10
1636.83
 20
68.3066
 30
0.0
 11
1636.92
 21
68.3274
 31
0.0
  0
LINE
  8
0
 62
     250
 10
1636.92
 20
68.3274
 30
0.0
 11
1637.13
 21
68.6802
 31
0.0
  0
LINE
  8
0
 62
     250
 10
1637.13
 20
68.6802
 30
0.0
 11
1637.23
 21
69.4683
 31
0.0
  0
LINE
  8
0
 62
     250
 10
1637.23
 20
69.4683
 30
0.0
 11
1637.2
 21
70.455
 31
0.0
  0
LINE
  8
0
 62
     250
 10
1637.2
 20
70.455
 30
0.0
 11
1637.14
 21
71.1824
 31
0.0
  0
LINE
  8
0
 62
     250
 10
1637.14
 20
71.1824
 30
0.0
 11
1637.12
 21
71.4237
 31
0.0
  0
LINE
  8
0
 62
     250
 10
1637.12
 20
71.4237
 30
0.0
 11
1637.1
 21
71.6566
 31
0.0
  0
LINE
  8
0
 62
     250
 10
1637.1
 20
71.6566
 30
0.0
 11
1636.98
 21
72.3512
 31
0.0
  0
LINE
  8
0
 62
     250
 10
1636.98
 20
72.3512
 30
0.0
 11
1636.76
 21
73.2398
 31
0.0
  0
LINE
  8
0
 62
     250
 10
1636.76
 20
73.2398
 30
0.0
 11
1636.49
 21
73.9221
 31
0.0
  0
LINE
  8
0
 62
     250
 10
1636.49
 20
73.9221
 30
0.0
 11
1636.3
 21
74.2075
 31
0.0
  0
LINE
  8
0
 62
     250
 10
1636.3
 20
74.2075
 30
0.0
 11
1636.23
 21
74.2251
 31
0.0
  0
LINE
  8
0
 62
     250
 10
1636.23
 20
74.2251
 30
0.0
 11
1636.14
 21
74.246
 31
0.0
  0
LINE
  8
0
 62
     250
 10
1636.14
 20
74.246
 30
0.0
 11
1635.71
 21
74.21
 31
0.0
  0
LINE
  8
0
 62
     250
 10
1635.71
 20
74.21
 30
0.0
 11
1634.57
 21
74.1165
 31
0.0
  0
LINE
  8
0
 62
     250
 10
1634.57
 20
74.1165
 30
0.0
 11
1633.02
 21
73.9719
 31
0.0
  0
LINE
  8
0
 62
     250
 10
1633.02
 20
73.9719
 30
0.0
 11
1631.24
 21
73.7979
 31
0.0
  0
LINE
  8
0
 62
     250
 10
1631.24
 20
73.7979
 30
0.0
 11
1629.47
 21
73.6191
 31
0.0
  0
LINE
  8
0
 62
     250
 10
1629.47
 20
73.6191
 30
0.0
 11
1627.9
 21
73.4579
 31
0.0
  0
LINE
  8
0
 62
     250
 10
1627.9
 20
73.4579
 30
0.0
 11
1626.74
 21
73.3393
 31
0.0
  0
LINE
  8
0
 62
     250
 10
1626.74
 20
73.3393
 30
0.0
 11
1626.31
 21
73.2938
 31
0.0
  0
LINE
  8
0
 62
     250
 10
1626.31
 20
73.2938
 30
0.0
 11
1626.21
 21
73.2839
 31
0.0
  0
LINE
  8
0
 62
     250
 10
1659.15
 20
58.4151
 30
0.0
 11
1658.42
 21
58.4345
 31
0.0
  0
LINE
  8
0
 62
     250
 10
1658.42
 20
58.4345
 30
0.0
 11
1656.24
 21
58.7858
 31
0.0
  0
LINE
  8
0
 62
     250
 10
1656.24
 20
58.7858
 30
0.0
 11
1653.56
 21
59.6981
 31
0.0
  0
LINE
  8
0
 62
     250
 10
1653.56
 20
59.6981
 30
0.0
 11
1651.14
 21
61.0926
 31
0.0
  0
LINE
  8
0
 62
     250
 10
1651.14
 20
61.0926
 30
0.0
 11
1649.05
 21
62.9116
 31
0.0
  0
LINE
  8
0
 62
     250
 10
1649.05
 20
62.9116
 30
0.0
 11
1647.34
 21
65.0946
 31
0.0
  0
LINE
  8
0
 62
     250
 10
1647.34
 20
65.0946
 30
0.0
 11
1646.08
 21
67.5816
 31
0.0
  0
LINE
  8
0
 62
     250
 10
1646.08
 20
67.5816
 30
0.0
 11
1645.31
 21
70.3143
 31
0.0
  0
LINE
  8
0
 62
     250
 10
1645.31
 20
70.3143
 30
0.0
 11
1645.07
 21
72.5039
 31
0.0
  0
LINE
  8
0
 62
     250
 10
1645.07
 20
72.5039
 30
0.0
 11
1645.09
 21
73.2303
 31
0.0
  0
LINE
  8
0
 62
     250
 10
1645.09
 20
73.2303
 30
0.0
 11
1645.11
 21
73.9581
 31
0.0
  0
LINE
  8
0
 62
     250
 10
1645.11
 20
73.9581
 30
0.0
 11
1645.46
 21
76.1326
 31
0.0
  0
LINE
  8
0
 62
     250
 10
1645.46
 20
76.1326
 30
0.0
 11
1646.37
 21
78.8197
 31
0.0
  0
LINE
  8
0
 62
     250
 10
1646.37
 20
78.8197
 30
0.0
 11
1647.77
 21
81.2366
 31
0.0
  0
LINE
  8
0
 62
     250
 10
1647.77
 20
81.2366
 30
0.0
 11
1649.58
 21
83.3272
 31
0.0
  0
LINE
  8
0
 62
     250
 10
1649.58
 20
83.3272
 30
0.0
 11
1651.77
 21
85.0346
 31
0.0
  0
LINE
  8
0
 62
     250
 10
1651.77
 20
85.0346
 30
0.0
 11
1654.25
 21
86.3011
 31
0.0
  0
LINE
  8
0
 62
     250
 10
1654.25
 20
86.3011
 30
0.0
 11
1656.98
 21
87.0712
 31
0.0
  0
LINE
  8
0
 62
     250
 10
1656.98
 20
87.0712
 30
0.0
 11
1659.17
 21
87.3069
 31
0.0
  0
LINE
  8
0
 62
     250
 10
1659.17
 20
87.3069
 30
0.0
 11
1659.9
 21
87.2878
 31
0.0
  0
LINE
  8
0
 62
     250
 10
1659.9
 20
87.2878
 30
0.0
 11
1660.63
 21
87.2698
 31
0.0
  0
LINE
  8
0
 62
     250
 10
1660.63
 20
87.2698
 30
0.0
 11
1662.8
 21
86.9199
 31
0.0
  0
LINE
  8
0
 62
     250
 10
1662.8
 20
86.9199
 30
0.0
 11
1665.49
 21
86.0076
 31
0.0
  0
LINE
  8
0
 62
     250
 10
1665.49
 20
86.0076
 30
0.0
 11
1667.91
 21
84.6116
 31
0.0
  0
LINE
  8
0
 62
     250
 10
1667.91
 20
84.6116
 30
0.0
 11
1670
 21
82.7938
 31
0.0
  0
LINE
  8
0
 62
     250
 10
1670
 20
82.7938
 30
0.0
 11
1671.7
 21
80.6111
 31
0.0
  0
LINE
  8
0
 62
     250
 10
1671.7
 20
80.6111
 30
0.0
 11
1672.97
 21
78.1237
 31
0.0
  0
LINE
  8
0
 62
     250
 10
1672.97
 20
78.1237
 30
0.0
 11
1673.74
 21
75.3911
 31
0.0
  0
LINE
  8
0
 62
     250
 10
1673.74
 20
75.3911
 30
0.0
 11
1673.98
 21
73.2014
 31
0.0
  0
LINE
  8
0
 62
     250
 10
1673.98
 20
73.2014
 30
0.0
 11
1673.96
 21
72.474
 31
0.0
  0
LINE
  8
0
 62
     250
 10
1673.96
 20
72.474
 30
0.0
 11
1673.94
 21
71.7476
 31
0.0
  0
LINE
  8
0
 62
     250
 10
1673.94
 20
71.7476
 30
0.0
 11
1673.59
 21
69.5731
 31
0.0
  0
LINE
  8
0
 62
     250
 10
1673.59
 20
69.5731
 30
0.0
 11
1672.68
 21
66.8845
 31
0.0
  0
LINE
  8
0
 62
     250
 10
1672.68
 20
66.8845
 30
0.0
 11
1671.28
 21
64.4673
 31
0.0
  0
LINE
  8
0
 62
     250
 10
1671.28
 20
64.4673
 30
0.0
 11
1669.46
 21
62.3768
 31
0.0
  0
LINE
  8
0
 62
     250
 10
1669.46
 20
62.3768
 30
0.0
 11
1667.28
 21
60.6707
 31
0.0
  0
LINE
  8
0
 62
     250
 10
1667.28
 20
60.6707
 30
0.0
 11
1664.79
 21
59.4032
 31
0.0
  0
LINE
  8
0
 62
     250
 10
1664.79
 20
59.4032
 30
0.0
 11
1662.06
 21
58.6327
 31
0.0
  0
LINE
  8
0
 62
     250
 10
1662.06
 20
58.6327
 30
0.0
 11
1659.87
 21
58.3971
 31
0.0
  0
LINE
  8
0
 62
     250
 10
1659.87
 20
58.3971
 30
0.0
 11
1659.15
 21
58.4151
 31
0.0
  0
LINE
  8
0
 62
     250
 10
1476.03
 20
327.551
 30
0.0
 11
1475.98
 21
325.676
 31
0.0
  0
LINE
  8
0
 62
     250
 10
1475.98
 20
325.676
 30
0.0
 11
1475.88
 21
320.045
 31
0.0
  0
LINE
  8
0
 62
     250
 10
1475.88
 20
320.045
 30
0.0
 11
1475.83
 21
312.66
 31
0.0
  0
LINE
  8
0
 62
     250
 10
1475.83
 20
312.66
 30
0.0
 11
1475.85
 21
305.61
 31
0.0
  0
LINE
  8
0
 62
     250
 10
1475.85
 20
305.61
 30
0.0
 11
1475.95
 21
299.113
 31
0.0
  0
LINE
  8
0
 62
     250
 10
1475.95
 20
299.113
 30
0.0
 11
1476.1
 21
293.383
 31
0.0
  0
LINE
  8
0
 62
     250
 10
1476.1
 20
293.383
 30
0.0
 11
1476.3
 21
288.633
 31
0.0
  0
LINE
  8
0
 62
     250
 10
1476.3
 20
288.633
 30
0.0
 11
1476.54
 21
285.081
 31
0.0
  0
LINE
  8
0
 62
     250
 10
1476.54
 20
285.081
 30
0.0
 11
1476.7
 21
283.469
 31
0.0
  0
LINE
  8
0
 62
     250
 10
1476.7
 20
283.469
 30
0.0
 11
1476.81
 21
282.942
 31
0.0
  0
LINE
  8
0
 62
     250
 10
1476.81
 20
282.942
 30
0.0
 11
1476.93
 21
282.367
 31
0.0
  0
LINE
  8
0
 62
     250
 10
1476.93
 20
282.367
 30
0.0
 11
1477.87
 21
280.761
 31
0.0
  0
LINE
  8
0
 62
     250
 10
1477.87
 20
280.761
 30
0.0
 11
1479.63
 21
279.501
 31
0.0
  0
LINE
  8
0
 62
     250
 10
1479.63
 20
279.501
 30
0.0
 11
1481.62
 21
278.909
 31
0.0
  0
LINE
  8
0
 62
     250
 10
1481.62
 20
278.909
 30
0.0
 11
1482.93
 21
278.754
 31
0.0
  0
LINE
  8
0
 62
     250
 10
1482.93
 20
278.754
 30
0.0
 11
1483.37
 21
278.741
 31
0.0
  0
LINE
  8
0
 62
     250
 10
1483.37
 20
278.741
 30
0.0
 11
1483.78
 21
278.731
 31
0.0
  0
LINE
  8
0
 62
     250
 10
1483.78
 20
278.731
 30
0.0
 11
1485.02
 21
279.055
 31
0.0
  0
LINE
  8
0
 62
     250
 10
1485.02
 20
279.055
 30
0.0
 11
1486.87
 21
280.04
 31
0.0
  0
LINE
  8
0
 62
     250
 10
1486.87
 20
280.04
 30
0.0
 11
1488.64
 21
281.652
 31
0.0
  0
LINE
  8
0
 62
     250
 10
1488.64
 20
281.652
 30
0.0
 11
1489.77
 21
283.261
 31
0.0
  0
LINE
  8
0
 62
     250
 10
1489.77
 20
283.261
 30
0.0
 11
1490.03
 21
283.847
 31
0.0
  0
LINE
  8
0
 62
     250
 10
1490.03
 20
283.847
 30
0.0
 11
1490.26
 21
284.371
 31
0.0
  0
LINE
  8
0
 62
     250
 10
1490.26
 20
284.371
 30
0.0
 11
1490.84
 21
285.995
 31
0.0
  0
LINE
  8
0
 62
     250
 10
1490.84
 20
285.995
 30
0.0
 11
1492.07
 21
289.734
 31
0.0
  0
LINE
  8
0
 62
     250
 10
1492.07
 20
289.734
 30
0.0
 11
1493.56
 21
294.721
 31
0.0
  0
LINE
  8
0
 62
     250
 10
1493.56
 20
294.721
 30
0.0
 11
1495.16
 21
300.608
 31
0.0
  0
LINE
  8
0
 62
     250
 10
1495.16
 20
300.608
 30
0.0
 11
1496.7
 21
307.049
 31
0.0
  0
LINE
  8
0
 62
     250
 10
1496.7
 20
307.049
 30
0.0
 11
1498.04
 21
313.7
 31
0.0
  0
LINE
  8
0
 62
     250
 10
1498.04
 20
313.7
 30
0.0
 11
1499.02
 21
320.213
 31
0.0
  0
LINE
  8
0
 62
     250
 10
1499.02
 20
320.213
 30
0.0
 11
1499.43
 21
324.735
 31
0.0
  0
LINE
  8
0
 62
     250
 10
1499.43
 20
324.735
 30
0.0
 11
1499.47
 21
326.244
 31
0.0
  0
LINE
  8
0
 62
     250
 10
1499.47
 20
326.244
 30
0.0
 11
1499.49
 21
326.992
 31
0.0
  0
LINE
  8
0
 62
     250
 10
1499.49
 20
326.992
 30
0.0
 11
1499.46
 21
329.237
 31
0.0
  0
LINE
  8
0
 62
     250
 10
1499.46
 20
329.237
 30
0.0
 11
1499.27
 21
332.499
 31
0.0
  0
LINE
  8
0
 62
     250
 10
1499.27
 20
332.499
 30
0.0
 11
1498.94
 21
335.967
 31
0.0
  0
LINE
  8
0
 62
     250
 10
1498.94
 20
335.967
 30
0.0
 11
1498.48
 21
339.585
 31
0.0
  0
LINE
  8
0
 62
     250
 10
1498.48
 20
339.585
 30
0.0
 11
1497.92
 21
343.286
 31
0.0
  0
LINE
  8
0
 62
     250
 10
1497.92
 20
343.286
 30
0.0
 11
1497.28
 21
347.013
 31
0.0
  0
LINE
  8
0
 62
     250
 10
1497.28
 20
347.013
 30
0.0
 11
1496.57
 21
350.702
 31
0.0
  0
LINE
  8
0
 62
     250
 10
1496.57
 20
350.702
 30
0.0
 11
1495.83
 21
354.295
 31
0.0
  0
LINE
  8
0
 62
     250
 10
1495.83
 20
354.295
 30
0.0
 11
1495.07
 21
357.727
 31
0.0
  0
LINE
  8
0
 62
     250
 10
1495.07
 20
357.727
 30
0.0
 11
1494.32
 21
360.941
 31
0.0
  0
LINE
  8
0
 62
     250
 10
1494.32
 20
360.941
 30
0.0
 11
1493.59
 21
363.873
 31
0.0
  0
LINE
  8
0
 62
     250
 10
1493.59
 20
363.873
 30
0.0
 11
1492.91
 21
366.462
 31
0.0
  0
LINE
  8
0
 62
     250
 10
1492.91
 20
366.462
 30
0.0
 11
1492.3
 21
368.646
 31
0.0
  0
LINE
  8
0
 62
     250
 10
1492.3
 20
368.646
 30
0.0
 11
1491.77
 21
370.367
 31
0.0
  0
LINE
  8
0
 62
     250
 10
1491.77
 20
370.367
 30
0.0
 11
1491.36
 21
371.56
 31
0.0
  0
LINE
  8
0
 62
     250
 10
1491.36
 20
371.56
 30
0.0
 11
1491.18
 21
372.029
 31
0.0
  0
LINE
  8
0
 62
     250
 10
1491.18
 20
372.029
 30
0.0
 11
1491.09
 21
372.163
 31
0.0
  0
LINE
  8
0
 62
     250
 10
1491.09
 20
372.163
 30
0.0
 11
1490.87
 21
372.484
 31
0.0
  0
LINE
  8
0
 62
     250
 10
1490.87
 20
372.484
 30
0.0
 11
1490.19
 21
373.419
 31
0.0
  0
LINE
  8
0
 62
     250
 10
1490.19
 20
373.419
 30
0.0
 11
1488.97
 21
374.668
 31
0.0
  0
LINE
  8
0
 62
     250
 10
1488.97
 20
374.668
 30
0.0
 11
1487.28
 21
375.645
 31
0.0
  0
LINE
  8
0
 62
     250
 10
1487.28
 20
375.645
 30
0.0
 11
1485.53
 21
376.061
 31
0.0
  0
LINE
  8
0
 62
     250
 10
1485.53
 20
376.061
 30
0.0
 11
1484.94
 21
376.075
 31
0.0
  0
LINE
  8
0
 62
     250
 10
1484.94
 20
376.075
 30
0.0
 11
1484.6
 21
376.086
 31
0.0
  0
LINE
  8
0
 62
     250
 10
1484.6
 20
376.086
 30
0.0
 11
1483.57
 21
375.888
 31
0.0
  0
LINE
  8
0
 62
     250
 10
1483.57
 20
375.888
 30
0.0
 11
1482.18
 21
375.306
 31
0.0
  0
LINE
  8
0
 62
     250
 10
1482.18
 20
375.306
 30
0.0
 11
1480.85
 21
374.396
 31
0.0
  0
LINE
  8
0
 62
     250
 10
1480.85
 20
374.396
 30
0.0
 11
1479.62
 21
373.228
 31
0.0
  0
LINE
  8
0
 62
     250
 10
1479.62
 20
373.228
 30
0.0
 11
1478.56
 21
371.874
 31
0.0
  0
LINE
  8
0
 62
     250
 10
1478.56
 20
371.874
 30
0.0
 11
1477.72
 21
370.406
 31
0.0
  0
LINE
  8
0
 62
     250
 10
1477.72
 20
370.406
 30
0.0
 11
1477.16
 21
368.889
 31
0.0
  0
LINE
  8
0
 62
     250
 10
1477.16
 20
368.889
 30
0.0
 11
1476.95
 21
367.771
 31
0.0
  0
LINE
  8
0
 62
     250
 10
1476.95
 20
367.771
 30
0.0
 11
1476.94
 21
367.393
 31
0.0
  0
LINE
  8
0
 62
     250
 10
1476.94
 20
367.393
 30
0.0
 11
1476.93
 21
367.122
 31
0.0
  0
LINE
  8
0
 62
     250
 10
1476.93
 20
367.122
 30
0.0
 11
1476.91
 21
366.307
 31
0.0
  0
LINE
  8
0
 62
     250
 10
1476.91
 20
366.307
 30
0.0
 11
1476.87
 21
364.568
 31
0.0
  0
LINE
  8
0
 62
     250
 10
1476.87
 20
364.568
 30
0.0
 11
1476.82
 21
362.275
 31
0.0
  0
LINE
  8
0
 62
     250
 10
1476.82
 20
362.275
 30
0.0
 11
1476.75
 21
359.53
 31
0.0
  0
LINE
  8
0
 62
     250
 10
1476.75
 20
359.53
 30
0.0
 11
1476.68
 21
356.433
 31
0.0
  0
LINE
  8
0
 62
     250
 10
1476.68
 20
356.433
 30
0.0
 11
1476.6
 21
353.081
 31
0.0
  0
LINE
  8
0
 62
     250
 10
1476.6
 20
353.081
 30
0.0
 11
1476.53
 21
349.575
 31
0.0
  0
LINE
  8
0
 62
     250
 10
1476.53
 20
349.575
 30
0.0
 11
1476.45
 21
346.016
 31
0.0
  0
LINE
  8
0
 62
     250
 10
1476.45
 20
346.016
 30
0.0
 11
1476.37
 21
342.503
 31
0.0
  0
LINE
  8
0
 62
     250
 10
1476.37
 20
342.503
 30
0.0
 11
1476.29
 21
339.134
 31
0.0
  0
LINE
  8
0
 62
     250
 10
1476.29
 20
339.134
 30
0.0
 11
1476.22
 21
336.01
 31
0.0
  0
LINE
  8
0
 62
     250
 10
1476.22
 20
336.01
 30
0.0
 11
1476.16
 21
333.232
 31
0.0
  0
LINE
  8
0
 62
     250
 10
1476.16
 20
333.232
 30
0.0
 11
1476.11
 21
330.896
 31
0.0
  0
LINE
  8
0
 62
     250
 10
1476.11
 20
330.896
 30
0.0
 11
1476.07
 21
329.105
 31
0.0
  0
LINE
  8
0
 62
     250
 10
1476.07
 20
329.105
 30
0.0
 11
1476.04
 21
327.957
 31
0.0
  0
LINE
  8
0
 62
     250
 10
1476.04
 20
327.957
 30
0.0
 11
1476.03
 21
327.551
 31
0.0
  0
LINE
  8
0
 62
     250
 10
1476.03
 20
327.551
 30
0.0
 11
1476.03
 21
327.551
 31
0.0
  0
LINE
  8
0
 62
     250
 10
1464.43
 20
330.217
 30
0.0
 11
1464.39
 21
328.591
 31
0.0
  0
LINE
  8
0
 62
     250
 10
1464.39
 20
328.591
 30
0.0
 11
1464.36
 21
323.708
 31
0.0
  0
LINE
  8
0
 62
     250
 10
1464.36
 20
323.708
 30
0.0
 11
1464.45
 21
316.699
 31
0.0
  0
LINE
  8
0
 62
     250
 10
1464.45
 20
316.699
 30
0.0
 11
1464.66
 21
309.545
 31
0.0
  0
LINE
  8
0
 62
     250
 10
1464.66
 20
309.545
 30
0.0
 11
1464.98
 21
302.595
 31
0.0
  0
LINE
  8
0
 62
     250
 10
1464.98
 20
302.595
 30
0.0
 11
1465.37
 21
296.204
 31
0.0
  0
LINE
  8
0
 62
     250
 10
1465.37
 20
296.204
 30
0.0
 11
1465.8
 21
290.723
 31
0.0
  0
LINE
  8
0
 62
     250
 10
1465.8
 20
290.723
 30
0.0
 11
1466.25
 21
286.505
 31
0.0
  0
LINE
  8
0
 62
     250
 10
1466.25
 20
286.505
 30
0.0
 11
1466.53
 21
284.54
 31
0.0
  0
LINE
  8
0
 62
     250
 10
1466.53
 20
284.54
 30
0.0
 11
1466.69
 21
283.902
 31
0.0
  0
LINE
  8
0
 62
     250
 10
1466.69
 20
283.902
 30
0.0
 11
1466.81
 21
283.457
 31
0.0
  0
LINE
  8
0
 62
     250
 10
1466.81
 20
283.457
 30
0.0
 11
1467.33
 21
282.163
 31
0.0
  0
LINE
  8
0
 62
     250
 10
1467.33
 20
282.163
 30
0.0
 11
1468.34
 21
280.356
 31
0.0
  0
LINE
  8
0
 62
     250
 10
1468.34
 20
280.356
 30
0.0
 11
1469.68
 21
278.574
 31
0.0
  0
LINE
  8
0
 62
     250
 10
1469.68
 20
278.574
 30
0.0
 11
1471.27
 21
276.907
 31
0.0
  0
LINE
  8
0
 62
     250
 10
1471.27
 20
276.907
 30
0.0
 11
1473.06
 21
275.442
 31
0.0
  0
LINE
  8
0
 62
     250
 10
1473.06
 20
275.442
 30
0.0
 11
1475
 21
274.27
 31
0.0
  0
LINE
  8
0
 62
     250
 10
1475
 20
274.27
 30
0.0
 11
1477.01
 21
273.48
 31
0.0
  0
LINE
  8
0
 62
     250
 10
1477.01
 20
273.48
 30
0.0
 11
1478.54
 21
273.174
 31
0.0
  0
LINE
  8
0
 62
     250
 10
1478.54
 20
273.174
 30
0.0
 11
1479.05
 21
273.16
 31
0.0
  0
LINE
  8
0
 62
     250
 10
1479.05
 20
273.16
 30
0.0
 11
1480.03
 21
273.135
 31
0.0
  0
LINE
  8
0
 62
     250
 10
1480.03
 20
273.135
 30
0.0
 11
1482.99
 21
273.453
 31
0.0
  0
LINE
  8
0
 62
     250
 10
1482.99
 20
273.453
 30
0.0
 11
1486.54
 21
274.666
 31
0.0
  0
LINE
  8
0
 62
     250
 10
1486.54
 20
274.666
 30
0.0
 11
1489.53
 21
276.988
 31
0.0
  0
LINE
  8
0
 62
     250
 10
1489.53
 20
276.988
 30
0.0
 11
1491.35
 21
279.637
 31
0.0
  0
LINE
  8
0
 62
     250
 10
1491.35
 20
279.637
 30
0.0
 11
1491.75
 21
280.606
 31
0.0
  0
LINE
  8
0
 62
     250
 10
1491.75
 20
280.606
 30
0.0
 11
1492.05
 21
281.332
 31
0.0
  0
LINE
  8
0
 62
     250
 10
1492.05
 20
281.332
 30
0.0
 11
1492.81
 21
283.562
 31
0.0
  0
LINE
  8
0
 62
     250
 10
1492.81
 20
283.562
 30
0.0
 11
1494.14
 21
287.915
 31
0.0
  0
LINE
  8
0
 62
     250
 10
1494.14
 20
287.915
 30
0.0
 11
1495.61
 21
293.398
 31
0.0
  0
LINE
  8
0
 62
     250
 10
1495.61
 20
293.398
 30
0.0
 11
1497.11
 21
299.74
 31
0.0
  0
LINE
  8
0
 62
     250
 10
1497.11
 20
299.74
 30
0.0
 11
1498.53
 21
306.67
 31
0.0
  0
LINE
  8
0
 62
     250
 10
1498.53
 20
306.67
 30
0.0
 11
1499.73
 21
313.919
 31
0.0
  0
LINE
  8
0
 62
     250
 10
1499.73
 20
313.919
 30
0.0
 11
1500.61
 21
321.214
 31
0.0
  0
LINE
  8
0
 62
     250
 10
1500.61
 20
321.214
 30
0.0
 11
1501.01
 21
326.517
 31
0.0
  0
LINE
  8
0
 62
     250
 10
1501.01
 20
326.517
 30
0.0
 11
1501.06
 21
328.286
 31
0.0
  0
LINE
  8
0
 62
     250
 10
1501.06
 20
328.286
 30
0.0
 11
1501.1
 21
330.033
 31
0.0
  0
LINE
  8
0
 62
     250
 10
1501.1
 20
330.033
 30
0.0
 11
1500.92
 21
335.284
 31
0.0
  0
LINE
  8
0
 62
     250
 10
1500.92
 20
335.284
 30
0.0
 11
1500.26
 21
342.378
 31
0.0
  0
LINE
  8
0
 62
     250
 10
1500.26
 20
342.378
 30
0.0
 11
1499.19
 21
349.337
 31
0.0
  0
LINE
  8
0
 62
     250
 10
1499.19
 20
349.337
 30
0.0
 11
1497.86
 21
355.925
 31
0.0
  0
LINE
  8
0
 62
     250
 10
1497.86
 20
355.925
 30
0.0
 11
1496.39
 21
361.911
 31
0.0
  0
LINE
  8
0
 62
     250
 10
1496.39
 20
361.911
 30
0.0
 11
1494.92
 21
367.065
 31
0.0
  0
LINE
  8
0
 62
     250
 10
1494.92
 20
367.065
 30
0.0
 11
1493.59
 21
371.15
 31
0.0
  0
LINE
  8
0
 62
     250
 10
1493.59
 20
371.15
 30
0.0
 11
1492.82
 21
373.249
 31
0.0
  0
LINE
  8
0
 62
     250
 10
1492.82
 20
373.249
 30
0.0
 11
1492.53
 21
373.93
 31
0.0
  0
LINE
  8
0
 62
     250
 10
1492.53
 20
373.93
 30
0.0
 11
1492.11
 21
374.911
 31
0.0
  0
LINE
  8
0
 62
     250
 10
1492.11
 20
374.911
 30
0.0
 11
1490.33
 21
377.62
 31
0.0
  0
LINE
  8
0
 62
     250
 10
1490.33
 20
377.62
 30
0.0
 11
1487.38
 21
380.404
 31
0.0
  0
LINE
  8
0
 62
     250
 10
1487.38
 20
380.404
 30
0.0
 11
1483.84
 21
382.189
 31
0.0
  0
LINE
  8
0
 62
     250
 10
1483.84
 20
382.189
 30
0.0
 11
1480.84
 21
382.852
 31
0.0
  0
LINE
  8
0
 62
     250
 10
1480.84
 20
382.852
 30
0.0
 11
1479.84
 21
382.877
 31
0.0
  0
LINE
  8
0
 62
     250
 10
1479.84
 20
382.877
 30
0.0
 11
1479.33
 21
382.891
 31
0.0
  0
LINE
  8
0
 62
     250
 10
1479.33
 20
382.891
 30
0.0
 11
1477.77
 21
382.714
 31
0.0
  0
LINE
  8
0
 62
     250
 10
1477.77
 20
382.714
 30
0.0
 11
1475.75
 21
382.164
 31
0.0
  0
LINE
  8
0
 62
     250
 10
1475.75
 20
382.164
 30
0.0
 11
1473.83
 21
381.3
 31
0.0
  0
LINE
  8
0
 62
     250
 10
1473.83
 20
381.3
 30
0.0
 11
1472.06
 21
380.182
 31
0.0
  0
LINE
  8
0
 62
     250
 10
1472.06
 20
380.182
 30
0.0
 11
1470.5
 21
378.883
 31
0.0
  0
LINE
  8
0
 62
     250
 10
1470.5
 20
378.883
 30
0.0
 11
1469.19
 21
377.472
 31
0.0
  0
LINE
  8
0
 62
     250
 10
1469.19
 20
377.472
 30
0.0
 11
1468.19
 21
376.019
 31
0.0
  0
LINE
  8
0
 62
     250
 10
1468.19
 20
376.019
 30
0.0
 11
1467.66
 21
374.957
 31
0.0
  0
LINE
  8
0
 62
     250
 10
1467.66
 20
374.957
 30
0.0
 11
1467.54
 21
374.586
 31
0.0
  0
LINE
  8
0
 62
     250
 10
1467.54
 20
374.586
 30
0.0
 11
1467.45
 21
374.318
 31
0.0
  0
LINE
  8
0
 62
     250
 10
1467.45
 20
374.318
 30
0.0
 11
1467.31
 21
373.475
 31
0.0
  0
LINE
  8
0
 62
     250
 10
1467.31
 20
373.475
 30
0.0
 11
1467.06
 21
371.613
 31
0.0
  0
LINE
  8
0
 62
     250
 10
1467.06
 20
371.613
 30
0.0
 11
1466.81
 21
369.111
 31
0.0
  0
LINE
  8
0
 62
     250
 10
1466.81
 20
369.111
 30
0.0
 11
1466.55
 21
366.085
 31
0.0
  0
LINE
  8
0
 62
     250
 10
1466.55
 20
366.085
 30
0.0
 11
1466.29
 21
362.648
 31
0.0
  0
LINE
  8
0
 62
     250
 10
1466.29
 20
362.648
 30
0.0
 11
1466.03
 21
358.913
 31
0.0
  0
LINE
  8
0
 62
     250
 10
1466.03
 20
358.913
 30
0.0
 11
1465.77
 21
354.997
 31
0.0
  0
LINE
  8
0
 62
     250
 10
1465.77
 20
354.997
 30
0.0
 11
1465.53
 21
351.007
 31
0.0
  0
LINE
  8
0
 62
     250
 10
1465.53
 20
351.007
 30
0.0
 11
1465.31
 21
347.063
 31
0.0
  0
LINE
  8
0
 62
     250
 10
1465.31
 20
347.063
 30
0.0
 11
1465.1
 21
343.275
 31
0.0
  0
LINE
  8
0
 62
     250
 10
1465.1
 20
343.275
 30
0.0
 11
1464.91
 21
339.76
 31
0.0
  0
LINE
  8
0
 62
     250
 10
1464.91
 20
339.76
 30
0.0
 11
1464.75
 21
336.627
 31
0.0
  0
LINE
  8
0
 62
     250
 10
1464.75
 20
336.627
 30
0.0
 11
1464.62
 21
333.994
 31
0.0
  0
LINE
  8
0
 62
     250
 10
1464.62
 20
333.994
 30
0.0
 11
1464.52
 21
331.971
 31
0.0
  0
LINE
  8
0
 62
     250
 10
1464.52
 20
331.971
 30
0.0
 11
1464.45
 21
330.674
 31
0.0
  0
LINE
  8
0
 62
     250
 10
1464.45
 20
330.674
 30
0.0
 11
1464.43
 21
330.217
 31
0.0
  0
LINE
  8
0
 62
     250
 10
1464.43
 20
330.217
 30
0.0
 11
1464.43
 21
330.217
 31
0.0
  0
LINE
  8
0
 62
     250
 10
1691.95
 20
282.17
 30
0.0
 11
1690.86
 21
282.199
 31
0.0
  0
LINE
  8
0
 62
     250
 10
1690.86
 20
282.199
 30
0.0
 11
1687.59
 21
282.508
 31
0.0
  0
LINE
  8
0
 62
     250
 10
1687.59
 20
282.508
 30
0.0
 11
1683.36
 21
283.271
 31
0.0
  0
LINE
  8
0
 62
     250
 10
1683.36
 20
283.271
 30
0.0
 11
1679.29
 21
284.438
 31
0.0
  0
LINE
  8
0
 62
     250
 10
1679.29
 20
284.438
 30
0.0
 11
1675.4
 21
285.988
 31
0.0
  0
LINE
  8
0
 62
     250
 10
1675.4
 20
285.988
 30
0.0
 11
1671.71
 21
287.898
 31
0.0
  0
LINE
  8
0
 62
     250
 10
1671.71
 20
287.898
 30
0.0
 11
1668.24
 21
290.146
 31
0.0
  0
LINE
  8
0
 62
     250
 10
1668.24
 20
290.146
 30
0.0
 11
1665.01
 21
292.709
 31
0.0
  0
LINE
  8
0
 62
     250
 10
1665.01
 20
292.709
 30
0.0
 11
1662.05
 21
295.566
 31
0.0
  0
LINE
  8
0
 62
     250
 10
1662.05
 20
295.566
 30
0.0
 11
1659.37
 21
298.694
 31
0.0
  0
LINE
  8
0
 62
     250
 10
1659.37
 20
298.694
 30
0.0
 11
1657
 21
302.072
 31
0.0
  0
LINE
  8
0
 62
     250
 10
1657
 20
302.072
 30
0.0
 11
1654.95
 21
305.675
 31
0.0
  0
LINE
  8
0
 62
     250
 10
1654.95
 20
305.675
 30
0.0
 11
1653.25
 21
309.484
 31
0.0
  0
LINE
  8
0
 62
     250
 10
1653.25
 20
309.484
 30
0.0
 11
1651.91
 21
313.476
 31
0.0
  0
LINE
  8
0
 62
     250
 10
1651.91
 20
313.476
 30
0.0
 11
1650.97
 21
317.627
 31
0.0
  0
LINE
  8
0
 62
     250
 10
1650.97
 20
317.627
 30
0.0
 11
1650.43
 21
321.917
 31
0.0
  0
LINE
  8
0
 62
     250
 10
1650.43
 20
321.917
 30
0.0
 11
1650.3
 21
325.223
 31
0.0
  0
LINE
  8
0
 62
     250
 10
1650.3
 20
325.223
 30
0.0
 11
1650.33
 21
326.322
 31
0.0
  0
LINE
  8
0
 62
     250
 10
1650.33
 20
326.322
 30
0.0
 11
1650.35
 21
327.423
 31
0.0
  0
LINE
  8
0
 62
     250
 10
1650.35
 20
327.423
 30
0.0
 11
1650.66
 21
330.717
 31
0.0
  0
LINE
  8
0
 62
     250
 10
1650.66
 20
330.717
 30
0.0
 11
1651.42
 21
334.972
 31
0.0
  0
LINE
  8
0
 62
     250
 10
1651.42
 20
334.972
 30
0.0
 11
1652.58
 21
339.069
 31
0.0
  0
LINE
  8
0
 62
     250
 10
1652.58
 20
339.069
 30
0.0
 11
1654.13
 21
342.984
 31
0.0
  0
LINE
  8
0
 62
     250
 10
1654.13
 20
342.984
 30
0.0
 11
1656.02
 21
346.699
 31
0.0
  0
LINE
  8
0
 62
     250
 10
1656.02
 20
346.699
 30
0.0
 11
1658.26
 21
350.191
 31
0.0
  0
LINE
  8
0
 62
     250
 10
1658.26
 20
350.191
 30
0.0
 11
1660.8
 21
353.441
 31
0.0
  0
LINE
  8
0
 62
     250
 10
1660.8
 20
353.441
 30
0.0
 11
1663.64
 21
356.422
 31
0.0
  0
LINE
  8
0
 62
     250
 10
1663.64
 20
356.422
 30
0.0
 11
1666.76
 21
359.121
 31
0.0
  0
LINE
  8
0
 62
     250
 10
1666.76
 20
359.121
 30
0.0
 11
1670.11
 21
361.513
 31
0.0
  0
LINE
  8
0
 62
     250
 10
1670.11
 20
361.513
 30
0.0
 11
1673.69
 21
363.576
 31
0.0
  0
LINE
  8
0
 62
     250
 10
1673.69
 20
363.576
 30
0.0
 11
1677.48
 21
365.287
 31
0.0
  0
LINE
  8
0
 62
     250
 10
1677.48
 20
365.287
 30
0.0
 11
1681.44
 21
366.631
 31
0.0
  0
LINE
  8
0
 62
     250
 10
1681.44
 20
366.631
 30
0.0
 11
1685.57
 21
367.587
 31
0.0
  0
LINE
  8
0
 62
     250
 10
1685.57
 20
367.587
 30
0.0
 11
1689.83
 21
368.127
 31
0.0
  0
LINE
  8
0
 62
     250
 10
1689.83
 20
368.127
 30
0.0
 11
1693.11
 21
368.261
 31
0.0
  0
LINE
  8
0
 62
     250
 10
1693.11
 20
368.261
 30
0.0
 11
1694.2
 21
368.233
 31
0.0
  0
LINE
  8
0
 62
     250
 10
1694.2
 20
368.233
 30
0.0
 11
1695.3
 21
368.205
 31
0.0
  0
LINE
  8
0
 62
     250
 10
1695.3
 20
368.205
 30
0.0
 11
1698.57
 21
367.898
 31
0.0
  0
LINE
  8
0
 62
     250
 10
1698.57
 20
367.898
 30
0.0
 11
1702.8
 21
367.136
 31
0.0
  0
LINE
  8
0
 62
     250
 10
1702.8
 20
367.136
 30
0.0
 11
1706.87
 21
365.968
 31
0.0
  0
LINE
  8
0
 62
     250
 10
1706.87
 20
365.968
 30
0.0
 11
1710.76
 21
364.416
 31
0.0
  0
LINE
  8
0
 62
     250
 10
1710.76
 20
364.416
 30
0.0
 11
1714.45
 21
362.507
 31
0.0
  0
LINE
  8
0
 62
     250
 10
1714.45
 20
362.507
 30
0.0
 11
1717.91
 21
360.26
 31
0.0
  0
LINE
  8
0
 62
     250
 10
1717.91
 20
360.26
 30
0.0
 11
1721.14
 21
357.696
 31
0.0
  0
LINE
  8
0
 62
     250
 10
1721.14
 20
357.696
 30
0.0
 11
1724.11
 21
354.838
 31
0.0
  0
LINE
  8
0
 62
     250
 10
1724.11
 20
354.838
 30
0.0
 11
1726.79
 21
351.711
 31
0.0
  0
LINE
  8
0
 62
     250
 10
1726.79
 20
351.711
 30
0.0
 11
1729.16
 21
348.333
 31
0.0
  0
LINE
  8
0
 62
     250
 10
1729.16
 20
348.333
 30
0.0
 11
1731.21
 21
344.73
 31
0.0
  0
LINE
  8
0
 62
     250
 10
1731.21
 20
344.73
 30
0.0
 11
1732.91
 21
340.921
 31
0.0
  0
LINE
  8
0
 62
     250
 10
1732.91
 20
340.921
 30
0.0
 11
1734.25
 21
336.93
 31
0.0
  0
LINE
  8
0
 62
     250
 10
1734.25
 20
336.93
 30
0.0
 11
1735.19
 21
332.778
 31
0.0
  0
LINE
  8
0
 62
     250
 10
1735.19
 20
332.778
 30
0.0
 11
1735.73
 21
328.488
 31
0.0
  0
LINE
  8
0
 62
     250
 10
1735.73
 20
328.488
 30
0.0
 11
1735.86
 21
325.182
 31
0.0
  0
LINE
  8
0
 62
     250
 10
1735.86
 20
325.182
 30
0.0
 11
1735.83
 21
324.083
 31
0.0
  0
LINE
  8
0
 62
     250
 10
1735.83
 20
324.083
 30
0.0
 11
1735.8
 21
322.983
 31
0.0
  0
LINE
  8
0
 62
     250
 10
1735.8
 20
322.983
 30
0.0
 11
1735.5
 21
319.69
 31
0.0
  0
LINE
  8
0
 62
     250
 10
1735.5
 20
319.69
 30
0.0
 11
1734.74
 21
315.434
 31
0.0
  0
LINE
  8
0
 62
     250
 10
1734.74
 20
315.434
 30
0.0
 11
1733.57
 21
311.337
 31
0.0
  0
LINE
  8
0
 62
     250
 10
1733.57
 20
311.337
 30
0.0
 11
1732.03
 21
307.421
 31
0.0
  0
LINE
  8
0
 62
     250
 10
1732.03
 20
307.421
 30
0.0
 11
1730.14
 21
303.707
 31
0.0
  0
LINE
  8
0
 62
     250
 10
1730.14
 20
303.707
 30
0.0
 11
1727.9
 21
300.215
 31
0.0
  0
LINE
  8
0
 62
     250
 10
1727.9
 20
300.215
 30
0.0
 11
1725.35
 21
296.967
 31
0.0
  0
LINE
  8
0
 62
     250
 10
1725.35
 20
296.967
 30
0.0
 11
1722.51
 21
293.982
 31
0.0
  0
LINE
  8
0
 62
     250
 10
1722.51
 20
293.982
 30
0.0
 11
1719.4
 21
291.285
 31
0.0
  0
LINE
  8
0
 62
     250
 10
1719.4
 20
291.285
 30
0.0
 11
1716.05
 21
288.893
 31
0.0
  0
LINE
  8
0
 62
     250
 10
1716.05
 20
288.893
 30
0.0
 11
1712.47
 21
286.831
 31
0.0
  0
LINE
  8
0
 62
     250
 10
1712.47
 20
286.831
 30
0.0
 11
1708.68
 21
285.116
 31
0.0
  0
LINE
  8
0
 62
     250
 10
1708.68
 20
285.116
 30
0.0
 11
1704.72
 21
283.773
 31
0.0
  0
LINE
  8
0
 62
     250
 10
1704.72
 20
283.773
 30
0.0
 11
1700.59
 21
282.819
 31
0.0
  0
LINE
  8
0
 62
     250
 10
1700.59
 20
282.819
 30
0.0
 11
1696.33
 21
282.279
 31
0.0
  0
LINE
  8
0
 62
     250
 10
1696.33
 20
282.279
 30
0.0
 11
1693.04
 21
282.142
 31
0.0
  0
LINE
  8
0
 62
     250
 10
1693.04
 20
282.142
 30
0.0
 11
1691.95
 21
282.17
 31
0.0
  0
LINE
  8
0
 62
     250
 10
1690.84
 20
284.67
 30
0.0
 11
1689.75
 21
284.699
 31
0.0
  0
LINE
  8
0
 62
     250
 10
1689.75
 20
284.699
 30
0.0
 11
1686.48
 21
285.007
 31
0.0
  0
LINE
  8
0
 62
     250
 10
1686.48
 20
285.007
 30
0.0
 11
1682.25
 21
285.771
 31
0.0
  0
LINE
  8
0
 62
     250
 10
1682.25
 20
285.771
 30
0.0
 11
1678.18
 21
286.938
 31
0.0
  0
LINE
  8
0
 62
     250
 10
1678.18
 20
286.938
 30
0.0
 11
1674.29
 21
288.488
 31
0.0
  0
LINE
  8
0
 62
     250
 10
1674.29
 20
288.488
 30
0.0
 11
1670.6
 21
290.398
 31
0.0
  0
LINE
  8
0
 62
     250
 10
1670.6
 20
290.398
 30
0.0
 11
1667.13
 21
292.646
 31
0.0
  0
LINE
  8
0
 62
     250
 10
1667.13
 20
292.646
 30
0.0
 11
1663.9
 21
295.209
 31
0.0
  0
LINE
  8
0
 62
     250
 10
1663.9
 20
295.209
 30
0.0
 11
1660.94
 21
298.065
 31
0.0
  0
LINE
  8
0
 62
     250
 10
1660.94
 20
298.065
 30
0.0
 11
1658.26
 21
301.194
 31
0.0
  0
LINE
  8
0
 62
     250
 10
1658.26
 20
301.194
 30
0.0
 11
1655.89
 21
304.571
 31
0.0
  0
LINE
  8
0
 62
     250
 10
1655.89
 20
304.571
 30
0.0
 11
1653.84
 21
308.175
 31
0.0
  0
LINE
  8
0
 62
     250
 10
1653.84
 20
308.175
 30
0.0
 11
1652.14
 21
311.984
 31
0.0
  0
LINE
  8
0
 62
     250
 10
1652.14
 20
311.984
 30
0.0
 11
1650.8
 21
315.975
 31
0.0
  0
LINE
  8
0
 62
     250
 10
1650.8
 20
315.975
 30
0.0
 11
1649.86
 21
320.126
 31
0.0
  0
LINE
  8
0
 62
     250
 10
1649.86
 20
320.126
 30
0.0
 11
1649.32
 21
324.416
 31
0.0
  0
LINE
  8
0
 62
     250
 10
1649.32
 20
324.416
 30
0.0
 11
1649.19
 21
327.722
 31
0.0
  0
LINE
  8
0
 62
     250
 10
1649.19
 20
327.722
 30
0.0
 11
1649.21
 21
328.821
 31
0.0
  0
LINE
  8
0
 62
     250
 10
1649.21
 20
328.821
 30
0.0
 11
1649.24
 21
329.922
 31
0.0
  0
LINE
  8
0
 62
     250
 10
1649.24
 20
329.922
 30
0.0
 11
1649.55
 21
333.215
 31
0.0
  0
LINE
  8
0
 62
     250
 10
1649.55
 20
333.215
 30
0.0
 11
1650.31
 21
337.472
 31
0.0
  0
LINE
  8
0
 62
     250
 10
1650.31
 20
337.472
 30
0.0
 11
1651.47
 21
341.568
 31
0.0
  0
LINE
  8
0
 62
     250
 10
1651.47
 20
341.568
 30
0.0
 11
1653.01
 21
345.484
 31
0.0
  0
LINE
  8
0
 62
     250
 10
1653.01
 20
345.484
 30
0.0
 11
1654.91
 21
349.199
 31
0.0
  0
LINE
  8
0
 62
     250
 10
1654.91
 20
349.199
 30
0.0
 11
1657.15
 21
352.691
 31
0.0
  0
LINE
  8
0
 62
     250
 10
1657.15
 20
352.691
 30
0.0
 11
1659.69
 21
355.939
 31
0.0
  0
LINE
  8
0
 62
     250
 10
1659.69
 20
355.939
 30
0.0
 11
1662.54
 21
358.923
 31
0.0
  0
LINE
  8
0
 62
     250
 10
1662.54
 20
358.923
 30
0.0
 11
1665.64
 21
361.622
 31
0.0
  0
LINE
  8
0
 62
     250
 10
1665.64
 20
361.622
 30
0.0
 11
1669
 21
364.01
 31
0.0
  0
LINE
  8
0
 62
     250
 10
1669
 20
364.01
 30
0.0
 11
1672.58
 21
366.074
 31
0.0
  0
LINE
  8
0
 62
     250
 10
1672.58
 20
366.074
 30
0.0
 11
1676.36
 21
367.788
 31
0.0
  0
LINE
  8
0
 62
     250
 10
1676.36
 20
367.788
 30
0.0
 11
1680.33
 21
369.133
 31
0.0
  0
LINE
  8
0
 62
     250
 10
1680.33
 20
369.133
 30
0.0
 11
1684.45
 21
370.085
 31
0.0
  0
LINE
  8
0
 62
     250
 10
1684.45
 20
370.085
 30
0.0
 11
1688.72
 21
370.625
 31
0.0
  0
LINE
  8
0
 62
     250
 10
1688.72
 20
370.625
 30
0.0
 11
1692
 21
370.762
 31
0.0
  0
LINE
  8
0
 62
     250
 10
1692
 20
370.762
 30
0.0
 11
1693.09
 21
370.734
 31
0.0
  0
LINE
  8
0
 62
     250
 10
1693.09
 20
370.734
 30
0.0
 11
1694.19
 21
370.706
 31
0.0
  0
LINE
  8
0
 62
     250
 10
1694.19
 20
370.706
 30
0.0
 11
1697.46
 21
370.399
 31
0.0
  0
LINE
  8
0
 62
     250
 10
1697.46
 20
370.399
 30
0.0
 11
1701.69
 21
369.634
 31
0.0
  0
LINE
  8
0
 62
     250
 10
1701.69
 20
369.634
 30
0.0
 11
1705.76
 21
368.466
 31
0.0
  0
LINE
  8
0
 62
     250
 10
1705.76
 20
368.466
 30
0.0
 11
1709.65
 21
366.917
 31
0.0
  0
LINE
  8
0
 62
     250
 10
1709.65
 20
366.917
 30
0.0
 11
1713.34
 21
365.005
 31
0.0
  0
LINE
  8
0
 62
     250
 10
1713.34
 20
365.005
 30
0.0
 11
1716.81
 21
362.758
 31
0.0
  0
LINE
  8
0
 62
     250
 10
1716.81
 20
362.758
 30
0.0
 11
1720.03
 21
360.197
 31
0.0
  0
LINE
  8
0
 62
     250
 10
1720.03
 20
360.197
 30
0.0
 11
1722.99
 21
357.339
 31
0.0
  0
LINE
  8
0
 62
     250
 10
1722.99
 20
357.339
 30
0.0
 11
1725.68
 21
354.21
 31
0.0
  0
LINE
  8
0
 62
     250
 10
1725.68
 20
354.21
 30
0.0
 11
1728.05
 21
350.833
 31
0.0
  0
LINE
  8
0
 62
     250
 10
1728.05
 20
350.833
 30
0.0
 11
1730.1
 21
347.23
 31
0.0
  0
LINE
  8
0
 62
     250
 10
1730.1
 20
347.23
 30
0.0
 11
1731.8
 21
343.421
 31
0.0
  0
LINE
  8
0
 62
     250
 10
1731.8
 20
343.421
 30
0.0
 11
1733.13
 21
339.43
 31
0.0
  0
LINE
  8
0
 62
     250
 10
1733.13
 20
339.43
 30
0.0
 11
1734.08
 21
335.278
 31
0.0
  0
LINE
  8
0
 62
     250
 10
1734.08
 20
335.278
 30
0.0
 11
1734.62
 21
330.988
 31
0.0
  0
LINE
  8
0
 62
     250
 10
1734.62
 20
330.988
 30
0.0
 11
1734.75
 21
327.682
 31
0.0
  0
LINE
  8
0
 62
     250
 10
1734.75
 20
327.682
 30
0.0
 11
1734.72
 21
326.583
 31
0.0
  0
LINE
  8
0
 62
     250
 10
1734.72
 20
326.583
 30
0.0
 11
1734.69
 21
325.483
 31
0.0
  0
LINE
  8
0
 62
     250
 10
1734.69
 20
325.483
 30
0.0
 11
1734.39
 21
322.189
 31
0.0
  0
LINE
  8
0
 62
     250
 10
1734.39
 20
322.189
 30
0.0
 11
1733.62
 21
317.933
 31
0.0
  0
LINE
  8
0
 62
     250
 10
1733.62
 20
317.933
 30
0.0
 11
1732.46
 21
313.837
 31
0.0
  0
LINE
  8
0
 62
     250
 10
1732.46
 20
313.837
 30
0.0
 11
1730.92
 21
309.921
 31
0.0
  0
LINE
  8
0
 62
     250
 10
1730.92
 20
309.921
 30
0.0
 11
1729.02
 21
306.205
 31
0.0
  0
LINE
  8
0
 62
     250
 10
1729.02
 20
306.205
 30
0.0
 11
1726.79
 21
302.714
 31
0.0
  0
LINE
  8
0
 62
     250
 10
1726.79
 20
302.714
 30
0.0
 11
1724.24
 21
299.466
 31
0.0
  0
LINE
  8
0
 62
     250
 10
1724.24
 20
299.466
 30
0.0
 11
1721.4
 21
296.482
 31
0.0
  0
LINE
  8
0
 62
     250
 10
1721.4
 20
296.482
 30
0.0
 11
1718.29
 21
293.784
 31
0.0
  0
LINE
  8
0
 62
     250
 10
1718.29
 20
293.784
 30
0.0
 11
1714.94
 21
291.393
 31
0.0
  0
LINE
  8
0
 62
     250
 10
1714.94
 20
291.393
 30
0.0
 11
1711.36
 21
289.33
 31
0.0
  0
LINE
  8
0
 62
     250
 10
1711.36
 20
289.33
 30
0.0
 11
1707.57
 21
287.616
 31
0.0
  0
LINE
  8
0
 62
     250
 10
1707.57
 20
287.616
 30
0.0
 11
1703.61
 21
286.272
 31
0.0
  0
LINE
  8
0
 62
     250
 10
1703.61
 20
286.272
 30
0.0
 11
1699.48
 21
285.319
 31
0.0
  0
LINE
  8
0
 62
     250
 10
1699.48
 20
285.319
 30
0.0
 11
1695.22
 21
284.778
 31
0.0
  0
LINE
  8
0
 62
     250
 10
1695.22
 20
284.778
 30
0.0
 11
1691.93
 21
284.642
 31
0.0
  0
LINE
  8
0
 62
     250
 10
1691.93
 20
284.642
 30
0.0
 11
1690.84
 21
284.67
 31
0.0
  0
LINE
  8
0
 62
     250
 10
1688.12
 20
295.279
 30
0.0
 11
1686.54
 21
295.321
 31
0.0
  0
LINE
  8
0
 62
     250
 10
1686.54
 20
295.321
 30
0.0
 11
1681.84
 21
296.099
 31
0.0
  0
LINE
  8
0
 62
     250
 10
1681.84
 20
296.099
 30
0.0
 11
1676.03
 21
298.129
 31
0.0
  0
LINE
  8
0
 62
     250
 10
1676.03
 20
298.129
 30
0.0
 11
1670.8
 21
301.238
 31
0.0
  0
LINE
  8
0
 62
     250
 10
1670.8
 20
301.238
 30
0.0
 11
1666.28
 21
305.291
 31
0.0
  0
LINE
  8
0
 62
     250
 10
1666.28
 20
305.291
 30
0.0
 11
1662.59
 21
310.157
 31
0.0
  0
LINE
  8
0
 62
     250
 10
1662.59
 20
310.157
 30
0.0
 11
1659.85
 21
315.703
 31
0.0
  0
LINE
  8
0
 62
     250
 10
1659.85
 20
315.703
 30
0.0
 11
1658.19
 21
321.795
 31
0.0
  0
LINE
  8
0
 62
     250
 10
1658.19
 20
321.795
 30
0.0
 11
1657.69
 21
326.679
 31
0.0
  0
LINE
  8
0
 62
     250
 10
1657.69
 20
326.679
 30
0.0
 11
1657.73
 21
328.301
 31
0.0
  0
LINE
  8
0
 62
     250
 10
1657.73
 20
328.301
 30
0.0
 11
1657.77
 21
329.924
 31
0.0
  0
LINE
  8
0
 62
     250
 10
1657.77
 20
329.924
 30
0.0
 11
1658.53
 21
334.775
 31
0.0
  0
LINE
  8
0
 62
     250
 10
1658.53
 20
334.775
 30
0.0
 11
1660.51
 21
340.774
 31
0.0
  0
LINE
  8
0
 62
     250
 10
1660.51
 20
340.774
 30
0.0
 11
1663.53
 21
346.169
 31
0.0
  0
LINE
  8
0
 62
     250
 10
1663.53
 20
346.169
 30
0.0
 11
1667.47
 21
350.835
 31
0.0
  0
LINE
  8
0
 62
     250
 10
1667.47
 20
350.835
 30
0.0
 11
1672.2
 21
354.647
 31
0.0
  0
LINE
  8
0
 62
     250
 10
1672.2
 20
354.647
 30
0.0
 11
1677.58
 21
357.477
 31
0.0
  0
LINE
  8
0
 62
     250
 10
1677.58
 20
357.477
 30
0.0
 11
1683.49
 21
359.198
 31
0.0
  0
LINE
  8
0
 62
     250
 10
1683.49
 20
359.198
 30
0.0
 11
1688.23
 21
359.731
 31
0.0
  0
LINE
  8
0
 62
     250
 10
1688.23
 20
359.731
 30
0.0
 11
1689.81
 21
359.689
 31
0.0
  0
LINE
  8
0
 62
     250
 10
1689.81
 20
359.689
 30
0.0
 11
1691.38
 21
359.65
 31
0.0
  0
LINE
  8
0
 62
     250
 10
1691.38
 20
359.65
 30
0.0
 11
1696.08
 21
358.87
 31
0.0
  0
LINE
  8
0
 62
     250
 10
1696.08
 20
358.87
 30
0.0
 11
1701.9
 21
356.842
 31
0.0
  0
LINE
  8
0
 62
     250
 10
1701.9
 20
356.842
 30
0.0
 11
1707.12
 21
353.73
 31
0.0
  0
LINE
  8
0
 62
     250
 10
1707.12
 20
353.73
 30
0.0
 11
1711.64
 21
349.679
 31
0.0
  0
LINE
  8
0
 62
     250
 10
1711.64
 20
349.679
 30
0.0
 11
1715.33
 21
344.811
 31
0.0
  0
LINE
  8
0
 62
     250
 10
1715.33
 20
344.811
 30
0.0
 11
1718.07
 21
339.266
 31
0.0
  0
LINE
  8
0
 62
     250
 10
1718.07
 20
339.266
 30
0.0
 11
1719.73
 21
333.173
 31
0.0
  0
LINE
  8
0
 62
     250
 10
1719.73
 20
333.173
 30
0.0
 11
1720.23
 21
328.289
 31
0.0
  0
LINE
  8
0
 62
     250
 10
1720.23
 20
328.289
 30
0.0
 11
1720.19
 21
326.665
 31
0.0
  0
LINE
  8
0
 62
     250
 10
1720.19
 20
326.665
 30
0.0
 11
1720.15
 21
325.043
 31
0.0
  0
LINE
  8
0
 62
     250
 10
1720.15
 20
325.043
 30
0.0
 11
1719.39
 21
320.193
 31
0.0
  0
LINE
  8
0
 62
     250
 10
1719.39
 20
320.193
 30
0.0
 11
1717.41
 21
314.196
 31
0.0
  0
LINE
  8
0
 62
     250
 10
1717.41
 20
314.196
 30
0.0
 11
1714.39
 21
308.801
 31
0.0
  0
LINE
  8
0
 62
     250
 10
1714.39
 20
308.801
 30
0.0
 11
1710.45
 21
304.134
 31
0.0
  0
LINE
  8
0
 62
     250
 10
1710.45
 20
304.134
 30
0.0
 11
1705.72
 21
300.323
 31
0.0
  0
LINE
  8
0
 62
     250
 10
1705.72
 20
300.323
 30
0.0
 11
1700.34
 21
297.492
 31
0.0
  0
LINE
  8
0
 62
     250
 10
1700.34
 20
297.492
 30
0.0
 11
1694.43
 21
295.77
 31
0.0
  0
LINE
  8
0
 62
     250
 10
1694.43
 20
295.77
 30
0.0
 11
1689.69
 21
295.239
 31
0.0
  0
LINE
  8
0
 62
     250
 10
1689.69
 20
295.239
 30
0.0
 11
1688.12
 21
295.279
 31
0.0
  0
LINE
  8
0
 62
     250
 10
1845.11
 20
309.687
 30
0.0
 11
1845.64
 21
309.144
 31
0.0
  0
LINE
  8
0
 62
     250
 10
1845.64
 20
309.144
 30
0.0
 11
1847.32
 21
307.599
 31
0.0
  0
LINE
  8
0
 62
     250
 10
1847.32
 20
307.599
 30
0.0
 11
1850.16
 21
305.186
 31
0.0
  0
LINE
  8
0
 62
     250
 10
1850.16
 20
305.186
 30
0.0
 11
1853.36
 21
302.617
 31
0.0
  0
LINE
  8
0
 62
     250
 10
1853.36
 20
302.617
 30
0.0
 11
1856.68
 21
300.06
 31
0.0
  0
LINE
  8
0
 62
     250
 10
1856.68
 20
300.06
 30
0.0
 11
1859.89
 21
297.681
 31
0.0
  0
LINE
  8
0
 62
     250
 10
1859.89
 20
297.681
 30
0.0
 11
1862.73
 21
295.65
 31
0.0
  0
LINE
  8
0
 62
     250
 10
1862.73
 20
295.65
 30
0.0
 11
1864.97
 21
294.131
 31
0.0
  0
LINE
  8
0
 62
     250
 10
1864.97
 20
294.131
 30
0.0
 11
1865.99
 21
293.477
 31
0.0
  0
LINE
  8
0
 62
     250
 10
1865.99
 20
293.477
 30
0.0
 11
1866.35
 21
293.295
 31
0.0
  0
LINE
  8
0
 62
     250
 10
1866.35
 20
293.295
 30
0.0
 11
1866.8
 21
293.07
 31
0.0
  0
LINE
  8
0
 62
     250
 10
1866.8
 20
293.07
 30
0.0
 11
1868.32
 21
292.73
 31
0.0
  0
LINE
  8
0
 62
     250
 10
1868.32
 20
292.73
 30
0.0
 11
1870.63
 21
292.923
 31
0.0
  0
LINE
  8
0
 62
     250
 10
1870.63
 20
292.923
 30
0.0
 11
1873.15
 21
294.075
 31
0.0
  0
LINE
  8
0
 62
     250
 10
1873.15
 20
294.075
 30
0.0
 11
1875.17
 21
295.735
 31
0.0
  0
LINE
  8
0
 62
     250
 10
1875.17
 20
295.735
 30
0.0
 11
1875.74
 21
296.383
 31
0.0
  0
LINE
  8
0
 62
     250
 10
1875.74
 20
296.383
 30
0.0
 11
1876.1
 21
296.805
 31
0.0
  0
LINE
  8
0
 62
     250
 10
1876.1
 20
296.805
 30
0.0
 11
1877.06
 21
298.198
 31
0.0
  0
LINE
  8
0
 62
     250
 10
1877.06
 20
298.198
 30
0.0
 11
1878.4
 21
300.662
 31
0.0
  0
LINE
  8
0
 62
     250
 10
1878.4
 20
300.662
 30
0.0
 11
1879.72
 21
303.734
 31
0.0
  0
LINE
  8
0
 62
     250
 10
1879.72
 20
303.734
 30
0.0
 11
1880.95
 21
307.377
 31
0.0
  0
LINE
  8
0
 62
     250
 10
1880.95
 20
307.377
 30
0.0
 11
1882.04
 21
311.551
 31
0.0
  0
LINE
  8
0
 62
     250
 10
1882.04
 20
311.551
 30
0.0
 11
1882.94
 21
316.217
 31
0.0
  0
LINE
  8
0
 62
     250
 10
1882.94
 20
316.217
 30
0.0
 11
1883.57
 21
321.336
 31
0.0
  0
LINE
  8
0
 62
     250
 10
1883.57
 20
321.336
 30
0.0
 11
1883.86
 21
325.484
 31
0.0
  0
LINE
  8
0
 62
     250
 10
1883.86
 20
325.484
 30
0.0
 11
1883.9
 21
326.868
 31
0.0
  0
LINE
  8
0
 62
     250
 10
1883.9
 20
326.868
 30
0.0
 11
1883.94
 21
328.26
 31
0.0
  0
LINE
  8
0
 62
     250
 10
1883.94
 20
328.26
 30
0.0
 11
1883.79
 21
332.442
 31
0.0
  0
LINE
  8
0
 62
     250
 10
1883.79
 20
332.442
 30
0.0
 11
1883.23
 21
337.742
 31
0.0
  0
LINE
  8
0
 62
     250
 10
1883.23
 20
337.742
 30
0.0
 11
1882.33
 21
342.669
 31
0.0
  0
LINE
  8
0
 62
     250
 10
1882.33
 20
342.669
 30
0.0
 11
1881.18
 21
347.115
 31
0.0
  0
LINE
  8
0
 62
     250
 10
1881.18
 20
347.115
 30
0.0
 11
1879.9
 21
350.981
 31
0.0
  0
LINE
  8
0
 62
     250
 10
1879.9
 20
350.981
 30
0.0
 11
1878.58
 21
354.161
 31
0.0
  0
LINE
  8
0
 62
     250
 10
1878.58
 20
354.161
 30
0.0
 11
1877.32
 21
356.549
 31
0.0
  0
LINE
  8
0
 62
     250
 10
1877.32
 20
356.549
 30
0.0
 11
1876.56
 21
357.713
 31
0.0
  0
LINE
  8
0
 62
     250
 10
1876.56
 20
357.713
 30
0.0
 11
1876.24
 21
358.045
 31
0.0
  0
LINE
  8
0
 62
     250
 10
1876.24
 20
358.045
 30
0.0
 11
1875.8
 21
358.51
 31
0.0
  0
LINE
  8
0
 62
     250
 10
1875.8
 20
358.51
 30
0.0
 11
1874.3
 21
359.756
 31
0.0
  0
LINE
  8
0
 62
     250
 10
1874.3
 20
359.756
 30
0.0
 11
1872.35
 21
360.803
 31
0.0
  0
LINE
  8
0
 62
     250
 10
1872.35
 20
360.803
 30
0.0
 11
1870.38
 21
361.149
 31
0.0
  0
LINE
  8
0
 62
     250
 10
1870.38
 20
361.149
 30
0.0
 11
1868.86
 21
360.934
 31
0.0
  0
LINE
  8
0
 62
     250
 10
1868.86
 20
360.934
 30
0.0
 11
1868.39
 21
360.751
 31
0.0
  0
LINE
  8
0
 62
     250
 10
1868.39
 20
360.751
 30
0.0
 11
1868
 21
360.599
 31
0.0
  0
LINE
  8
0
 62
     250
 10
1868
 20
360.599
 30
0.0
 11
1866.88
 21
360.024
 31
0.0
  0
LINE
  8
0
 62
     250
 10
1866.88
 20
360.024
 30
0.0
 11
1864.53
 21
358.729
 31
0.0
  0
LINE
  8
0
 62
     250
 10
1864.53
 20
358.729
 30
0.0
 11
1861.61
 21
357.029
 31
0.0
  0
LINE
  8
0
 62
     250
 10
1861.61
 20
357.029
 30
0.0
 11
1858.4
 21
355.074
 31
0.0
  0
LINE
  8
0
 62
     250
 10
1858.4
 20
355.074
 30
0.0
 11
1855.16
 21
353.032
 31
0.0
  0
LINE
  8
0
 62
     250
 10
1855.16
 20
353.032
 30
0.0
 11
1852.18
 21
351.057
 31
0.0
  0
LINE
  8
0
 62
     250
 10
1852.18
 20
351.057
 30
0.0
 11
1849.72
 21
349.309
 31
0.0
  0
LINE
  8
0
 62
     250
 10
1849.72
 20
349.309
 30
0.0
 11
1848.45
 21
348.317
 31
0.0
  0
LINE
  8
0
 62
     250
 10
1848.45
 20
348.317
 30
0.0
 11
1848.06
 21
347.948
 31
0.0
  0
LINE
  8
0
 62
     250
 10
1849.25
 20
346.519
 30
0.0
 11
1849.29
 21
346.52
 31
0.0
  0
LINE
  8
0
 62
     250
 10
1849.29
 20
346.52
 30
0.0
 11
1849.78
 21
346.515
 31
0.0
  0
LINE
  8
0
 62
     250
 10
1849.78
 20
346.515
 30
0.0
 11
1849.83
 21
346.513
 31
0.0
  0
LINE
  8
0
 62
     250
 10
1849.83
 20
346.513
 30
0.0
 11
1850.71
 21
346.491
 31
0.0
  0
LINE
  8
0
 62
     250
 10
1850.71
 20
346.491
 30
0.0
 11
1853.38
 21
346.061
 31
0.0
  0
LINE
  8
0
 62
     250
 10
1853.38
 20
346.061
 30
0.0
 11
1856.68
 21
344.942
 31
0.0
  0
LINE
  8
0
 62
     250
 10
1856.68
 20
344.942
 30
0.0
 11
1859.64
 21
343.232
 31
0.0
  0
LINE
  8
0
 62
     250
 10
1859.64
 20
343.232
 30
0.0
 11
1862.2
 21
341.002
 31
0.0
  0
LINE
  8
0
 62
     250
 10
1862.2
 20
341.002
 30
0.0
 11
1864.3
 21
338.326
 31
0.0
  0
LINE
  8
0
 62
     250
 10
1864.3
 20
338.326
 30
0.0
 11
1865.85
 21
335.277
 31
0.0
  0
LINE
  8
0
 62
     250
 10
1865.85
 20
335.277
 30
0.0
 11
1866.79
 21
331.928
 31
0.0
  0
LINE
  8
0
 62
     250
 10
1866.79
 20
331.928
 30
0.0
 11
1867.08
 21
329.244
 31
0.0
  0
LINE
  8
0
 62
     250
 10
1867.08
 20
329.244
 30
0.0
 11
1867.06
 21
328.351
 31
0.0
  0
LINE
  8
0
 62
     250
 10
1867.06
 20
328.351
 30
0.0
 11
1867.04
 21
327.46
 31
0.0
  0
LINE
  8
0
 62
     250
 10
1867.04
 20
327.46
 30
0.0
 11
1866.61
 21
324.794
 31
0.0
  0
LINE
  8
0
 62
     250
 10
1866.61
 20
324.794
 30
0.0
 11
1865.49
 21
321.499
 31
0.0
  0
LINE
  8
0
 62
     250
 10
1865.49
 20
321.499
 30
0.0
 11
1863.78
 21
318.535
 31
0.0
  0
LINE
  8
0
 62
     250
 10
1863.78
 20
318.535
 30
0.0
 11
1861.55
 21
315.972
 31
0.0
  0
LINE
  8
0
 62
     250
 10
1861.55
 20
315.972
 30
0.0
 11
1858.87
 21
313.88
 31
0.0
  0
LINE
  8
0
 62
     250
 10
1858.87
 20
313.88
 30
0.0
 11
1855.82
 21
312.327
 31
0.0
  0
LINE
  8
0
 62
     250
 10
1855.82
 20
312.327
 30
0.0
 11
1852.47
 21
311.383
 31
0.0
  0
LINE
  8
0
 62
     250
 10
1852.47
 20
311.383
 30
0.0
 11
1849.79
 21
311.094
 31
0.0
  0
LINE
  8
0
 62
     250
 10
1849.79
 20
311.094
 30
0.0
 11
1848.9
 21
311.115
 31
0.0
  0
LINE
  8
0
 62
     250
 10
1848.9
 20
311.115
 30
0.0
 11
1848.78
 21
311.118
 31
0.0
  0
LINE
  8
0
 62
     250
 10
1848.78
 20
311.118
 30
0.0
 11
1847.67
 21
311.19
 31
0.0
  0
LINE
  8
0
 62
     250
 10
1847.67
 20
311.19
 30
0.0
 11
1847.56
 21
311.201
 31
0.0
  0
LINE
  8
0
 62
     250
 10
1856.61
 20
329.667
 30
0.0
 11
1856.59
 21
329.056
 31
0.0
  0
LINE
  8
0
 62
     250
 10
1856.59
 20
329.056
 30
0.0
 11
1856.36
 21
327.226
 31
0.0
  0
LINE
  8
0
 62
     250
 10
1856.36
 20
327.226
 30
0.0
 11
1855.8
 21
324.749
 31
0.0
  0
LINE
  8
0
 62
     250
 10
1855.8
 20
324.749
 30
0.0
 11
1855.01
 21
322.315
 31
0.0
  0
LINE
  8
0
 62
     250
 10
1855.01
 20
322.315
 30
0.0
 11
1854.08
 21
320.009
 31
0.0
  0
LINE
  8
0
 62
     250
 10
1854.08
 20
320.009
 30
0.0
 11
1853.07
 21
317.915
 31
0.0
  0
LINE
  8
0
 62
     250
 10
1853.07
 20
317.915
 30
0.0
 11
1852.09
 21
316.111
 31
0.0
  0
LINE
  8
0
 62
     250
 10
1852.09
 20
316.111
 30
0.0
 11
1851.2
 21
314.683
 31
0.0
  0
LINE
  8
0
 62
     250
 10
1851.2
 20
314.683
 30
0.0
 11
1850.68
 21
313.945
 31
0.0
  0
LINE
  8
0
 62
     250
 10
1850.68
 20
313.945
 30
0.0
 11
1850.49
 21
313.713
 31
0.0
  0
LINE
  8
0
 62
     250
 10
1850.49
 20
313.713
 30
0.0
 11
1850.15
 21
313.303
 31
0.0
  0
LINE
  8
0
 62
     250
 10
1850.15
 20
313.303
 30
0.0
 11
1848.92
 21
312.24
 31
0.0
  0
LINE
  8
0
 62
     250
 10
1848.92
 20
312.24
 30
0.0
 11
1846.7
 21
310.862
 31
0.0
  0
LINE
  8
0
 62
     250
 10
1846.7
 20
310.862
 30
0.0
 11
1844.03
 21
309.859
 31
0.0
  0
LINE
  8
0
 62
     250
 10
1844.03
 20
309.859
 30
0.0
 11
1841.81
 21
309.497
 31
0.0
  0
LINE
  8
0
 62
     250
 10
1841.81
 20
309.497
 30
0.0
 11
1841.08
 21
309.514
 31
0.0
  0
LINE
  8
0
 62
     250
 10
1841.08
 20
309.514
 30
0.0
 11
1840.41
 21
309.532
 31
0.0
  0
LINE
  8
0
 62
     250
 10
1840.41
 20
309.532
 30
0.0
 11
1838.43
 21
309.585
 31
0.0
  0
LINE
  8
0
 62
     250
 10
1838.43
 20
309.585
 30
0.0
 11
1833.93
 21
309.703
 31
0.0
  0
LINE
  8
0
 62
     250
 10
1833.93
 20
309.703
 30
0.0
 11
1828.23
 21
309.852
 31
0.0
  0
LINE
  8
0
 62
     250
 10
1828.23
 20
309.852
 30
0.0
 11
1821.97
 21
310.016
 31
0.0
  0
LINE
  8
0
 62
     250
 10
1821.97
 20
310.016
 30
0.0
 11
1815.82
 21
310.177
 31
0.0
  0
LINE
  8
0
 62
     250
 10
1815.82
 20
310.177
 30
0.0
 11
1810.41
 21
310.318
 31
0.0
  0
LINE
  8
0
 62
     250
 10
1810.41
 20
310.318
 30
0.0
 11
1806.4
 21
310.423
 31
0.0
  0
LINE
  8
0
 62
     250
 10
1806.4
 20
310.423
 30
0.0
 11
1804.92
 21
310.461
 31
0.0
  0
LINE
  8
0
 62
     250
 10
1804.92
 20
310.461
 30
0.0
 11
1804.43
 21
310.473
 31
0.0
  0
LINE
  8
0
 62
     250
 10
1804.43
 20
310.473
 30
0.0
 11
1804.21
 21
310.479
 31
0.0
  0
LINE
  8
0
 62
     250
 10
1804.21
 20
310.479
 30
0.0
 11
1803.55
 21
310.727
 31
0.0
  0
LINE
  8
0
 62
     250
 10
1803.55
 20
310.727
 30
0.0
 11
1802.44
 21
311.405
 31
0.0
  0
LINE
  8
0
 62
     250
 10
1802.44
 20
311.405
 30
0.0
 11
1801.21
 21
312.441
 31
0.0
  0
LINE
  8
0
 62
     250
 10
1801.21
 20
312.441
 30
0.0
 11
1799.97
 21
313.768
 31
0.0
  0
LINE
  8
0
 62
     250
 10
1799.97
 20
313.768
 30
0.0
 11
1798.82
 21
315.321
 31
0.0
  0
LINE
  8
0
 62
     250
 10
1798.82
 20
315.321
 30
0.0
 11
1797.88
 21
317.034
 31
0.0
  0
LINE
  8
0
 62
     250
 10
1797.88
 20
317.034
 30
0.0
 11
1797.26
 21
318.838
 31
0.0
  0
LINE
  8
0
 62
     250
 10
1797.26
 20
318.838
 30
0.0
 11
1797.05
 21
320.213
 31
0.0
  0
LINE
  8
0
 62
     250
 10
1797.05
 20
320.213
 30
0.0
 11
1797.06
 21
320.668
 31
0.0
  0
LINE
  8
0
 62
     250
 10
1797.06
 20
320.668
 30
0.0
 11
1797.07
 21
321.195
 31
0.0
  0
LINE
  8
0
 62
     250
 10
1797.07
 20
321.195
 30
0.0
 11
1797.11
 21
322.774
 31
0.0
  0
LINE
  8
0
 62
     250
 10
1797.11
 20
322.774
 30
0.0
 11
1797.18
 21
325.323
 31
0.0
  0
LINE
  8
0
 62
     250
 10
1797.18
 20
325.323
 30
0.0
 11
1797.25
 21
328.141
 31
0.0
  0
LINE
  8
0
 62
     250
 10
1797.25
 20
328.141
 30
0.0
 11
1797.33
 21
331.046
 31
0.0
  0
LINE
  8
0
 62
     250
 10
1797.33
 20
331.046
 30
0.0
 11
1797.4
 21
333.859
 31
0.0
  0
LINE
  8
0
 62
     250
 10
1797.4
 20
333.859
 30
0.0
 11
1797.47
 21
336.403
 31
0.0
  0
LINE
  8
0
 62
     250
 10
1797.47
 20
336.403
 30
0.0
 11
1797.52
 21
338.497
 31
0.0
  0
LINE
  8
0
 62
     250
 10
1797.52
 20
338.497
 30
0.0
 11
1797.55
 21
339.597
 31
0.0
  0
LINE
  8
0
 62
     250
 10
1797.55
 20
339.597
 30
0.0
 11
1797.57
 21
339.963
 31
0.0
  0
LINE
  8
0
 62
     250
 10
1797.57
 20
339.963
 30
0.0
 11
1797.57
 21
340.28
 31
0.0
  0
LINE
  8
0
 62
     250
 10
1797.57
 20
340.28
 30
0.0
 11
1797.72
 21
341.227
 31
0.0
  0
LINE
  8
0
 62
     250
 10
1797.72
 20
341.227
 30
0.0
 11
1798.12
 21
342.743
 31
0.0
  0
LINE
  8
0
 62
     250
 10
1798.12
 20
342.743
 30
0.0
 11
1798.79
 21
344.378
 31
0.0
  0
LINE
  8
0
 62
     250
 10
1798.79
 20
344.378
 30
0.0
 11
1799.72
 21
346.002
 31
0.0
  0
LINE
  8
0
 62
     250
 10
1799.72
 20
346.002
 30
0.0
 11
1800.93
 21
347.482
 31
0.0
  0
LINE
  8
0
 62
     250
 10
1800.93
 20
347.482
 30
0.0
 11
1802.42
 21
348.685
 31
0.0
  0
LINE
  8
0
 62
     250
 10
1802.42
 20
348.685
 30
0.0
 11
1804.21
 21
349.481
 31
0.0
  0
LINE
  8
0
 62
     250
 10
1804.21
 20
349.481
 30
0.0
 11
1805.77
 21
349.75
 31
0.0
  0
LINE
  8
0
 62
     250
 10
1805.77
 20
349.75
 30
0.0
 11
1806.29
 21
349.736
 31
0.0
  0
LINE
  8
0
 62
     250
 10
1806.29
 20
349.736
 30
0.0
 11
1807.1
 21
349.716
 31
0.0
  0
LINE
  8
0
 62
     250
 10
1807.1
 20
349.716
 30
0.0
 11
1809.52
 21
349.653
 31
0.0
  0
LINE
  8
0
 62
     250
 10
1809.52
 20
349.653
 30
0.0
 11
1814.33
 21
349.527
 31
0.0
  0
LINE
  8
0
 62
     250
 10
1814.33
 20
349.527
 30
0.0
 11
1820.15
 21
349.374
 31
0.0
  0
LINE
  8
0
 62
     250
 10
1820.15
 20
349.374
 30
0.0
 11
1826.42
 21
349.21
 31
0.0
  0
LINE
  8
0
 62
     250
 10
1826.42
 20
349.21
 30
0.0
 11
1832.56
 21
349.049
 31
0.0
  0
LINE
  8
0
 62
     250
 10
1832.56
 20
349.049
 30
0.0
 11
1837.99
 21
348.907
 31
0.0
  0
LINE
  8
0
 62
     250
 10
1837.99
 20
348.907
 30
0.0
 11
1842.15
 21
348.798
 31
0.0
  0
LINE
  8
0
 62
     250
 10
1842.15
 20
348.798
 30
0.0
 11
1843.89
 21
348.751
 31
0.0
  0
LINE
  8
0
 62
     250
 10
1843.89
 20
348.751
 30
0.0
 11
1844.47
 21
348.736
 31
0.0
  0
LINE
  8
0
 62
     250
 10
1844.47
 20
348.736
 30
0.0
 11
1845.03
 21
348.722
 31
0.0
  0
LINE
  8
0
 62
     250
 10
1845.03
 20
348.722
 30
0.0
 11
1846.74
 21
348.222
 31
0.0
  0
LINE
  8
0
 62
     250
 10
1846.74
 20
348.222
 30
0.0
 11
1848.72
 21
346.958
 31
0.0
  0
LINE
  8
0
 62
     250
 10
1848.72
 20
346.958
 30
0.0
 11
1850.39
 21
345.184
 31
0.0
  0
LINE
  8
0
 62
     250
 10
1850.39
 20
345.184
 30
0.0
 11
1851.4
 21
343.668
 31
0.0
  0
LINE
  8
0
 62
     250
 10
1851.4
 20
343.668
 30
0.0
 11
1851.68
 21
343.13
 31
0.0
  0
LINE
  8
0
 62
     250
 10
1851.68
 20
343.13
 30
0.0
 11
1852.02
 21
342.477
 31
0.0
  0
LINE
  8
0
 62
     250
 10
1852.02
 20
342.477
 30
0.0
 11
1853.08
 21
340.542
 31
0.0
  0
LINE
  8
0
 62
     250
 10
1853.08
 20
340.542
 30
0.0
 11
1854.74
 21
337.217
 31
0.0
  0
LINE
  8
0
 62
     250
 10
1854.74
 20
337.217
 30
0.0
 11
1856.1
 21
333.483
 31
0.0
  0
LINE
  8
0
 62
     250
 10
1856.1
 20
333.483
 30
0.0
 11
1856.63
 21
330.618
 31
0.0
  0
LINE
  8
0
 62
     250
 10
1856.63
 20
330.618
 30
0.0
 11
1856.61
 21
329.667
 31
0.0
  0
LINE
  8
0
 62
     250
 10
1423.89
 20
190.444
 30
0.0
 11
1423.28
 21
191.004
 31
0.0
  0
LINE
  8
0
 62
     250
 10
1423.28
 20
191.004
 30
0.0
 11
1421.48
 21
192.717
 31
0.0
  0
LINE
  8
0
 62
     250
 10
1421.48
 20
192.717
 30
0.0
 11
1418.7
 21
195.501
 31
0.0
  0
LINE
  8
0
 62
     250
 10
1418.7
 20
195.501
 30
0.0
 11
1415.66
 21
198.738
 31
0.0
  0
LINE
  8
0
 62
     250
 10
1415.66
 20
198.738
 30
0.0
 11
1412.5
 21
202.376
 31
0.0
  0
LINE
  8
0
 62
     250
 10
1412.5
 20
202.376
 30
0.0
 11
1409.34
 21
206.358
 31
0.0
  0
LINE
  8
0
 62
     250
 10
1409.34
 20
206.358
 30
0.0
 11
1406.31
 21
210.632
 31
0.0
  0
LINE
  8
0
 62
     250
 10
1406.31
 20
210.632
 30
0.0
 11
1403.54
 21
215.139
 31
0.0
  0
LINE
  8
0
 62
     250
 10
1403.54
 20
215.139
 30
0.0
 11
1401.7
 21
218.633
 31
0.0
  0
LINE
  8
0
 62
     250
 10
1401.7
 20
218.633
 30
0.0
 11
1401.16
 21
219.829
 31
0.0
  0
LINE
  8
0
 62
     250
 10
1401.16
 20
219.829
 30
0.0
 11
1400.36
 21
221.607
 31
0.0
  0
LINE
  8
0
 62
     250
 10
1400.36
 20
221.607
 30
0.0
 11
1398.18
 21
227.043
 31
0.0
  0
LINE
  8
0
 62
     250
 10
1398.18
 20
227.043
 30
0.0
 11
1395.25
 21
235.29
 31
0.0
  0
LINE
  8
0
 62
     250
 10
1395.25
 20
235.29
 30
0.0
 11
1392.46
 21
244.283
 31
0.0
  0
LINE
  8
0
 62
     250
 10
1392.46
 20
244.283
 30
0.0
 11
1389.88
 21
253.728
 31
0.0
  0
LINE
  8
0
 62
     250
 10
1389.88
 20
253.728
 30
0.0
 11
1387.6
 21
263.335
 31
0.0
  0
LINE
  8
0
 62
     250
 10
1387.6
 20
263.335
 30
0.0
 11
1385.7
 21
272.813
 31
0.0
  0
LINE
  8
0
 62
     250
 10
1385.7
 20
272.813
 30
0.0
 11
1384.28
 21
281.869
 31
0.0
  0
LINE
  8
0
 62
     250
 10
1384.28
 20
281.869
 30
0.0
 11
1383.55
 21
288.124
 31
0.0
  0
LINE
  8
0
 62
     250
 10
1383.55
 20
288.124
 30
0.0
 11
1383.39
 21
290.215
 31
0.0
  0
LINE
  8
0
 62
     250
 10
1383.39
 20
290.215
 30
0.0
 11
1383.31
 21
291.276
 31
0.0
  0
LINE
  8
0
 62
     250
 10
1383.31
 20
291.276
 30
0.0
 11
1383.14
 21
294.463
 31
0.0
  0
LINE
  8
0
 62
     250
 10
1383.14
 20
294.463
 30
0.0
 11
1382.96
 21
299.263
 31
0.0
  0
LINE
  8
0
 62
     250
 10
1382.96
 20
299.263
 30
0.0
 11
1382.85
 21
304.534
 31
0.0
  0
LINE
  8
0
 62
     250
 10
1382.85
 20
304.534
 30
0.0
 11
1382.8
 21
310.195
 31
0.0
  0
LINE
  8
0
 62
     250
 10
1382.8
 20
310.195
 30
0.0
 11
1382.81
 21
316.168
 31
0.0
  0
LINE
  8
0
 62
     250
 10
1382.81
 20
316.168
 30
0.0
 11
1382.88
 21
322.373
 31
0.0
  0
LINE
  8
0
 62
     250
 10
1382.88
 20
322.373
 30
0.0
 11
1383.01
 21
328.728
 31
0.0
  0
LINE
  8
0
 62
     250
 10
1383.01
 20
328.728
 30
0.0
 11
1383.17
 21
335.155
 31
0.0
  0
LINE
  8
0
 62
     250
 10
1383.17
 20
335.155
 30
0.0
 11
1383.39
 21
341.576
 31
0.0
  0
LINE
  8
0
 62
     250
 10
1383.39
 20
341.576
 30
0.0
 11
1383.65
 21
347.908
 31
0.0
  0
LINE
  8
0
 62
     250
 10
1383.65
 20
347.908
 30
0.0
 11
1383.94
 21
354.072
 31
0.0
  0
LINE
  8
0
 62
     250
 10
1383.94
 20
354.072
 30
0.0
 11
1384.26
 21
359.989
 31
0.0
  0
LINE
  8
0
 62
     250
 10
1384.26
 20
359.989
 30
0.0
 11
1384.62
 21
365.577
 31
0.0
  0
LINE
  8
0
 62
     250
 10
1384.62
 20
365.577
 30
0.0
 11
1384.99
 21
370.755
 31
0.0
  0
LINE
  8
0
 62
     250
 10
1384.99
 20
370.755
 30
0.0
 11
1385.39
 21
375.451
 31
0.0
  0
LINE
  8
0
 62
     250
 10
1385.39
 20
375.451
 30
0.0
 11
1385.69
 21
378.548
 31
0.0
  0
LINE
  8
0
 62
     250
 10
1385.69
 20
378.548
 30
0.0
 11
1385.81
 21
379.578
 31
0.0
  0
LINE
  8
0
 62
     250
 10
1385.81
 20
379.578
 30
0.0
 11
1386.02
 21
381.543
 31
0.0
  0
LINE
  8
0
 62
     250
 10
1386.02
 20
381.543
 30
0.0
 11
1386.9
 21
387.421
 31
0.0
  0
LINE
  8
0
 62
     250
 10
1386.9
 20
387.421
 30
0.0
 11
1388.45
 21
395.524
 31
0.0
  0
LINE
  8
0
 62
     250
 10
1388.45
 20
395.524
 30
0.0
 11
1390.4
 21
403.68
 31
0.0
  0
LINE
  8
0
 62
     250
 10
1390.4
 20
403.68
 30
0.0
 11
1392.71
 21
411.667
 31
0.0
  0
LINE
  8
0
 62
     250
 10
1392.71
 20
411.667
 30
0.0
 11
1395.3
 21
419.262
 31
0.0
  0
LINE
  8
0
 62
     250
 10
1395.3
 20
419.262
 30
0.0
 11
1398.13
 21
426.254
 31
0.0
  0
LINE
  8
0
 62
     250
 10
1398.13
 20
426.254
 30
0.0
 11
1401.14
 21
432.421
 31
0.0
  0
LINE
  8
0
 62
     250
 10
1401.14
 20
432.421
 30
0.0
 11
1403.41
 21
436.316
 31
0.0
  0
LINE
  8
0
 62
     250
 10
1403.41
 20
436.316
 30
0.0
 11
1404.26
 21
437.543
 31
0.0
  0
LINE
  8
0
 62
     250
 10
1404.26
 20
437.543
 30
0.0
 11
1405.61
 21
439.462
 31
0.0
  0
LINE
  8
0
 62
     250
 10
1405.61
 20
439.462
 30
0.0
 11
1409.93
 21
445.026
 31
0.0
  0
LINE
  8
0
 62
     250
 10
1409.93
 20
445.026
 30
0.0
 11
1415.86
 21
451.862
 31
0.0
  0
LINE
  8
0
 62
     250
 10
1415.86
 20
451.862
 30
0.0
 11
1421.62
 21
457.736
 31
0.0
  0
LINE
  8
0
 62
     250
 10
1421.62
 20
457.736
 30
0.0
 11
1425.43
 21
461.239
 31
0.0
  0
LINE
  8
0
 62
     250
 10
1425.43
 20
461.239
 30
0.0
 11
1426.77
 21
462.329
 31
0.0
  0
LINE
  8
0
 62
     250
 10
1798.42
 20
315.403
 30
0.0
 11
1798.42
 21
315.403
 31
0.0
  0
LINE
  8
0
 62
     250
 10
1798.42
 20
315.403
 30
0.0
 11
1797.57
 21
315.681
 31
0.0
  0
LINE
  8
0
 62
     250
 10
1797.57
 20
315.681
 30
0.0
 11
1795.53
 21
316.444
 31
0.0
  0
LINE
  8
0
 62
     250
 10
1795.53
 20
316.444
 30
0.0
 11
1793.06
 21
317.591
 31
0.0
  0
LINE
  8
0
 62
     250
 10
1793.06
 20
317.591
 30
0.0
 11
1791.4
 21
318.593
 31
0.0
  0
LINE
  8
0
 62
     250
 10
1791.4
 20
318.593
 30
0.0
 11
1790.92
 21
319.013
 31
0.0
  0
LINE
  8
0
 62
     250
 10
1790.92
 20
319.013
 30
0.0
 11
1790.48
 21
319.398
 31
0.0
  0
LINE
  8
0
 62
     250
 10
1790.48
 20
319.398
 30
0.0
 11
1789.43
 21
320.853
 31
0.0
  0
LINE
  8
0
 62
     250
 10
1789.43
 20
320.853
 30
0.0
 11
1788.43
 21
323.237
 31
0.0
  0
LINE
  8
0
 62
     250
 10
1788.43
 20
323.237
 30
0.0
 11
1787.86
 21
326.056
 31
0.0
  0
LINE
  8
0
 62
     250
 10
1787.86
 20
326.056
 30
0.0
 11
1787.68
 21
328.413
 31
0.0
  0
LINE
  8
0
 62
     250
 10
1787.68
 20
328.413
 30
0.0
 11
1787.68
 21
329.197
 31
0.0
  0
LINE
  8
0
 62
     250
 10
1787.68
 20
329.197
 30
0.0
 11
1787.68
 21
329.955
 31
0.0
  0
LINE
  8
0
 62
     250
 10
1787.68
 20
329.955
 30
0.0
 11
1787.95
 21
332.226
 31
0.0
  0
LINE
  8
0
 62
     250
 10
1787.95
 20
332.226
 30
0.0
 11
1788.66
 21
334.752
 31
0.0
  0
LINE
  8
0
 62
     250
 10
1788.66
 20
334.752
 30
0.0
 11
1789.67
 21
336.722
 31
0.0
  0
LINE
  8
0
 62
     250
 10
1789.67
 20
336.722
 30
0.0
 11
1790.49
 21
337.792
 31
0.0
  0
LINE
  8
0
 62
     250
 10
1790.49
 20
337.792
 30
0.0
 11
1790.83
 21
338.084
 31
0.0
  0
LINE
  8
0
 62
     250
 10
1790.83
 20
338.084
 30
0.0
 11
1791.15
 21
338.369
 31
0.0
  0
LINE
  8
0
 62
     250
 10
1791.15
 20
338.369
 30
0.0
 11
1792.21
 21
339.123
 31
0.0
  0
LINE
  8
0
 62
     250
 10
1792.21
 20
339.123
 30
0.0
 11
1793.9
 21
340.074
 31
0.0
  0
LINE
  8
0
 62
     250
 10
1793.9
 20
340.074
 30
0.0
 11
1795.77
 21
340.818
 31
0.0
  0
LINE
  8
0
 62
     250
 10
1795.77
 20
340.818
 30
0.0
 11
1797.19
 21
341.179
 31
0.0
  0
LINE
  8
0
 62
     250
 10
1797.19
 20
341.179
 30
0.0
 11
1797.67
 21
341.231
 31
0.0
  0
LINE
  8
0
 62
     250
 10
1597.69
 20
328.887
 30
0.0
 11
1597.69
 21
327.671
 31
0.0
  0
LINE
  8
0
 62
     250
 10
1597.69
 20
327.671
 30
0.0
 11
1597.19
 21
324.022
 31
0.0
  0
LINE
  8
0
 62
     250
 10
1597.19
 20
324.022
 30
0.0
 11
1595.78
 21
319.491
 31
0.0
  0
LINE
  8
0
 62
     250
 10
1595.78
 20
319.491
 30
0.0
 11
1593.53
 21
315.39
 31
0.0
  0
LINE
  8
0
 62
     250
 10
1593.53
 20
315.39
 30
0.0
 11
1590.56
 21
311.817
 31
0.0
  0
LINE
  8
0
 62
     250
 10
1590.56
 20
311.817
 30
0.0
 11
1586.96
 21
308.869
 31
0.0
  0
LINE
  8
0
 62
     250
 10
1586.96
 20
308.869
 30
0.0
 11
1582.83
 21
306.643
 31
0.0
  0
LINE
  8
0
 62
     250
 10
1582.83
 20
306.643
 30
0.0
 11
1578.26
 21
305.235
 31
0.0
  0
LINE
  8
0
 62
     250
 10
1578.26
 20
305.235
 30
0.0
 11
1574.59
 21
304.745
 31
0.0
  0
LINE
  8
0
 62
     250
 10
1574.59
 20
304.745
 30
0.0
 11
1573.36
 21
304.745
 31
0.0
  0
LINE
  8
0
 62
     250
 10
1573.36
 20
304.745
 30
0.0
 11
1572.14
 21
304.745
 31
0.0
  0
LINE
  8
0
 62
     250
 10
1572.14
 20
304.745
 30
0.0
 11
1568.46
 21
305.235
 31
0.0
  0
LINE
  8
0
 62
     250
 10
1568.46
 20
305.235
 30
0.0
 11
1563.9
 21
306.643
 31
0.0
  0
LINE
  8
0
 62
     250
 10
1563.9
 20
306.643
 30
0.0
 11
1559.76
 21
308.869
 31
0.0
  0
LINE
  8
0
 62
     250
 10
1559.76
 20
308.869
 30
0.0
 11
1556.17
 21
311.817
 31
0.0
  0
LINE
  8
0
 62
     250
 10
1556.17
 20
311.817
 30
0.0
 11
1553.2
 21
315.39
 31
0.0
  0
LINE
  8
0
 62
     250
 10
1553.2
 20
315.39
 30
0.0
 11
1550.96
 21
319.491
 31
0.0
  0
LINE
  8
0
 62
     250
 10
1550.96
 20
319.491
 30
0.0
 11
1549.54
 21
324.022
 31
0.0
  0
LINE
  8
0
 62
     250
 10
1549.54
 20
324.022
 30
0.0
 11
1549.04
 21
327.671
 31
0.0
  0
LINE
  8
0
 62
     250
 10
1549.04
 20
327.671
 30
0.0
 11
1549.04
 21
328.887
 31
0.0
  0
LINE
  8
0
 62
     250
 10
1549.04
 20
328.887
 30
0.0
 11
1549.04
 21
330.104
 31
0.0
  0
LINE
  8
0
 62
     250
 10
1549.04
 20
330.104
 30
0.0
 11
1549.54
 21
333.752
 31
0.0
  0
LINE
  8
0
 62
     250
 10
1549.54
 20
333.752
 30
0.0
 11
1550.96
 21
338.285
 31
0.0
  0
LINE
  8
0
 62
     250
 10
1550.96
 20
338.285
 30
0.0
 11
1553.2
 21
342.386
 31
0.0
  0
LINE
  8
0
 62
     250
 10
1553.2
 20
342.386
 30
0.0
 11
1556.17
 21
345.958
 31
0.0
  0
LINE
  8
0
 62
     250
 10
1556.17
 20
345.958
 30
0.0
 11
1559.76
 21
348.907
 31
0.0
  0
LINE
  8
0
 62
     250
 10
1559.76
 20
348.907
 30
0.0
 11
1563.9
 21
351.132
 31
0.0
  0
LINE
  8
0
 62
     250
 10
1563.9
 20
351.132
 30
0.0
 11
1568.46
 21
352.539
 31
0.0
  0
LINE
  8
0
 62
     250
 10
1568.46
 20
352.539
 30
0.0
 11
1572.14
 21
353.028
 31
0.0
  0
LINE
  8
0
 62
     250
 10
1572.14
 20
353.028
 30
0.0
 11
1573.36
 21
353.028
 31
0.0
  0
LINE
  8
0
 62
     250
 10
1573.36
 20
353.028
 30
0.0
 11
1574.59
 21
353.028
 31
0.0
  0
LINE
  8
0
 62
     250
 10
1574.59
 20
353.028
 30
0.0
 11
1578.26
 21
352.539
 31
0.0
  0
LINE
  8
0
 62
     250
 10
1578.26
 20
352.539
 30
0.0
 11
1582.83
 21
351.132
 31
0.0
  0
LINE
  8
0
 62
     250
 10
1582.83
 20
351.132
 30
0.0
 11
1586.96
 21
348.907
 31
0.0
  0
LINE
  8
0
 62
     250
 10
1586.96
 20
348.907
 30
0.0
 11
1590.56
 21
345.958
 31
0.0
  0
LINE
  8
0
 62
     250
 10
1590.56
 20
345.958
 30
0.0
 11
1593.53
 21
342.386
 31
0.0
  0
LINE
  8
0
 62
     250
 10
1593.53
 20
342.386
 30
0.0
 11
1595.78
 21
338.285
 31
0.0
  0
LINE
  8
0
 62
     250
 10
1595.78
 20
338.285
 30
0.0
 11
1597.19
 21
333.752
 31
0.0
  0
LINE
  8
0
 62
     250
 10
1597.19
 20
333.752
 30
0.0
 11
1597.69
 21
330.104
 31
0.0
  0
LINE
  8
0
 62
     250
 10
1597.69
 20
330.104
 30
0.0
 11
1597.69
 21
328.887
 31
0.0
  0
LINE
  8
0
 62
     250
 10
1193.93
 20
554.955
 30
0.0
 11
1195.15
 21
554.189
 31
0.0
  0
LINE
  8
0
 62
     250
 10
1195.15
 20
554.189
 30
0.0
 11
1198.57
 21
551.55
 31
0.0
  0
LINE
  8
0
 62
     250
 10
1198.57
 20
551.55
 30
0.0
 11
1203.17
 21
546.971
 31
0.0
  0
LINE
  8
0
 62
     250
 10
1203.17
 20
546.971
 30
0.0
 11
1207.47
 21
541.052
 31
0.0
  0
LINE
  8
0
 62
     250
 10
1207.47
 20
541.052
 30
0.0
 11
1210.44
 21
535.534
 31
0.0
  0
LINE
  8
0
 62
     250
 10
1210.44
 20
535.534
 30
0.0
 11
1211.23
 21
533.612
 31
0.0
  0
LINE
  8
0
 62
     250
 10
1211.23
 20
533.612
 30
0.0
 11
1211.5
 21
532.941
 31
0.0
  0
LINE
  8
0
 62
     250
 10
1211.5
 20
532.941
 30
0.0
 11
1212.19
 21
530.867
 31
0.0
  0
LINE
  8
0
 62
     250
 10
1212.19
 20
530.867
 30
0.0
 11
1213.13
 21
527.427
 31
0.0
  0
LINE
  8
0
 62
     250
 10
1213.13
 20
527.427
 30
0.0
 11
1214.03
 21
523.342
 31
0.0
  0
LINE
  8
0
 62
     250
 10
1214.03
 20
523.342
 30
0.0
 11
1214.9
 21
518.654
 31
0.0
  0
LINE
  8
0
 62
     250
 10
1214.9
 20
518.654
 30
0.0
 11
1215.74
 21
513.408
 31
0.0
  0
LINE
  8
0
 62
     250
 10
1215.74
 20
513.408
 30
0.0
 11
1216.54
 21
507.651
 31
0.0
  0
LINE
  8
0
 62
     250
 10
1216.54
 20
507.651
 30
0.0
 11
1217.31
 21
501.431
 31
0.0
  0
LINE
  8
0
 62
     250
 10
1217.31
 20
501.431
 30
0.0
 11
1218.06
 21
494.792
 31
0.0
  0
LINE
  8
0
 62
     250
 10
1218.06
 20
494.792
 30
0.0
 11
1218.77
 21
487.782
 31
0.0
  0
LINE
  8
0
 62
     250
 10
1218.77
 20
487.782
 30
0.0
 11
1219.45
 21
480.445
 31
0.0
  0
LINE
  8
0
 62
     250
 10
1219.45
 20
480.445
 30
0.0
 11
1220.09
 21
472.825
 31
0.0
  0
LINE
  8
0
 62
     250
 10
1220.09
 20
472.825
 30
0.0
 11
1220.71
 21
464.972
 31
0.0
  0
LINE
  8
0
 62
     250
 10
1220.71
 20
464.972
 30
0.0
 11
1221.3
 21
456.928
 31
0.0
  0
LINE
  8
0
 62
     250
 10
1221.3
 20
456.928
 30
0.0
 11
1221.85
 21
448.74
 31
0.0
  0
LINE
  8
0
 62
     250
 10
1221.85
 20
448.74
 30
0.0
 11
1222.37
 21
440.457
 31
0.0
  0
LINE
  8
0
 62
     250
 10
1222.37
 20
440.457
 30
0.0
 11
1222.87
 21
432.121
 31
0.0
  0
LINE
  8
0
 62
     250
 10
1222.87
 20
432.121
 30
0.0
 11
1223.33
 21
423.778
 31
0.0
  0
LINE
  8
0
 62
     250
 10
1223.33
 20
423.778
 30
0.0
 11
1223.76
 21
415.477
 31
0.0
  0
LINE
  8
0
 62
     250
 10
1223.76
 20
415.477
 30
0.0
 11
1224.16
 21
407.261
 31
0.0
  0
LINE
  8
0
 62
     250
 10
1224.16
 20
407.261
 30
0.0
 11
1224.53
 21
399.179
 31
0.0
  0
LINE
  8
0
 62
     250
 10
1224.53
 20
399.179
 30
0.0
 11
1224.87
 21
391.273
 31
0.0
  0
LINE
  8
0
 62
     250
 10
1224.87
 20
391.273
 30
0.0
 11
1225.18
 21
383.589
 31
0.0
  0
LINE
  8
0
 62
     250
 10
1225.18
 20
383.589
 30
0.0
 11
1225.46
 21
376.178
 31
0.0
  0
LINE
  8
0
 62
     250
 10
1225.46
 20
376.178
 30
0.0
 11
1225.71
 21
369.08
 31
0.0
  0
LINE
  8
0
 62
     250
 10
1225.71
 20
369.08
 30
0.0
 11
1225.93
 21
362.345
 31
0.0
  0
LINE
  8
0
 62
     250
 10
1225.93
 20
362.345
 30
0.0
 11
1226.12
 21
356.016
 31
0.0
  0
LINE
  8
0
 62
     250
 10
1226.12
 20
356.016
 30
0.0
 11
1226.28
 21
350.139
 31
0.0
  0
LINE
  8
0
 62
     250
 10
1226.28
 20
350.139
 30
0.0
 11
1226.41
 21
344.763
 31
0.0
  0
LINE
  8
0
 62
     250
 10
1226.41
 20
344.763
 30
0.0
 11
1226.52
 21
339.93
 31
0.0
  0
LINE
  8
0
 62
     250
 10
1226.52
 20
339.93
 30
0.0
 11
1226.59
 21
335.689
 31
0.0
  0
LINE
  8
0
 62
     250
 10
1226.59
 20
335.689
 30
0.0
 11
1226.63
 21
332.084
 31
0.0
  0
LINE
  8
0
 62
     250
 10
1226.63
 20
332.084
 30
0.0
 11
1226.65
 21
329.893
 31
0.0
  0
LINE
  8
0
 62
     250
 10
1226.65
 20
329.893
 30
0.0
 11
1226.65
 21
329.161
 31
0.0
  0
LINE
  8
0
 62
     250
 10
1193.93
 20
103.367
 30
0.0
 11
1195.15
 21
104.132
 31
0.0
  0
LINE
  8
0
 62
     250
 10
1195.15
 20
104.132
 30
0.0
 11
1198.57
 21
106.773
 31
0.0
  0
LINE
  8
0
 62
     250
 10
1198.57
 20
106.773
 30
0.0
 11
1203.17
 21
111.35
 31
0.0
  0
LINE
  8
0
 62
     250
 10
1203.17
 20
111.35
 30
0.0
 11
1207.47
 21
117.271
 31
0.0
  0
LINE
  8
0
 62
     250
 10
1207.47
 20
117.271
 30
0.0
 11
1210.44
 21
122.789
 31
0.0
  0
LINE
  8
0
 62
     250
 10
1210.44
 20
122.789
 30
0.0
 11
1211.23
 21
124.708
 31
0.0
  0
LINE
  8
0
 62
     250
 10
1211.23
 20
124.708
 30
0.0
 11
1211.5
 21
125.381
 31
0.0
  0
LINE
  8
0
 62
     250
 10
1211.5
 20
125.381
 30
0.0
 11
1212.19
 21
127.455
 31
0.0
  0
LINE
  8
0
 62
     250
 10
1212.19
 20
127.455
 30
0.0
 11
1213.13
 21
130.893
 31
0.0
  0
LINE
  8
0
 62
     250
 10
1213.13
 20
130.893
 30
0.0
 11
1214.03
 21
134.98
 31
0.0
  0
LINE
  8
0
 62
     250
 10
1214.03
 20
134.98
 30
0.0
 11
1214.9
 21
139.67
 31
0.0
  0
LINE
  8
0
 62
     250
 10
1214.9
 20
139.67
 30
0.0
 11
1215.74
 21
144.914
 31
0.0
  0
LINE
  8
0
 62
     250
 10
1215.74
 20
144.914
 30
0.0
 11
1216.54
 21
150.671
 31
0.0
  0
LINE
  8
0
 62
     250
 10
1216.54
 20
150.671
 30
0.0
 11
1217.31
 21
156.89
 31
0.0
  0
LINE
  8
0
 62
     250
 10
1217.31
 20
156.89
 30
0.0
 11
1218.06
 21
163.529
 31
0.0
  0
LINE
  8
0
 62
     250
 10
1218.06
 20
163.529
 30
0.0
 11
1218.77
 21
170.541
 31
0.0
  0
LINE
  8
0
 62
     250
 10
1218.77
 20
170.541
 30
0.0
 11
1219.45
 21
177.879
 31
0.0
  0
LINE
  8
0
 62
     250
 10
1219.45
 20
177.879
 30
0.0
 11
1220.09
 21
185.498
 31
0.0
  0
LINE
  8
0
 62
     250
 10
1220.09
 20
185.498
 30
0.0
 11
1220.71
 21
193.353
 31
0.0
  0
LINE
  8
0
 62
     250
 10
1220.71
 20
193.353
 30
0.0
 11
1221.3
 21
201.395
 31
0.0
  0
LINE
  8
0
 62
     250
 10
1221.3
 20
201.395
 30
0.0
 11
1221.85
 21
209.582
 31
0.0
  0
LINE
  8
0
 62
     250
 10
1221.85
 20
209.582
 30
0.0
 11
1222.37
 21
217.866
 31
0.0
  0
LINE
  8
0
 62
     250
 10
1222.37
 20
217.866
 30
0.0
 11
1222.87
 21
226.202
 31
0.0
  0
LINE
  8
0
 62
     250
 10
1222.87
 20
226.202
 30
0.0
 11
1223.33
 21
234.545
 31
0.0
  0
LINE
  8
0
 62
     250
 10
1223.33
 20
234.545
 30
0.0
 11
1223.76
 21
242.846
 31
0.0
  0
LINE
  8
0
 62
     250
 10
1223.76
 20
242.846
 30
0.0
 11
1224.16
 21
251.061
 31
0.0
  0
LINE
  8
0
 62
     250
 10
1224.16
 20
251.061
 30
0.0
 11
1224.53
 21
259.144
 31
0.0
  0
LINE
  8
0
 62
     250
 10
1224.53
 20
259.144
 30
0.0
 11
1224.87
 21
267.05
 31
0.0
  0
LINE
  8
0
 62
     250
 10
1224.87
 20
267.05
 30
0.0
 11
1225.18
 21
274.733
 31
0.0
  0
LINE
  8
0
 62
     250
 10
1225.18
 20
274.733
 30
0.0
 11
1225.46
 21
282.145
 31
0.0
  0
LINE
  8
0
 62
     250
 10
1225.46
 20
282.145
 30
0.0
 11
1225.71
 21
289.243
 31
0.0
  0
LINE
  8
0
 62
     250
 10
1225.71
 20
289.243
 30
0.0
 11
1225.93
 21
295.979
 31
0.0
  0
LINE
  8
0
 62
     250
 10
1225.93
 20
295.979
 30
0.0
 11
1226.12
 21
302.307
 31
0.0
  0
LINE
  8
0
 62
     250
 10
1226.12
 20
302.307
 30
0.0
 11
1226.28
 21
308.183
 31
0.0
  0
LINE
  8
0
 62
     250
 10
1226.28
 20
308.183
 30
0.0
 11
1226.41
 21
313.56
 31
0.0
  0
LINE
  8
0
 62
     250
 10
1226.41
 20
313.56
 30
0.0
 11
1226.52
 21
318.393
 31
0.0
  0
LINE
  8
0
 62
     250
 10
1226.52
 20
318.393
 30
0.0
 11
1226.59
 21
322.635
 31
0.0
  0
LINE
  8
0
 62
     250
 10
1226.59
 20
322.635
 30
0.0
 11
1226.63
 21
326.239
 31
0.0
  0
LINE
  8
0
 62
     250
 10
1226.63
 20
326.239
 30
0.0
 11
1226.65
 21
328.43
 31
0.0
  0
LINE
  8
0
 62
     250
 10
1226.65
 20
328.43
 30
0.0
 11
1226.65
 21
329.161
 31
0.0
  0
LINE
  8
0
 62
     250
 10
487.853
 20
329.161
 30
0.0
 11
487.853
 21
329.161
 31
0.0
  0
LINE
  8
0
 62
     250
 10
487.853
 20
329.161
 30
0.0
 11
487.832
 21
330.086
 31
0.0
  0
LINE
  8
0
 62
     250
 10
487.832
 20
330.086
 30
0.0
 11
487.768
 21
332.723
 31
0.0
  0
LINE
  8
0
 62
     250
 10
487.768
 20
332.723
 30
0.0
 11
487.673
 21
336.872
 31
0.0
  0
LINE
  8
0
 62
     250
 10
487.673
 20
336.872
 30
0.0
 11
487.549
 21
342.328
 31
0.0
  0
LINE
  8
0
 62
     250
 10
487.549
 20
342.328
 30
0.0
 11
487.405
 21
348.89
 31
0.0
  0
LINE
  8
0
 62
     250
 10
487.405
 20
348.89
 30
0.0
 11
487.243
 21
356.355
 31
0.0
  0
LINE
  8
0
 62
     250
 10
487.243
 20
356.355
 30
0.0
 11
487.066
 21
364.522
 31
0.0
  0
LINE
  8
0
 62
     250
 10
487.066
 20
364.522
 30
0.0
 11
486.886
 21
373.182
 31
0.0
  0
LINE
  8
0
 62
     250
 10
486.886
 20
373.182
 30
0.0
 11
486.706
 21
382.143
 31
0.0
  0
LINE
  8
0
 62
     250
 10
486.706
 20
382.143
 30
0.0
 11
486.53
 21
391.192
 31
0.0
  0
LINE
  8
0
 62
     250
 10
486.53
 20
391.192
 30
0.0
 11
486.368
 21
400.135
 31
0.0
  0
LINE
  8
0
 62
     250
 10
486.368
 20
400.135
 30
0.0
 11
486.223
 21
408.764
 31
0.0
  0
LINE
  8
0
 62
     250
 10
486.223
 20
408.764
 30
0.0
 11
486.1
 21
416.874
 31
0.0
  0
LINE
  8
0
 62
     250
 10
486.1
 20
416.874
 30
0.0
 11
486.004
 21
424.268
 31
0.0
  0
LINE
  8
0
 62
     250
 10
486.004
 20
424.268
 30
0.0
 11
485.941
 21
430.742
 31
0.0
  0
LINE
  8
0
 62
     250
 10
485.941
 20
430.742
 30
0.0
 11
485.92
 21
434.756
 31
0.0
  0
LINE
  8
0
 62
     250
 10
485.92
 20
434.756
 30
0.0
 11
485.92
 21
436.093
 31
0.0
  0
LINE
  8
0
 62
     250
 10
485.92
 20
436.093
 30
0.0
 11
485.92
 21
437.406
 31
0.0
  0
LINE
  8
0
 62
     250
 10
485.92
 20
437.406
 30
0.0
 11
485.941
 21
441.339
 31
0.0
  0
LINE
  8
0
 62
     250
 10
485.941
 20
441.339
 30
0.0
 11
486.008
 21
447.537
 31
0.0
  0
LINE
  8
0
 62
     250
 10
486.008
 20
447.537
 30
0.0
 11
486.107
 21
454.547
 31
0.0
  0
LINE
  8
0
 62
     250
 10
486.107
 20
454.547
 30
0.0
 11
486.244
 21
462.22
 31
0.0
  0
LINE
  8
0
 62
     250
 10
486.244
 20
462.22
 30
0.0
 11
486.41
 21
470.422
 31
0.0
  0
LINE
  8
0
 62
     250
 10
486.41
 20
470.422
 30
0.0
 11
486.604
 21
479.002
 31
0.0
  0
LINE
  8
0
 62
     250
 10
486.604
 20
479.002
 30
0.0
 11
486.823
 21
487.825
 31
0.0
  0
LINE
  8
0
 62
     250
 10
486.823
 20
487.825
 30
0.0
 11
487.059
 21
496.743
 31
0.0
  0
LINE
  8
0
 62
     250
 10
487.059
 20
496.743
 30
0.0
 11
487.313
 21
505.615
 31
0.0
  0
LINE
  8
0
 62
     250
 10
487.313
 20
505.615
 30
0.0
 11
487.578
 21
514.297
 31
0.0
  0
LINE
  8
0
 62
     250
 10
487.578
 20
514.297
 30
0.0
 11
487.853
 21
522.651
 31
0.0
  0
LINE
  8
0
 62
     250
 10
487.853
 20
522.651
 30
0.0
 11
488.132
 21
530.528
 31
0.0
  0
LINE
  8
0
 62
     250
 10
488.132
 20
530.528
 30
0.0
 11
488.414
 21
537.792
 31
0.0
  0
LINE
  8
0
 62
     250
 10
488.414
 20
537.792
 30
0.0
 11
488.692
 21
544.294
 31
0.0
  0
LINE
  8
0
 62
     250
 10
488.692
 20
544.294
 30
0.0
 11
488.968
 21
549.896
 31
0.0
  0
LINE
  8
0
 62
     250
 10
488.968
 20
549.896
 30
0.0
 11
489.158
 21
553.314
 31
0.0
  0
LINE
  8
0
 62
     250
 10
489.158
 20
553.314
 30
0.0
 11
489.232
 21
554.454
 31
0.0
  0
LINE
  8
0
 62
     250
 10
489.232
 20
554.454
 30
0.0
 11
489.359
 21
556.391
 31
0.0
  0
LINE
  8
0
 62
     250
 10
489.359
 20
556.391
 30
0.0
 11
490.054
 21
562.187
 31
0.0
  0
LINE
  8
0
 62
     250
 10
490.054
 20
562.187
 30
0.0
 11
491.402
 21
569.366
 31
0.0
  0
LINE
  8
0
 62
     250
 10
491.402
 20
569.366
 30
0.0
 11
493.159
 21
575.882
 31
0.0
  0
LINE
  8
0
 62
     250
 10
493.159
 20
575.882
 30
0.0
 11
495.201
 21
581.628
 31
0.0
  0
LINE
  8
0
 62
     250
 10
495.201
 20
581.628
 30
0.0
 11
497.413
 21
586.497
 31
0.0
  0
LINE
  8
0
 62
     250
 10
497.413
 20
586.497
 30
0.0
 11
499.674
 21
590.377
 31
0.0
  0
LINE
  8
0
 62
     250
 10
499.674
 20
590.377
 30
0.0
 11
501.865
 21
593.164
 31
0.0
  0
LINE
  8
0
 62
     250
 10
501.865
 20
593.164
 30
0.0
 11
503.305
 21
594.462
 31
0.0
  0
LINE
  8
0
 62
     250
 10
503.305
 20
594.462
 30
0.0
 11
503.862
 21
594.745
 31
0.0
  0
LINE
  8
0
 62
     250
 10
503.862
 20
594.745
 30
0.0
 11
504.176
 21
594.903
 31
0.0
  0
LINE
  8
0
 62
     250
 10
504.176
 20
594.903
 30
0.0
 11
505.16
 21
595.305
 31
0.0
  0
LINE
  8
0
 62
     250
 10
505.16
 20
595.305
 30
0.0
 11
507.171
 21
596.036
 31
0.0
  0
LINE
  8
0
 62
     250
 10
507.171
 20
596.036
 30
0.0
 11
509.866
 21
596.925
 31
0.0
  0
LINE
  8
0
 62
     250
 10
509.866
 20
596.925
 30
0.0
 11
513.211
 21
597.951
 31
0.0
  0
LINE
  8
0
 62
     250
 10
513.211
 20
597.951
 30
0.0
 11
517.172
 21
599.101
 31
0.0
  0
LINE
  8
0
 62
     250
 10
517.172
 20
599.101
 30
0.0
 11
521.723
 21
600.368
 31
0.0
  0
LINE
  8
0
 62
     250
 10
521.723
 20
600.368
 30
0.0
 11
526.831
 21
601.73
 31
0.0
  0
LINE
  8
0
 62
     250
 10
526.831
 20
601.73
 30
0.0
 11
532.469
 21
603.176
 31
0.0
  0
LINE
  8
0
 62
     250
 10
532.469
 20
603.176
 30
0.0
 11
538.596
 21
604.689
 31
0.0
  0
LINE
  8
0
 62
     250
 10
538.596
 20
604.689
 30
0.0
 11
545.19
 21
606.256
 31
0.0
  0
LINE
  8
0
 62
     250
 10
545.19
 20
606.256
 30
0.0
 11
552.217
 21
607.868
 31
0.0
  0
LINE
  8
0
 62
     250
 10
552.217
 20
607.868
 30
0.0
 11
559.643
 21
609.501
 31
0.0
  0
LINE
  8
0
 62
     250
 10
559.643
 20
609.501
 30
0.0
 11
567.443
 21
611.145
 31
0.0
  0
LINE
  8
0
 62
     250
 10
567.443
 20
611.145
 30
0.0
 11
575.578
 21
612.789
 31
0.0
  0
LINE
  8
0
 62
     250
 10
575.578
 20
612.789
 30
0.0
 11
584.024
 21
614.415
 31
0.0
  0
LINE
  8
0
 62
     250
 10
584.024
 20
614.415
 30
0.0
 11
590.564
 21
615.622
 31
0.0
  0
LINE
  8
0
 62
     250
 10
590.564
 20
615.622
 30
0.0
 11
592.748
 21
616.01
 31
0.0
  0
LINE
  8
0
 62
     250
 10
592.748
 20
616.01
 30
0.0
 11
595.097
 21
616.43
 31
0.0
  0
LINE
  8
0
 62
     250
 10
595.097
 20
616.43
 30
0.0
 11
602.16
 21
617.64
 31
0.0
  0
LINE
  8
0
 62
     250
 10
602.16
 20
617.64
 30
0.0
 11
612.602
 21
619.358
 31
0.0
  0
LINE
  8
0
 62
     250
 10
612.602
 20
619.358
 30
0.0
 11
623.933
 21
621.139
 31
0.0
  0
LINE
  8
0
 62
     250
 10
623.933
 20
621.139
 30
0.0
 11
636.012
 21
622.963
 31
0.0
  0
LINE
  8
0
 62
     250
 10
636.012
 20
622.963
 30
0.0
 11
648.695
 21
624.791
 31
0.0
  0
LINE
  8
0
 62
     250
 10
648.695
 20
624.791
 30
0.0
 11
661.846
 21
626.604
 31
0.0
  0
LINE
  8
0
 62
     250
 10
661.846
 20
626.604
 30
0.0
 11
675.323
 21
628.371
 31
0.0
  0
LINE
  8
0
 62
     250
 10
675.323
 20
628.371
 30
0.0
 11
688.982
 21
630.072
 31
0.0
  0
LINE
  8
0
 62
     250
 10
688.982
 20
630.072
 30
0.0
 11
702.68
 21
631.67
 31
0.0
  0
LINE
  8
0
 62
     250
 10
702.68
 20
631.67
 30
0.0
 11
716.284
 21
633.144
 31
0.0
  0
LINE
  8
0
 62
     250
 10
716.284
 20
633.144
 30
0.0
 11
729.643
 21
634.464
 31
0.0
  0
LINE
  8
0
 62
     250
 10
729.643
 20
634.464
 30
0.0
 11
742.622
 21
635.603
 31
0.0
  0
LINE
  8
0
 62
     250
 10
742.622
 20
635.603
 30
0.0
 11
755.078
 21
636.542
 31
0.0
  0
LINE
  8
0
 62
     250
 10
755.078
 20
636.542
 30
0.0
 11
766.872
 21
637.244
 31
0.0
  0
LINE
  8
0
 62
     250
 10
766.872
 20
637.244
 30
0.0
 11
777.861
 21
637.685
 31
0.0
  0
LINE
  8
0
 62
     250
 10
777.861
 20
637.685
 30
0.0
 11
785.396
 21
637.836
 31
0.0
  0
LINE
  8
0
 62
     250
 10
785.396
 20
637.836
 30
0.0
 11
787.904
 21
637.836
 31
0.0
  0
LINE
  8
0
 62
     250
 10
787.904
 20
637.836
 30
0.0
 11
790.272
 21
637.836
 31
0.0
  0
LINE
  8
0
 62
     250
 10
790.272
 20
637.836
 30
0.0
 11
797.366
 21
637.547
 31
0.0
  0
LINE
  8
0
 62
     250
 10
797.366
 20
637.547
 30
0.0
 11
806.665
 21
636.729
 31
0.0
  0
LINE
  8
0
 62
     250
 10
806.665
 20
636.729
 30
0.0
 11
815.742
 21
635.459
 31
0.0
  0
LINE
  8
0
 62
     250
 10
815.742
 20
635.459
 30
0.0
 11
824.53
 21
633.815
 31
0.0
  0
LINE
  8
0
 62
     250
 10
824.53
 20
633.815
 30
0.0
 11
832.968
 21
631.864
 31
0.0
  0
LINE
  8
0
 62
     250
 10
832.968
 20
631.864
 30
0.0
 11
840.998
 21
629.691
 31
0.0
  0
LINE
  8
0
 62
     250
 10
840.998
 20
629.691
 30
0.0
 11
848.558
 21
627.366
 31
0.0
  0
LINE
  8
0
 62
     250
 10
848.558
 20
627.366
 30
0.0
 11
855.581
 21
624.963
 31
0.0
  0
LINE
  8
0
 62
     250
 10
855.581
 20
624.963
 30
0.0
 11
862.009
 21
622.565
 31
0.0
  0
LINE
  8
0
 62
     250
 10
862.009
 20
622.565
 30
0.0
 11
867.784
 21
620.24
 31
0.0
  0
LINE
  8
0
 62
     250
 10
867.784
 20
620.24
 30
0.0
 11
872.836
 21
618.063
 31
0.0
  0
LINE
  8
0
 62
     250
 10
872.836
 20
618.063
 30
0.0
 11
877.108
 21
616.116
 31
0.0
  0
LINE
  8
0
 62
     250
 10
877.108
 20
616.116
 30
0.0
 11
880.54
 21
614.468
 31
0.0
  0
LINE
  8
0
 62
     250
 10
880.54
 20
614.468
 30
0.0
 11
883.066
 21
613.198
 31
0.0
  0
LINE
  8
0
 62
     250
 10
883.066
 20
613.198
 30
0.0
 11
884.629
 21
612.383
 31
0.0
  0
LINE
  8
0
 62
     250
 10
884.629
 20
612.383
 30
0.0
 11
885.165
 21
612.094
 31
0.0
  0
LINE
  8
0
 62
     250
 10
885.165
 20
612.094
 30
0.0
 11
885.165
 21
612.094
 31
0.0
  0
LINE
  8
0
 62
     250
 10
458.41
 20
334.243
 30
0.0
 11
1215.39
 21
334.243
 31
0.0
  0
LINE
  8
0
 62
     250
 10
458.593
 20
329.161
 30
0.0
 11
1215.39
 21
329.161
 31
0.0
  0
LINE
  8
0
 62
     250
 10
923.442
 20
329.161
 30
0.0
 11
923.442
 21
329.161
 31
0.0
  0
LINE
  8
0
 62
     250
 10
923.442
 20
329.161
 30
0.0
 11
923.378
 21
329.824
 31
0.0
  0
LINE
  8
0
 62
     250
 10
923.378
 20
329.824
 30
0.0
 11
923.195
 21
331.722
 31
0.0
  0
LINE
  8
0
 62
     250
 10
923.195
 20
331.722
 30
0.0
 11
922.906
 21
334.727
 31
0.0
  0
LINE
  8
0
 62
     250
 10
922.906
 20
334.727
 30
0.0
 11
922.521
 21
338.705
 31
0.0
  0
LINE
  8
0
 62
     250
 10
922.521
 20
338.705
 30
0.0
 11
922.052
 21
343.53
 31
0.0
  0
LINE
  8
0
 62
     250
 10
922.052
 20
343.53
 30
0.0
 11
921.508
 21
349.067
 31
0.0
  0
LINE
  8
0
 62
     250
 10
921.508
 20
349.067
 30
0.0
 11
920.902
 21
355.187
 31
0.0
  0
LINE
  8
0
 62
     250
 10
920.902
 20
355.187
 30
0.0
 11
920.242
 21
361.759
 31
0.0
  0
LINE
  8
0
 62
     250
 10
920.242
 20
361.759
 30
0.0
 11
919.54
 21
368.653
 31
0.0
  0
LINE
  8
0
 62
     250
 10
919.54
 20
368.653
 30
0.0
 11
918.813
 21
375.737
 31
0.0
  0
LINE
  8
0
 62
     250
 10
918.813
 20
375.737
 30
0.0
 11
918.062
 21
382.88
 31
0.0
  0
LINE
  8
0
 62
     250
 10
918.062
 20
382.88
 30
0.0
 11
917.307
 21
389.954
 31
0.0
  0
LINE
  8
0
 62
     250
 10
917.307
 20
389.954
 30
0.0
 11
916.552
 21
396.826
 31
0.0
  0
LINE
  8
0
 62
     250
 10
916.552
 20
396.826
 30
0.0
 11
915.815
 21
403.363
 31
0.0
  0
LINE
  8
0
 62
     250
 10
915.815
 20
403.363
 30
0.0
 11
915.098
 21
409.441
 31
0.0
  0
LINE
  8
0
 62
     250
 10
915.098
 20
409.441
 30
0.0
 11
914.598
 21
413.554
 31
0.0
  0
LINE
  8
0
 62
     250
 10
914.598
 20
413.554
 30
0.0
 11
914.425
 21
414.923
 31
0.0
  0
LINE
  8
0
 62
     250
 10
914.425
 20
414.923
 30
0.0
 11
914.238
 21
416.38
 31
0.0
  0
LINE
  8
0
 62
     250
 10
914.238
 20
416.38
 30
0.0
 11
913.624
 21
420.737
 31
0.0
  0
LINE
  8
0
 62
     250
 10
913.624
 20
420.737
 30
0.0
 11
912.566
 21
427.778
 31
0.0
  0
LINE
  8
0
 62
     250
 10
912.566
 20
427.778
 30
0.0
 11
911.285
 21
435.857
 31
0.0
  0
LINE
  8
0
 62
     250
 10
911.285
 20
435.857
 30
0.0
 11
909.821
 21
444.796
 31
0.0
  0
LINE
  8
0
 62
     250
 10
909.821
 20
444.796
 30
0.0
 11
908.205
 21
454.413
 31
0.0
  0
LINE
  8
0
 62
     250
 10
908.205
 20
454.413
 30
0.0
 11
906.48
 21
464.52
 31
0.0
  0
LINE
  8
0
 62
     250
 10
906.48
 20
464.52
 30
0.0
 11
904.684
 21
474.938
 31
0.0
  0
LINE
  8
0
 62
     250
 10
904.684
 20
474.938
 30
0.0
 11
902.854
 21
485.479
 31
0.0
  0
LINE
  8
0
 62
     250
 10
902.854
 20
485.479
 30
0.0
 11
901.023
 21
495.967
 31
0.0
  0
LINE
  8
0
 62
     250
 10
901.023
 20
495.967
 30
0.0
 11
899.231
 21
506.215
 31
0.0
  0
LINE
  8
0
 62
     250
 10
899.231
 20
506.215
 30
0.0
 11
897.516
 21
516.036
 31
0.0
  0
LINE
  8
0
 62
     250
 10
897.516
 20
516.036
 30
0.0
 11
895.918
 21
525.254
 31
0.0
  0
LINE
  8
0
 62
     250
 10
895.918
 20
525.254
 30
0.0
 11
894.472
 21
533.682
 31
0.0
  0
LINE
  8
0
 62
     250
 10
894.472
 20
533.682
 30
0.0
 11
893.216
 21
541.136
 31
0.0
  0
LINE
  8
0
 62
     250
 10
893.216
 20
541.136
 30
0.0
 11
892.186
 21
547.441
 31
0.0
  0
LINE
  8
0
 62
     250
 10
892.186
 20
547.441
 30
0.0
 11
891.603
 21
551.159
 31
0.0
  0
LINE
  8
0
 62
     250
 10
891.603
 20
551.159
 30
0.0
 11
891.42
 21
552.401
 31
0.0
  0
LINE
  8
0
 62
     250
 10
891.42
 20
552.401
 30
0.0
 11
891.11
 21
554.521
 31
0.0
  0
LINE
  8
0
 62
     250
 10
891.11
 20
554.521
 30
0.0
 11
890.154
 21
560.878
 31
0.0
  0
LINE
  8
0
 62
     250
 10
890.154
 20
560.878
 30
0.0
 11
888.884
 21
569.27
 31
0.0
  0
LINE
  8
0
 62
     250
 10
888.884
 20
569.27
 30
0.0
 11
887.674
 21
577.398
 31
0.0
  0
LINE
  8
0
 62
     250
 10
887.674
 20
577.398
 30
0.0
 11
886.587
 21
585.093
 31
0.0
  0
LINE
  8
0
 62
     250
 10
886.587
 20
585.093
 30
0.0
 11
885.694
 21
592.173
 31
0.0
  0
LINE
  8
0
 62
     250
 10
885.694
 20
592.173
 30
0.0
 11
885.052
 21
598.463
 31
0.0
  0
LINE
  8
0
 62
     250
 10
885.052
 20
598.463
 30
0.0
 11
884.731
 21
603.797
 31
0.0
  0
LINE
  8
0
 62
     250
 10
884.731
 20
603.797
 30
0.0
 11
884.714
 21
606.947
 31
0.0
  0
LINE
  8
0
 62
     250
 10
884.714
 20
606.947
 30
0.0
 11
884.795
 21
607.988
 31
0.0
  0
LINE
  8
0
 62
     250
 10
884.795
 20
607.988
 30
0.0
 11
884.865
 21
608.898
 31
0.0
  0
LINE
  8
0
 62
     250
 10
884.865
 20
608.898
 30
0.0
 11
885.486
 21
611.597
 31
0.0
  0
LINE
  8
0
 62
     250
 10
885.486
 20
611.597
 30
0.0
 11
886.972
 21
615.234
 31
0.0
  0
LINE
  8
0
 62
     250
 10
886.972
 20
615.234
 30
0.0
 11
889.201
 21
618.829
 31
0.0
  0
LINE
  8
0
 62
     250
 10
889.201
 20
618.829
 30
0.0
 11
892.133
 21
622.307
 31
0.0
  0
LINE
  8
0
 62
     250
 10
892.133
 20
622.307
 30
0.0
 11
895.71
 21
625.591
 31
0.0
  0
LINE
  8
0
 62
     250
 10
895.71
 20
625.591
 30
0.0
 11
899.88
 21
628.608
 31
0.0
  0
LINE
  8
0
 62
     250
 10
899.88
 20
628.608
 30
0.0
 11
904.603
 21
631.285
 31
0.0
  0
LINE
  8
0
 62
     250
 10
904.603
 20
631.285
 30
0.0
 11
908.491
 21
633.049
 31
0.0
  0
LINE
  8
0
 62
     250
 10
908.491
 20
633.049
 30
0.0
 11
909.821
 21
633.547
 31
0.0
  0
LINE
  8
0
 62
     250
 10
909.821
 20
633.547
 30
0.0
 11
910.569
 21
633.825
 31
0.0
  0
LINE
  8
0
 62
     250
 10
910.569
 20
633.825
 30
0.0
 11
912.883
 21
634.492
 31
0.0
  0
LINE
  8
0
 62
     250
 10
912.883
 20
634.492
 30
0.0
 11
916.562
 21
635.307
 31
0.0
  0
LINE
  8
0
 62
     250
 10
916.562
 20
635.307
 30
0.0
 11
920.778
 21
635.998
 31
0.0
  0
LINE
  8
0
 62
     250
 10
920.778
 20
635.998
 30
0.0
 11
925.453
 21
636.58
 31
0.0
  0
LINE
  8
0
 62
     250
 10
925.453
 20
636.58
 30
0.0
 11
930.501
 21
637.057
 31
0.0
  0
LINE
  8
0
 62
     250
 10
930.501
 20
637.057
 30
0.0
 11
935.842
 21
637.438
 31
0.0
  0
LINE
  8
0
 62
     250
 10
935.842
 20
637.438
 30
0.0
 11
941.398
 21
637.734
 31
0.0
  0
LINE
  8
0
 62
     250
 10
941.398
 20
637.734
 30
0.0
 11
947.088
 21
637.953
 31
0.0
  0
LINE
  8
0
 62
     250
 10
947.088
 20
637.953
 30
0.0
 11
952.828
 21
638.104
 31
0.0
  0
LINE
  8
0
 62
     250
 10
952.828
 20
638.104
 30
0.0
 11
958.536
 21
638.196
 31
0.0
  0
LINE
  8
0
 62
     250
 10
958.536
 20
638.196
 30
0.0
 11
964.138
 21
638.239
 31
0.0
  0
LINE
  8
0
 62
     250
 10
964.138
 20
638.239
 30
0.0
 11
969.55
 21
638.242
 31
0.0
  0
LINE
  8
0
 62
     250
 10
969.55
 20
638.242
 30
0.0
 11
974.686
 21
638.21
 31
0.0
  0
LINE
  8
0
 62
     250
 10
974.686
 20
638.21
 30
0.0
 11
979.473
 21
638.157
 31
0.0
  0
LINE
  8
0
 62
     250
 10
979.473
 20
638.157
 30
0.0
 11
983.827
 21
638.094
 31
0.0
  0
LINE
  8
0
 62
     250
 10
983.827
 20
638.094
 30
0.0
 11
986.705
 21
638.041
 31
0.0
  0
LINE
  8
0
 62
     250
 10
986.705
 20
638.041
 30
0.0
 11
987.665
 21
638.023
 31
0.0
  0
LINE
  8
0
 62
     250
 10
987.665
 20
638.023
 30
0.0
 11
988.639
 21
638.006
 31
0.0
  0
LINE
  8
0
 62
     250
 10
988.639
 20
638.006
 30
0.0
 11
991.56
 21
637.925
 31
0.0
  0
LINE
  8
0
 62
     250
 10
991.56
 20
637.925
 30
0.0
 11
996.086
 21
637.766
 31
0.0
  0
LINE
  8
0
 62
     250
 10
996.086
 20
637.766
 30
0.0
 11
1001.17
 21
637.551
 31
0.0
  0
LINE
  8
0
 62
     250
 10
1001.17
 20
637.551
 30
0.0
 11
1006.74
 21
637.286
 31
0.0
  0
LINE
  8
0
 62
     250
 10
1006.74
 20
637.286
 30
0.0
 11
1012.72
 21
636.976
 31
0.0
  0
LINE
  8
0
 62
     250
 10
1012.72
 20
636.976
 30
0.0
 11
1019.02
 21
636.619
 31
0.0
  0
LINE
  8
0
 62
     250
 10
1019.02
 20
636.619
 30
0.0
 11
1025.59
 21
636.221
 31
0.0
  0
LINE
  8
0
 62
     250
 10
1025.59
 20
636.221
 30
0.0
 11
1032.34
 21
635.783
 31
0.0
  0
LINE
  8
0
 62
     250
 10
1032.34
 20
635.783
 30
0.0
 11
1039.19
 21
635.31
 31
0.0
  0
LINE
  8
0
 62
     250
 10
1039.19
 20
635.31
 30
0.0
 11
1046.08
 21
634.809
 31
0.0
  0
LINE
  8
0
 62
     250
 10
1046.08
 20
634.809
 30
0.0
 11
1052.93
 21
634.277
 31
0.0
  0
LINE
  8
0
 62
     250
 10
1052.93
 20
634.277
 30
0.0
 11
1059.66
 21
633.719
 31
0.0
  0
LINE
  8
0
 62
     250
 10
1059.66
 20
633.719
 30
0.0
 11
1066.2
 21
633.141
 31
0.0
  0
LINE
  8
0
 62
     250
 10
1066.2
 20
633.141
 30
0.0
 11
1072.47
 21
632.545
 31
0.0
  0
LINE
  8
0
 62
     250
 10
1072.47
 20
632.545
 30
0.0
 11
1078.4
 21
631.931
 31
0.0
  0
LINE
  8
0
 62
     250
 10
1078.4
 20
631.931
 30
0.0
 11
1082.53
 21
631.469
 31
0.0
  0
LINE
  8
0
 62
     250
 10
1082.53
 20
631.469
 30
0.0
 11
1083.91
 21
631.306
 31
0.0
  0
LINE
  8
0
 62
     250
 10
1083.91
 20
631.306
 30
0.0
 11
1085.28
 21
631.144
 31
0.0
  0
LINE
  8
0
 62
     250
 10
1085.28
 20
631.144
 30
0.0
 11
1089.4
 21
630.583
 31
0.0
  0
LINE
  8
0
 62
     250
 10
1089.4
 20
630.583
 30
0.0
 11
1095.24
 21
629.687
 31
0.0
  0
LINE
  8
0
 62
     250
 10
1095.24
 20
629.687
 30
0.0
 11
1101.35
 21
628.646
 31
0.0
  0
LINE
  8
0
 62
     250
 10
1101.35
 20
628.646
 30
0.0
 11
1107.64
 21
627.482
 31
0.0
  0
LINE
  8
0
 62
     250
 10
1107.64
 20
627.482
 30
0.0
 11
1114.02
 21
626.223
 31
0.0
  0
LINE
  8
0
 62
     250
 10
1114.02
 20
626.223
 30
0.0
 11
1120.4
 21
624.893
 31
0.0
  0
LINE
  8
0
 62
     250
 10
1120.4
 20
624.893
 30
0.0
 11
1126.69
 21
623.517
 31
0.0
  0
LINE
  8
0
 62
     250
 10
1126.69
 20
623.517
 30
0.0
 11
1132.82
 21
622.12
 31
0.0
  0
LINE
  8
0
 62
     250
 10
1132.82
 20
622.12
 30
0.0
 11
1138.67
 21
620.727
 31
0.0
  0
LINE
  8
0
 62
     250
 10
1138.67
 20
620.727
 30
0.0
 11
1144.18
 21
619.365
 31
0.0
  0
LINE
  8
0
 62
     250
 10
1144.18
 20
619.365
 30
0.0
 11
1149.24
 21
618.056
 31
0.0
  0
LINE
  8
0
 62
     250
 10
1149.24
 20
618.056
 30
0.0
 11
1153.78
 21
616.825
 31
0.0
  0
LINE
  8
0
 62
     250
 10
1153.78
 20
616.825
 30
0.0
 11
1157.7
 21
615.703
 31
0.0
  0
LINE
  8
0
 62
     250
 10
1157.7
 20
615.703
 30
0.0
 11
1160.92
 21
614.708
 31
0.0
  0
LINE
  8
0
 62
     250
 10
1160.92
 20
614.708
 30
0.0
 11
1163.34
 21
613.872
 31
0.0
  0
LINE
  8
0
 62
     250
 10
1163.34
 20
613.872
 30
0.0
 11
1164.51
 21
613.406
 31
0.0
  0
LINE
  8
0
 62
     250
 10
1164.51
 20
613.406
 30
0.0
 11
1164.88
 21
613.212
 31
0.0
  0
LINE
  8
0
 62
     250
 10
1164.88
 20
613.212
 30
0.0
 11
1165.54
 21
612.87
 31
0.0
  0
LINE
  8
0
 62
     250
 10
1165.54
 20
612.87
 30
0.0
 11
1167.33
 21
611.498
 31
0.0
  0
LINE
  8
0
 62
     250
 10
1167.33
 20
611.498
 30
0.0
 11
1170.3
 21
608.711
 31
0.0
  0
LINE
  8
0
 62
     250
 10
1170.3
 20
608.711
 30
0.0
 11
1173.59
 21
605.053
 31
0.0
  0
LINE
  8
0
 62
     250
 10
1173.59
 20
605.053
 30
0.0
 11
1177.03
 21
600.714
 31
0.0
  0
LINE
  8
0
 62
     250
 10
1177.03
 20
600.714
 30
0.0
 11
1180.43
 21
595.884
 31
0.0
  0
LINE
  8
0
 62
     250
 10
1180.43
 20
595.884
 30
0.0
 11
1183.62
 21
590.758
 31
0.0
  0
LINE
  8
0
 62
     250
 10
1183.62
 20
590.758
 30
0.0
 11
1186.41
 21
585.526
 31
0.0
  0
LINE
  8
0
 62
     250
 10
1186.41
 20
585.526
 30
0.0
 11
1188.13
 21
581.692
 31
0.0
  0
LINE
  8
0
 62
     250
 10
1188.13
 20
581.692
 30
0.0
 11
1188.62
 21
580.383
 31
0.0
  0
LINE
  8
0
 62
     250
 10
1188.62
 20
580.383
 30
0.0
 11
1189.11
 21
579.049
 31
0.0
  0
LINE
  8
0
 62
     250
 10
1189.11
 20
579.049
 30
0.0
 11
1190.32
 21
574.957
 31
0.0
  0
LINE
  8
0
 62
     250
 10
1190.32
 20
574.957
 30
0.0
 11
1191.74
 21
568.84
 31
0.0
  0
LINE
  8
0
 62
     250
 10
1191.74
 20
568.84
 30
0.0
 11
1192.93
 21
562.166
 31
0.0
  0
LINE
  8
0
 62
     250
 10
1192.93
 20
562.166
 30
0.0
 11
1193.96
 21
555.057
 31
0.0
  0
LINE
  8
0
 62
     250
 10
1193.96
 20
555.057
 30
0.0
 11
1194.88
 21
547.656
 31
0.0
  0
LINE
  8
0
 62
     250
 10
1194.88
 20
547.656
 30
0.0
 11
1195.76
 21
540.089
 31
0.0
  0
LINE
  8
0
 62
     250
 10
1195.76
 20
540.089
 30
0.0
 11
1196.66
 21
532.486
 31
0.0
  0
LINE
  8
0
 62
     250
 10
1196.66
 20
532.486
 30
0.0
 11
1197.38
 21
526.852
 31
0.0
  0
LINE
  8
0
 62
     250
 10
1197.38
 20
526.852
 30
0.0
 11
1197.64
 21
524.979
 31
0.0
  0
LINE
  8
0
 62
     250
 10
1197.64
 20
524.979
 30
0.0
 11
1197.79
 21
523.875
 31
0.0
  0
LINE
  8
0
 62
     250
 10
1197.79
 20
523.875
 30
0.0
 11
1198.29
 21
520.562
 31
0.0
  0
LINE
  8
0
 62
     250
 10
1198.29
 20
520.562
 30
0.0
 11
1199.19
 21
514.766
 31
0.0
  0
LINE
  8
0
 62
     250
 10
1199.19
 20
514.766
 30
0.0
 11
1200.29
 21
507.672
 31
0.0
  0
LINE
  8
0
 62
     250
 10
1200.29
 20
507.672
 30
0.0
 11
1201.56
 21
499.339
 31
0.0
  0
LINE
  8
0
 62
     250
 10
1201.56
 20
499.339
 30
0.0
 11
1202.96
 21
489.85
 31
0.0
  0
LINE
  8
0
 62
     250
 10
1202.96
 20
489.85
 30
0.0
 11
1204.44
 21
479.27
 31
0.0
  0
LINE
  8
0
 62
     250
 10
1204.44
 20
479.27
 30
0.0
 11
1205.97
 21
467.67
 31
0.0
  0
LINE
  8
0
 62
     250
 10
1205.97
 20
467.67
 30
0.0
 11
1207.51
 21
455.122
 31
0.0
  0
LINE
  8
0
 62
     250
 10
1207.51
 20
455.122
 30
0.0
 11
1209.01
 21
441.695
 31
0.0
  0
LINE
  8
0
 62
     250
 10
1209.01
 20
441.695
 30
0.0
 11
1210.44
 21
427.468
 31
0.0
  0
LINE
  8
0
 62
     250
 10
1210.44
 20
427.468
 30
0.0
 11
1211.76
 21
412.503
 31
0.0
  0
LINE
  8
0
 62
     250
 10
1211.76
 20
412.503
 30
0.0
 11
1212.93
 21
396.875
 31
0.0
  0
LINE
  8
0
 62
     250
 10
1212.93
 20
396.875
 30
0.0
 11
1213.91
 21
380.658
 31
0.0
  0
LINE
  8
0
 62
     250
 10
1213.91
 20
380.658
 30
0.0
 11
1214.66
 21
363.918
 31
0.0
  0
LINE
  8
0
 62
     250
 10
1214.66
 20
363.918
 30
0.0
 11
1215.14
 21
346.729
 31
0.0
  0
LINE
  8
0
 62
     250
 10
1215.14
 20
346.729
 30
0.0
 11
1215.31
 21
333.554
 31
0.0
  0
LINE
  8
0
 62
     250
 10
1215.31
 20
333.554
 30
0.0
 11
1215.31
 21
329.161
 31
0.0
  0
LINE
  8
0
 62
     250
 10
500.549
 20
592.134
 30
0.0
 11
500.549
 21
592.134
 31
0.0
  0
LINE
  8
0
 62
     250
 10
500.549
 20
592.134
 30
0.0
 11
499.971
 21
592.159
 31
0.0
  0
LINE
  8
0
 62
     250
 10
499.971
 20
592.159
 30
0.0
 11
498.323
 21
592.152
 31
0.0
  0
LINE
  8
0
 62
     250
 10
498.323
 20
592.152
 30
0.0
 11
495.755
 21
591.996
 31
0.0
  0
LINE
  8
0
 62
     250
 10
495.755
 20
591.996
 30
0.0
 11
492.407
 21
591.573
 31
0.0
  0
LINE
  8
0
 62
     250
 10
492.407
 20
591.573
 30
0.0
 11
488.421
 21
590.769
 31
0.0
  0
LINE
  8
0
 62
     250
 10
488.421
 20
590.769
 30
0.0
 11
483.937
 21
589.46
 31
0.0
  0
LINE
  8
0
 62
     250
 10
483.937
 20
589.46
 30
0.0
 11
479.097
 21
587.527
 31
0.0
  0
LINE
  8
0
 62
     250
 10
479.097
 20
587.527
 30
0.0
 11
475.269
 21
585.593
 31
0.0
  0
LINE
  8
0
 62
     250
 10
475.269
 20
585.593
 30
0.0
 11
474.052
 21
584.856
 31
0.0
  0
LINE
  8
0
 62
     250
 10
474.052
 20
584.856
 30
0.0
 11
472.765
 21
584.084
 31
0.0
  0
LINE
  8
0
 62
     250
 10
472.765
 20
584.084
 30
0.0
 11
469.043
 21
581.54
 31
0.0
  0
LINE
  8
0
 62
     250
 10
469.043
 20
581.54
 30
0.0
 11
464.294
 21
577.854
 31
0.0
  0
LINE
  8
0
 62
     250
 10
464.294
 20
577.854
 30
0.0
 11
459.885
 21
573.984
 31
0.0
  0
LINE
  8
0
 62
     250
 10
459.885
 20
573.984
 30
0.0
 11
455.902
 21
570.099
 31
0.0
  0
LINE
  8
0
 62
     250
 10
455.902
 20
570.099
 30
0.0
 11
452.423
 21
566.381
 31
0.0
  0
LINE
  8
0
 62
     250
 10
452.423
 20
566.381
 30
0.0
 11
449.541
 21
563.009
 31
0.0
  0
LINE
  8
0
 62
     250
 10
449.541
 20
563.009
 30
0.0
 11
447.336
 21
560.155
 31
0.0
  0
LINE
  8
0
 62
     250
 10
447.336
 20
560.155
 30
0.0
 11
446.225
 21
558.553
 31
0.0
  0
LINE
  8
0
 62
     250
 10
446.225
 20
558.553
 30
0.0
 11
445.893
 21
557.996
 31
0.0
  0
LINE
  8
0
 62
     250
 10
445.893
 20
557.996
 30
0.0
 11
445.322
 21
557.029
 31
0.0
  0
LINE
  8
0
 62
     250
 10
445.322
 20
557.029
 30
0.0
 11
443.953
 21
553.914
 31
0.0
  0
LINE
  8
0
 62
     250
 10
443.953
 20
553.914
 30
0.0
 11
442.376
 21
548.834
 31
0.0
  0
LINE
  8
0
 62
     250
 10
442.376
 20
548.834
 30
0.0
 11
441.314
 21
543.02
 31
0.0
  0
LINE
  8
0
 62
     250
 10
441.314
 20
543.02
 30
0.0
 11
440.926
 21
538.304
 31
0.0
  0
LINE
  8
0
 62
     250
 10
440.926
 20
538.304
 30
0.0
 11
440.926
 21
536.73
 31
0.0
  0
LINE
  8
0
 62
     250
 10
440.926
 20
536.73
 30
0.0
 11
440.926
 21
535.665
 31
0.0
  0
LINE
  8
0
 62
     250
 10
440.926
 20
535.665
 30
0.0
 11
441.106
 21
532.465
 31
0.0
  0
LINE
  8
0
 62
     250
 10
441.106
 20
532.465
 30
0.0
 11
441.6
 21
526.341
 31
0.0
  0
LINE
  8
0
 62
     250
 10
441.6
 20
526.341
 30
0.0
 11
442.345
 21
518.728
 31
0.0
  0
LINE
  8
0
 62
     250
 10
442.345
 20
518.728
 30
0.0
 11
443.272
 21
509.986
 31
0.0
  0
LINE
  8
0
 62
     250
 10
443.272
 20
509.986
 30
0.0
 11
444.324
 21
500.486
 31
0.0
  0
LINE
  8
0
 62
     250
 10
444.324
 20
500.486
 30
0.0
 11
445.428
 21
490.59
 31
0.0
  0
LINE
  8
0
 62
     250
 10
445.428
 20
490.59
 30
0.0
 11
446.525
 21
480.663
 31
0.0
  0
LINE
  8
0
 62
     250
 10
446.525
 20
480.663
 30
0.0
 11
447.301
 21
473.47
 31
0.0
  0
LINE
  8
0
 62
     250
 10
447.301
 20
473.47
 30
0.0
 11
447.552
 21
471.071
 31
0.0
  0
LINE
  8
0
 62
     250
 10
447.552
 20
471.071
 30
0.0
 11
447.682
 21
469.808
 31
0.0
  0
LINE
  8
0
 62
     250
 10
447.682
 20
469.808
 30
0.0
 11
448.038
 21
466.012
 31
0.0
  0
LINE
  8
0
 62
     250
 10
448.038
 20
466.012
 30
0.0
 11
448.529
 21
460.223
 31
0.0
  0
LINE
  8
0
 62
     250
 10
448.529
 20
460.223
 30
0.0
 11
449.023
 21
453.824
 31
0.0
  0
LINE
  8
0
 62
     250
 10
449.023
 20
453.824
 30
0.0
 11
449.513
 21
446.934
 31
0.0
  0
LINE
  8
0
 62
     250
 10
449.513
 20
446.934
 30
0.0
 11
450
 21
439.678
 31
0.0
  0
LINE
  8
0
 62
     250
 10
450
 20
439.678
 30
0.0
 11
450.48
 21
432.17
 31
0.0
  0
LINE
  8
0
 62
     250
 10
450.48
 20
432.17
 30
0.0
 11
450.942
 21
424.54
 31
0.0
  0
LINE
  8
0
 62
     250
 10
450.942
 20
424.54
 30
0.0
 11
451.393
 21
416.902
 31
0.0
  0
LINE
  8
0
 62
     250
 10
451.393
 20
416.902
 30
0.0
 11
451.82
 21
409.384
 31
0.0
  0
LINE
  8
0
 62
     250
 10
451.82
 20
409.384
 30
0.0
 11
452.229
 21
402.1
 31
0.0
  0
LINE
  8
0
 62
     250
 10
452.229
 20
402.1
 30
0.0
 11
452.607
 21
395.175
 31
0.0
  0
LINE
  8
0
 62
     250
 10
452.607
 20
395.175
 30
0.0
 11
452.96
 21
388.729
 31
0.0
  0
LINE
  8
0
 62
     250
 10
452.96
 20
388.729
 30
0.0
 11
453.277
 21
382.88
 31
0.0
  0
LINE
  8
0
 62
     250
 10
453.277
 20
382.88
 30
0.0
 11
453.556
 21
377.754
 31
0.0
  0
LINE
  8
0
 62
     250
 10
453.556
 20
377.754
 30
0.0
 11
453.796
 21
373.472
 31
0.0
  0
LINE
  8
0
 62
     250
 10
453.796
 20
373.472
 30
0.0
 11
453.94
 21
370.985
 31
0.0
  0
LINE
  8
0
 62
     250
 10
453.94
 20
370.985
 30
0.0
 11
453.993
 21
370.152
 31
0.0
  0
LINE
  8
0
 62
     250
 10
453.993
 20
370.152
 30
0.0
 11
454.081
 21
368.716
 31
0.0
  0
LINE
  8
0
 62
     250
 10
454.081
 20
368.716
 30
0.0
 11
454.445
 21
364.405
 31
0.0
  0
LINE
  8
0
 62
     250
 10
454.445
 20
364.405
 30
0.0
 11
455.069
 21
358.475
 31
0.0
  0
LINE
  8
0
 62
     250
 10
455.069
 20
358.475
 30
0.0
 11
455.792
 21
352.544
 31
0.0
  0
LINE
  8
0
 62
     250
 10
455.792
 20
352.544
 30
0.0
 11
456.544
 21
346.789
 31
0.0
  0
LINE
  8
0
 62
     250
 10
456.544
 20
346.789
 30
0.0
 11
457.253
 21
341.394
 31
0.0
  0
LINE
  8
0
 62
     250
 10
457.253
 20
341.394
 30
0.0
 11
457.849
 21
336.538
 31
0.0
  0
LINE
  8
0
 62
     250
 10
457.849
 20
336.538
 30
0.0
 11
458.255
 21
332.399
 31
0.0
  0
LINE
  8
0
 62
     250
 10
458.255
 20
332.399
 30
0.0
 11
458.41
 21
329.971
 31
0.0
  0
LINE
  8
0
 62
     250
 10
458.41
 20
329.971
 30
0.0
 11
458.41
 21
329.161
 31
0.0
  0
LINE
  8
0
 62
     250
 10
487.853
 20
329.161
 30
0.0
 11
487.853
 21
329.161
 31
0.0
  0
LINE
  8
0
 62
     250
 10
487.853
 20
329.161
 30
0.0
 11
487.832
 21
328.238
 31
0.0
  0
LINE
  8
0
 62
     250
 10
487.832
 20
328.238
 30
0.0
 11
487.768
 21
325.6
 31
0.0
  0
LINE
  8
0
 62
     250
 10
487.768
 20
325.6
 30
0.0
 11
487.673
 21
321.451
 31
0.0
  0
LINE
  8
0
 62
     250
 10
487.673
 20
321.451
 30
0.0
 11
487.549
 21
315.995
 31
0.0
  0
LINE
  8
0
 62
     250
 10
487.549
 20
315.995
 30
0.0
 11
487.405
 21
309.433
 31
0.0
  0
LINE
  8
0
 62
     250
 10
487.405
 20
309.433
 30
0.0
 11
487.243
 21
301.967
 31
0.0
  0
LINE
  8
0
 62
     250
 10
487.243
 20
301.967
 30
0.0
 11
487.066
 21
293.802
 31
0.0
  0
LINE
  8
0
 62
     250
 10
487.066
 20
293.802
 30
0.0
 11
486.886
 21
285.138
 31
0.0
  0
LINE
  8
0
 62
     250
 10
486.886
 20
285.138
 30
0.0
 11
486.706
 21
276.179
 31
0.0
  0
LINE
  8
0
 62
     250
 10
486.706
 20
276.179
 30
0.0
 11
486.53
 21
267.129
 31
0.0
  0
LINE
  8
0
 62
     250
 10
486.53
 20
267.129
 30
0.0
 11
486.368
 21
258.188
 31
0.0
  0
LINE
  8
0
 62
     250
 10
486.368
 20
258.188
 30
0.0
 11
486.223
 21
249.56
 31
0.0
  0
LINE
  8
0
 62
     250
 10
486.223
 20
249.56
 30
0.0
 11
486.1
 21
241.447
 31
0.0
  0
LINE
  8
0
 62
     250
 10
486.1
 20
241.447
 30
0.0
 11
486.004
 21
234.053
 31
0.0
  0
LINE
  8
0
 62
     250
 10
486.004
 20
234.053
 30
0.0
 11
485.941
 21
227.579
 31
0.0
  0
LINE
  8
0
 62
     250
 10
485.941
 20
227.579
 30
0.0
 11
485.92
 21
223.565
 31
0.0
  0
LINE
  8
0
 62
     250
 10
485.92
 20
223.565
 30
0.0
 11
485.92
 21
222.227
 31
0.0
  0
LINE
  8
0
 62
     250
 10
485.92
 20
222.227
 30
0.0
 11
485.92
 21
220.916
 31
0.0
  0
LINE
  8
0
 62
     250
 10
485.92
 20
220.916
 30
0.0
 11
485.941
 21
216.982
 31
0.0
  0
LINE
  8
0
 62
     250
 10
485.941
 20
216.982
 30
0.0
 11
486.008
 21
210.783
 31
0.0
  0
LINE
  8
0
 62
     250
 10
486.008
 20
210.783
 30
0.0
 11
486.107
 21
203.776
 31
0.0
  0
LINE
  8
0
 62
     250
 10
486.107
 20
203.776
 30
0.0
 11
486.244
 21
196.1
 31
0.0
  0
LINE
  8
0
 62
     250
 10
486.244
 20
196.1
 30
0.0
 11
486.41
 21
187.901
 31
0.0
  0
LINE
  8
0
 62
     250
 10
486.41
 20
187.901
 30
0.0
 11
486.604
 21
179.319
 31
0.0
  0
LINE
  8
0
 62
     250
 10
486.604
 20
179.319
 30
0.0
 11
486.823
 21
170.498
 31
0.0
  0
LINE
  8
0
 62
     250
 10
486.823
 20
170.498
 30
0.0
 11
487.059
 21
161.579
 31
0.0
  0
LINE
  8
0
 62
     250
 10
487.059
 20
161.579
 30
0.0
 11
487.313
 21
152.707
 31
0.0
  0
LINE
  8
0
 62
     250
 10
487.313
 20
152.707
 30
0.0
 11
487.578
 21
144.024
 31
0.0
  0
LINE
  8
0
 62
     250
 10
487.578
 20
144.024
 30
0.0
 11
487.853
 21
135.672
 31
0.0
  0
LINE
  8
0
 62
     250
 10
487.853
 20
135.672
 30
0.0
 11
488.132
 21
127.792
 31
0.0
  0
LINE
  8
0
 62
     250
 10
488.132
 20
127.792
 30
0.0
 11
488.414
 21
120.53
 31
0.0
  0
LINE
  8
0
 62
     250
 10
488.414
 20
120.53
 30
0.0
 11
488.692
 21
114.027
 31
0.0
  0
LINE
  8
0
 62
     250
 10
488.692
 20
114.027
 30
0.0
 11
488.968
 21
108.426
 31
0.0
  0
LINE
  8
0
 62
     250
 10
488.968
 20
108.426
 30
0.0
 11
489.158
 21
105.008
 31
0.0
  0
LINE
  8
0
 62
     250
 10
489.158
 20
105.008
 30
0.0
 11
489.232
 21
103.868
 31
0.0
  0
LINE
  8
0
 62
     250
 10
489.232
 20
103.868
 30
0.0
 11
489.359
 21
101.931
 31
0.0
  0
LINE
  8
0
 62
     250
 10
489.359
 20
101.931
 30
0.0
 11
490.054
 21
96.1362
 31
0.0
  0
LINE
  8
0
 62
     250
 10
490.054
 20
96.1362
 30
0.0
 11
491.402
 21
88.9564
 31
0.0
  0
LINE
  8
0
 62
     250
 10
491.402
 20
88.9564
 30
0.0
 11
493.159
 21
82.4399
 31
0.0
  0
LINE
  8
0
 62
     250
 10
493.159
 20
82.4399
 30
0.0
 11
495.201
 21
76.6932
 31
0.0
  0
LINE
  8
0
 62
     250
 10
495.201
 20
76.6932
 30
0.0
 11
497.413
 21
71.8263
 31
0.0
  0
LINE
  8
0
 62
     250
 10
497.413
 20
71.8263
 30
0.0
 11
499.674
 21
67.9443
 31
0.0
  0
LINE
  8
0
 62
     250
 10
499.674
 20
67.9443
 30
0.0
 11
501.865
 21
65.1591
 31
0.0
  0
LINE
  8
0
 62
     250
 10
501.865
 20
65.1591
 30
0.0
 11
503.305
 21
63.8584
 31
0.0
  0
LINE
  8
0
 62
     250
 10
503.305
 20
63.8584
 30
0.0
 11
503.862
 21
63.5758
 31
0.0
  0
LINE
  8
0
 62
     250
 10
503.862
 20
63.5758
 30
0.0
 11
504.176
 21
63.4175
 31
0.0
  0
LINE
  8
0
 62
     250
 10
504.176
 20
63.4175
 30
0.0
 11
505.16
 21
63.0149
 31
0.0
  0
LINE
  8
0
 62
     250
 10
505.16
 20
63.0149
 30
0.0
 11
507.171
 21
62.2847
 31
0.0
  0
LINE
  8
0
 62
     250
 10
507.171
 20
62.2847
 30
0.0
 11
509.866
 21
61.3985
 31
0.0
  0
LINE
  8
0
 62
     250
 10
509.866
 20
61.3985
 30
0.0
 11
513.211
 21
60.3719
 31
0.0
  0
LINE
  8
0
 62
     250
 10
513.211
 20
60.3719
 30
0.0
 11
517.172
 21
59.2197
 31
0.0
  0
LINE
  8
0
 62
     250
 10
517.172
 20
59.2197
 30
0.0
 11
521.723
 21
57.9547
 31
0.0
  0
LINE
  8
0
 62
     250
 10
521.723
 20
57.9547
 30
0.0
 11
526.831
 21
56.5933
 31
0.0
  0
LINE
  8
0
 62
     250
 10
526.831
 20
56.5933
 30
0.0
 11
532.469
 21
55.1476
 31
0.0
  0
LINE
  8
0
 62
     250
 10
532.469
 20
55.1476
 30
0.0
 11
538.596
 21
53.6332
 31
0.0
  0
LINE
  8
0
 62
     250
 10
538.596
 20
53.6332
 30
0.0
 11
545.19
 21
52.0651
 31
0.0
  0
LINE
  8
0
 62
     250
 10
545.19
 20
52.0651
 30
0.0
 11
552.217
 21
50.4553
 31
0.0
  0
LINE
  8
0
 62
     250
 10
552.217
 20
50.4553
 30
0.0
 11
559.643
 21
48.8213
 31
0.0
  0
LINE
  8
0
 62
     250
 10
559.643
 20
48.8213
 30
0.0
 11
567.443
 21
47.1759
 31
0.0
  0
LINE
  8
0
 62
     250
 10
567.443
 20
47.1759
 30
0.0
 11
575.578
 21
45.5316
 31
0.0
  0
LINE
  8
0
 62
     250
 10
575.578
 20
45.5316
 30
0.0
 11
584.024
 21
43.9057
 31
0.0
  0
LINE
  8
0
 62
     250
 10
584.024
 20
43.9057
 30
0.0
 11
590.564
 21
42.6999
 31
0.0
  0
LINE
  8
0
 62
     250
 10
590.564
 20
42.6999
 30
0.0
 11
592.748
 21
42.3115
 31
0.0
  0
LINE
  8
0
 62
     250
 10
592.748
 20
42.3115
 30
0.0
 11
595.097
 21
41.8938
 31
0.0
  0
LINE
  8
0
 62
     250
 10
595.097
 20
41.8938
 30
0.0
 11
602.16
 21
40.6837
 31
0.0
  0
LINE
  8
0
 62
     250
 10
602.16
 20
40.6837
 30
0.0
 11
612.602
 21
38.964
 31
0.0
  0
LINE
  8
0
 62
     250
 10
612.602
 20
38.964
 30
0.0
 11
623.933
 21
37.181
 31
0.0
  0
LINE
  8
0
 62
     250
 10
623.933
 20
37.181
 30
0.0
 11
636.012
 21
35.3603
 31
0.0
  0
LINE
  8
0
 62
     250
 10
636.012
 20
35.3603
 30
0.0
 11
648.695
 21
33.5304
 31
0.0
  0
LINE
  8
0
 62
     250
 10
648.695
 20
33.5304
 30
0.0
 11
661.846
 21
31.7169
 31
0.0
  0
LINE
  8
0
 62
     250
 10
661.846
 20
31.7169
 30
0.0
 11
675.323
 21
29.9489
 31
0.0
  0
LINE
  8
0
 62
     250
 10
675.323
 20
29.9489
 30
0.0
 11
688.982
 21
28.2512
 31
0.0
  0
LINE
  8
0
 62
     250
 10
688.982
 20
28.2512
 30
0.0
 11
702.68
 21
26.6526
 31
0.0
  0
LINE
  8
0
 62
     250
 10
702.68
 20
26.6526
 30
0.0
 11
716.284
 21
25.1781
 31
0.0
  0
LINE
  8
0
 62
     250
 10
716.284
 20
25.1781
 30
0.0
 11
729.643
 21
23.858
 31
0.0
  0
LINE
  8
0
 62
     250
 10
729.643
 20
23.858
 30
0.0
 11
742.622
 21
22.7156
 31
0.0
  0
LINE
  8
0
 62
     250
 10
742.622
 20
22.7156
 30
0.0
 11
755.078
 21
21.7813
 31
0.0
  0
LINE
  8
0
 62
     250
 10
755.078
 20
21.7813
 30
0.0
 11
766.872
 21
21.0798
 31
0.0
  0
LINE
  8
0
 62
     250
 10
766.872
 20
21.0798
 30
0.0
 11
777.861
 21
20.6389
 31
0.0
  0
LINE
  8
0
 62
     250
 10
777.861
 20
20.6389
 30
0.0
 11
785.396
 21
20.4859
 31
0.0
  0
LINE
  8
0
 62
     250
 10
785.396
 20
20.4859
 30
0.0
 11
787.904
 21
20.4859
 31
0.0
  0
LINE
  8
0
 62
     250
 10
787.904
 20
20.4859
 30
0.0
 11
790.272
 21
20.4859
 31
0.0
  0
LINE
  8
0
 62
     250
 10
790.272
 20
20.4859
 30
0.0
 11
797.366
 21
20.7753
 31
0.0
  0
LINE
  8
0
 62
     250
 10
797.366
 20
20.7753
 30
0.0
 11
806.665
 21
21.5925
 31
0.0
  0
LINE
  8
0
 62
     250
 10
806.665
 20
21.5925
 30
0.0
 11
815.742
 21
22.8617
 31
0.0
  0
LINE
  8
0
 62
     250
 10
815.742
 20
22.8617
 30
0.0
 11
824.53
 21
24.5084
 31
0.0
  0
LINE
  8
0
 62
     250
 10
824.53
 20
24.5084
 30
0.0
 11
832.968
 21
26.457
 31
0.0
  0
LINE
  8
0
 62
     250
 10
832.968
 20
26.457
 30
0.0
 11
840.998
 21
28.6315
 31
0.0
  0
LINE
  8
0
 62
     250
 10
840.998
 20
28.6315
 30
0.0
 11
848.558
 21
30.9563
 31
0.0
  0
LINE
  8
0
 62
     250
 10
848.558
 20
30.9563
 30
0.0
 11
855.581
 21
33.3568
 31
0.0
  0
LINE
  8
0
 62
     250
 10
855.581
 20
33.3568
 30
0.0
 11
862.009
 21
35.7586
 31
0.0
  0
LINE
  8
0
 62
     250
 10
862.009
 20
35.7586
 30
0.0
 11
867.784
 21
38.0834
 31
0.0
  0
LINE
  8
0
 62
     250
 10
867.784
 20
38.0834
 30
0.0
 11
872.836
 21
40.2579
 31
0.0
  0
LINE
  8
0
 62
     250
 10
872.836
 20
40.2579
 30
0.0
 11
877.108
 21
42.2067
 31
0.0
  0
LINE
  8
0
 62
     250
 10
877.108
 20
42.2067
 30
0.0
 11
880.54
 21
43.8535
 31
0.0
  0
LINE
  8
0
 62
     250
 10
880.54
 20
43.8535
 30
0.0
 11
883.066
 21
45.1224
 31
0.0
  0
LINE
  8
0
 62
     250
 10
883.066
 20
45.1224
 30
0.0
 11
884.629
 21
45.9398
 31
0.0
  0
LINE
  8
0
 62
     250
 10
884.629
 20
45.9398
 30
0.0
 11
885.165
 21
46.2276
 31
0.0
  0
LINE
  8
0
 62
     250
 10
885.165
 20
46.2276
 30
0.0
 11
885.165
 21
46.2276
 31
0.0
  0
LINE
  8
0
 62
     250
 10
458.41
 20
324.078
 30
0.0
 11
1215.39
 21
324.078
 31
0.0
  0
LINE
  8
0
 62
     250
 10
458.593
 20
329.161
 30
0.0
 11
1215.39
 21
329.161
 31
0.0
  0
LINE
  8
0
 62
     250
 10
923.442
 20
329.161
 30
0.0
 11
923.442
 21
329.161
 31
0.0
  0
LINE
  8
0
 62
     250
 10
923.442
 20
329.161
 30
0.0
 11
923.378
 21
328.5
 31
0.0
  0
LINE
  8
0
 62
     250
 10
923.378
 20
328.5
 30
0.0
 11
923.195
 21
326.602
 31
0.0
  0
LINE
  8
0
 62
     250
 10
923.195
 20
326.602
 30
0.0
 11
922.906
 21
323.596
 31
0.0
  0
LINE
  8
0
 62
     250
 10
922.906
 20
323.596
 30
0.0
 11
922.521
 21
319.618
 31
0.0
  0
LINE
  8
0
 62
     250
 10
922.521
 20
319.618
 30
0.0
 11
922.052
 21
314.793
 31
0.0
  0
LINE
  8
0
 62
     250
 10
922.052
 20
314.793
 30
0.0
 11
921.508
 21
309.257
 31
0.0
  0
LINE
  8
0
 62
     250
 10
921.508
 20
309.257
 30
0.0
 11
920.902
 21
303.135
 31
0.0
  0
LINE
  8
0
 62
     250
 10
920.902
 20
303.135
 30
0.0
 11
920.242
 21
296.563
 31
0.0
  0
LINE
  8
0
 62
     250
 10
920.242
 20
296.563
 30
0.0
 11
919.54
 21
289.67
 31
0.0
  0
LINE
  8
0
 62
     250
 10
919.54
 20
289.67
 30
0.0
 11
918.813
 21
282.586
 31
0.0
  0
LINE
  8
0
 62
     250
 10
918.813
 20
282.586
 30
0.0
 11
918.062
 21
275.441
 31
0.0
  0
LINE
  8
0
 62
     250
 10
918.062
 20
275.441
 30
0.0
 11
917.307
 21
268.369
 31
0.0
  0
LINE
  8
0
 62
     250
 10
917.307
 20
268.369
 30
0.0
 11
916.552
 21
261.497
 31
0.0
  0
LINE
  8
0
 62
     250
 10
916.552
 20
261.497
 30
0.0
 11
915.815
 21
254.958
 31
0.0
  0
LINE
  8
0
 62
     250
 10
915.815
 20
254.958
 30
0.0
 11
915.098
 21
248.882
 31
0.0
  0
LINE
  8
0
 62
     250
 10
915.098
 20
248.882
 30
0.0
 11
914.598
 21
244.769
 31
0.0
  0
LINE
  8
0
 62
     250
 10
914.598
 20
244.769
 30
0.0
 11
914.425
 21
243.399
 31
0.0
  0
LINE
  8
0
 62
     250
 10
914.425
 20
243.399
 30
0.0
 11
914.238
 21
241.943
 31
0.0
  0
LINE
  8
0
 62
     250
 10
914.238
 20
241.943
 30
0.0
 11
913.624
 21
237.585
 31
0.0
  0
LINE
  8
0
 62
     250
 10
913.624
 20
237.585
 30
0.0
 11
912.566
 21
230.546
 31
0.0
  0
LINE
  8
0
 62
     250
 10
912.566
 20
230.546
 30
0.0
 11
911.285
 21
222.463
 31
0.0
  0
LINE
  8
0
 62
     250
 10
911.285
 20
222.463
 30
0.0
 11
909.821
 21
213.524
 31
0.0
  0
LINE
  8
0
 62
     250
 10
909.821
 20
213.524
 30
0.0
 11
908.205
 21
203.91
 31
0.0
  0
LINE
  8
0
 62
     250
 10
908.205
 20
203.91
 30
0.0
 11
906.48
 21
193.802
 31
0.0
  0
LINE
  8
0
 62
     250
 10
906.48
 20
193.802
 30
0.0
 11
904.684
 21
183.385
 31
0.0
  0
LINE
  8
0
 62
     250
 10
904.684
 20
183.385
 30
0.0
 11
902.854
 21
172.842
 31
0.0
  0
LINE
  8
0
 62
     250
 10
902.854
 20
172.842
 30
0.0
 11
901.023
 21
162.355
 31
0.0
  0
LINE
  8
0
 62
     250
 10
901.023
 20
162.355
 30
0.0
 11
899.231
 21
152.109
 31
0.0
  0
LINE
  8
0
 62
     250
 10
899.231
 20
152.109
 30
0.0
 11
897.516
 21
142.285
 31
0.0
  0
LINE
  8
0
 62
     250
 10
897.516
 20
142.285
 30
0.0
 11
895.918
 21
133.067
 31
0.0
  0
LINE
  8
0
 62
     250
 10
895.918
 20
133.067
 30
0.0
 11
894.472
 21
124.64
 31
0.0
  0
LINE
  8
0
 62
     250
 10
894.472
 20
124.64
 30
0.0
 11
893.216
 21
117.184
 31
0.0
  0
LINE
  8
0
 62
     250
 10
893.216
 20
117.184
 30
0.0
 11
892.186
 21
110.883
 31
0.0
  0
LINE
  8
0
 62
     250
 10
892.186
 20
110.883
 30
0.0
 11
891.603
 21
107.162
 31
0.0
  0
LINE
  8
0
 62
     250
 10
891.603
 20
107.162
 30
0.0
 11
891.42
 21
105.92
 31
0.0
  0
LINE
  8
0
 62
     250
 10
891.42
 20
105.92
 30
0.0
 11
891.11
 21
103.801
 31
0.0
  0
LINE
  8
0
 62
     250
 10
891.11
 20
103.801
 30
0.0
 11
890.154
 21
97.4425
 31
0.0
  0
LINE
  8
0
 62
     250
 10
890.154
 20
97.4425
 30
0.0
 11
888.884
 21
89.0517
 31
0.0
  0
LINE
  8
0
 62
     250
 10
888.884
 20
89.0517
 30
0.0
 11
887.674
 21
80.9226
 31
0.0
  0
LINE
  8
0
 62
     250
 10
887.674
 20
80.9226
 30
0.0
 11
886.587
 21
73.2303
 31
0.0
  0
LINE
  8
0
 62
     250
 10
886.587
 20
73.2303
 30
0.0
 11
885.694
 21
66.1501
 31
0.0
  0
LINE
  8
0
 62
     250
 10
885.694
 20
66.1501
 30
0.0
 11
885.052
 21
59.8579
 31
0.0
  0
LINE
  8
0
 62
     250
 10
885.052
 20
59.8579
 30
0.0
 11
884.731
 21
54.5264
 31
0.0
  0
LINE
  8
0
 62
     250
 10
884.731
 20
54.5264
 30
0.0
 11
884.714
 21
51.3761
 31
0.0
  0
LINE
  8
0
 62
     250
 10
884.714
 20
51.3761
 30
0.0
 11
884.795
 21
50.3315
 31
0.0
  0
LINE
  8
0
 62
     250
 10
884.795
 20
50.3315
 30
0.0
 11
884.865
 21
49.4235
 31
0.0
  0
LINE
  8
0
 62
     250
 10
884.865
 20
49.4235
 30
0.0
 11
885.486
 21
46.7251
 31
0.0
  0
LINE
  8
0
 62
     250
 10
885.486
 20
46.7251
 30
0.0
 11
886.972
 21
43.0872
 31
0.0
  0
LINE
  8
0
 62
     250
 10
886.972
 20
43.0872
 30
0.0
 11
889.201
 21
39.4917
 31
0.0
  0
LINE
  8
0
 62
     250
 10
889.201
 20
39.4917
 30
0.0
 11
892.133
 21
36.0165
 31
0.0
  0
LINE
  8
0
 62
     250
 10
892.133
 20
36.0165
 30
0.0
 11
895.71
 21
32.7312
 31
0.0
  0
LINE
  8
0
 62
     250
 10
895.71
 20
32.7312
 30
0.0
 11
899.88
 21
29.7146
 31
0.0
  0
LINE
  8
0
 62
     250
 10
899.88
 20
29.7146
 30
0.0
 11
904.603
 21
27.0371
 31
0.0
  0
LINE
  8
0
 62
     250
 10
904.603
 20
27.0371
 30
0.0
 11
908.491
 21
25.2718
 31
0.0
  0
LINE
  8
0
 62
     250
 10
908.491
 20
25.2718
 30
0.0
 11
909.821
 21
24.7758
 31
0.0
  0
LINE
  8
0
 62
     250
 10
909.821
 20
24.7758
 30
0.0
 11
910.569
 21
24.4974
 31
0.0
  0
LINE
  8
0
 62
     250
 10
910.569
 20
24.4974
 30
0.0
 11
912.883
 21
23.8304
 31
0.0
  0
LINE
  8
0
 62
     250
 10
912.883
 20
23.8304
 30
0.0
 11
916.562
 21
23.016
 31
0.0
  0
LINE
  8
0
 62
     250
 10
916.562
 20
23.016
 30
0.0
 11
920.778
 21
22.3228
 31
0.0
  0
LINE
  8
0
 62
     250
 10
920.778
 20
22.3228
 30
0.0
 11
925.453
 21
21.7427
 31
0.0
  0
LINE
  8
0
 62
     250
 10
925.453
 20
21.7427
 30
0.0
 11
930.501
 21
21.2659
 31
0.0
  0
LINE
  8
0
 62
     250
 10
930.501
 20
21.2659
 30
0.0
 11
935.842
 21
20.8842
 31
0.0
  0
LINE
  8
0
 62
     250
 10
935.842
 20
20.8842
 30
0.0
 11
941.398
 21
20.5893
 31
0.0
  0
LINE
  8
0
 62
     250
 10
941.398
 20
20.5893
 30
0.0
 11
947.088
 21
20.3702
 31
0.0
  0
LINE
  8
0
 62
     250
 10
947.088
 20
20.3702
 30
0.0
 11
952.828
 21
20.2186
 31
0.0
  0
LINE
  8
0
 62
     250
 10
952.828
 20
20.2186
 30
0.0
 11
958.536
 21
20.1263
 31
0.0
  0
LINE
  8
0
 62
     250
 10
958.536
 20
20.1263
 30
0.0
 11
964.138
 21
20.0835
 31
0.0
  0
LINE
  8
0
 62
     250
 10
964.138
 20
20.0835
 30
0.0
 11
969.55
 21
20.0808
 31
0.0
  0
LINE
  8
0
 62
     250
 10
969.55
 20
20.0808
 30
0.0
 11
974.686
 21
20.1111
 31
0.0
  0
LINE
  8
0
 62
     250
 10
974.686
 20
20.1111
 30
0.0
 11
979.473
 21
20.1635
 31
0.0
  0
LINE
  8
0
 62
     250
 10
979.473
 20
20.1635
 30
0.0
 11
983.827
 21
20.2282
 31
0.0
  0
LINE
  8
0
 62
     250
 10
983.827
 20
20.2282
 30
0.0
 11
986.705
 21
20.2806
 31
0.0
  0
LINE
  8
0
 62
     250
 10
986.705
 20
20.2806
 30
0.0
 11
987.665
 21
20.2985
 31
0.0
  0
LINE
  8
0
 62
     250
 10
987.665
 20
20.2985
 30
0.0
 11
988.639
 21
20.3178
 31
0.0
  0
LINE
  8
0
 62
     250
 10
988.639
 20
20.3178
 30
0.0
 11
991.56
 21
20.3991
 31
0.0
  0
LINE
  8
0
 62
     250
 10
991.56
 20
20.3991
 30
0.0
 11
996.086
 21
20.5576
 31
0.0
  0
LINE
  8
0
 62
     250
 10
996.086
 20
20.5576
 30
0.0
 11
1001.17
 21
20.7698
 31
0.0
  0
LINE
  8
0
 62
     250
 10
1001.17
 20
20.7698
 30
0.0
 11
1006.74
 21
21.0344
 31
0.0
  0
LINE
  8
0
 62
     250
 10
1006.74
 20
21.0344
 30
0.0
 11
1012.72
 21
21.3458
 31
0.0
  0
LINE
  8
0
 62
     250
 10
1012.72
 20
21.3458
 30
0.0
 11
1019.02
 21
21.7027
 31
0.0
  0
LINE
  8
0
 62
     250
 10
1019.02
 20
21.7027
 30
0.0
 11
1025.59
 21
22.101
 31
0.0
  0
LINE
  8
0
 62
     250
 10
1025.59
 20
22.101
 30
0.0
 11
1032.34
 21
22.5378
 31
0.0
  0
LINE
  8
0
 62
     250
 10
1032.34
 20
22.5378
 30
0.0
 11
1039.19
 21
23.0105
 31
0.0
  0
LINE
  8
0
 62
     250
 10
1039.19
 20
23.0105
 30
0.0
 11
1046.08
 21
23.5134
 31
0.0
  0
LINE
  8
0
 62
     250
 10
1046.08
 20
23.5134
 30
0.0
 11
1052.93
 21
24.0454
 31
0.0
  0
LINE
  8
0
 62
     250
 10
1052.93
 20
24.0454
 30
0.0
 11
1059.66
 21
24.6021
 31
0.0
  0
LINE
  8
0
 62
     250
 10
1059.66
 20
24.6021
 30
0.0
 11
1066.2
 21
25.1809
 31
0.0
  0
LINE
  8
0
 62
     250
 10
1066.2
 20
25.1809
 30
0.0
 11
1072.47
 21
25.7776
 31
0.0
  0
LINE
  8
0
 62
     250
 10
1072.47
 20
25.7776
 30
0.0
 11
1078.4
 21
26.3908
 31
0.0
  0
LINE
  8
0
 62
     250
 10
1078.4
 20
26.3908
 30
0.0
 11
1082.53
 21
26.8511
 31
0.0
  0
LINE
  8
0
 62
     250
 10
1082.53
 20
26.8511
 30
0.0
 11
1083.91
 21
27.0151
 31
0.0
  0
LINE
  8
0
 62
     250
 10
1083.91
 20
27.0151
 30
0.0
 11
1085.28
 21
27.1791
 31
0.0
  0
LINE
  8
0
 62
     250
 10
1085.28
 20
27.1791
 30
0.0
 11
1089.4
 21
27.7399
 31
0.0
  0
LINE
  8
0
 62
     250
 10
1089.4
 20
27.7399
 30
0.0
 11
1095.24
 21
28.6343
 31
0.0
  0
LINE
  8
0
 62
     250
 10
1095.24
 20
28.6343
 30
0.0
 11
1101.35
 21
29.6761
 31
0.0
  0
LINE
  8
0
 62
     250
 10
1101.35
 20
29.6761
 30
0.0
 11
1107.64
 21
30.8391
 31
0.0
  0
LINE
  8
0
 62
     250
 10
1107.64
 20
30.8391
 30
0.0
 11
1114.02
 21
32.0986
 31
0.0
  0
LINE
  8
0
 62
     250
 10
1114.02
 20
32.0986
 30
0.0
 11
1120.4
 21
33.4284
 31
0.0
  0
LINE
  8
0
 62
     250
 10
1120.4
 20
33.4284
 30
0.0
 11
1126.69
 21
34.8051
 31
0.0
  0
LINE
  8
0
 62
     250
 10
1126.69
 20
34.8051
 30
0.0
 11
1132.82
 21
36.2024
 31
0.0
  0
LINE
  8
0
 62
     250
 10
1132.82
 20
36.2024
 30
0.0
 11
1138.67
 21
37.5941
 31
0.0
  0
LINE
  8
0
 62
     250
 10
1138.67
 20
37.5941
 30
0.0
 11
1144.18
 21
38.9587
 31
0.0
  0
LINE
  8
0
 62
     250
 10
1144.18
 20
38.9587
 30
0.0
 11
1149.24
 21
40.2664
 31
0.0
  0
LINE
  8
0
 62
     250
 10
1149.24
 20
40.2664
 30
0.0
 11
1153.78
 21
41.4955
 31
0.0
  0
LINE
  8
0
 62
     250
 10
1153.78
 20
41.4955
 30
0.0
 11
1157.7
 21
42.6187
 31
0.0
  0
LINE
  8
0
 62
     250
 10
1157.7
 20
42.6187
 30
0.0
 11
1160.92
 21
43.6122
 31
0.0
  0
LINE
  8
0
 62
     250
 10
1160.92
 20
43.6122
 30
0.0
 11
1163.34
 21
44.4514
 31
0.0
  0
LINE
  8
0
 62
     250
 10
1163.34
 20
44.4514
 30
0.0
 11
1164.51
 21
44.9157
 31
0.0
  0
LINE
  8
0
 62
     250
 10
1164.51
 20
44.9157
 30
0.0
 11
1164.88
 21
45.1086
 31
0.0
  0
LINE
  8
0
 62
     250
 10
1164.88
 20
45.1086
 30
0.0
 11
1165.54
 21
45.4533
 31
0.0
  0
LINE
  8
0
 62
     250
 10
1165.54
 20
45.4533
 30
0.0
 11
1167.33
 21
46.8256
 31
0.0
  0
LINE
  8
0
 62
     250
 10
1167.33
 20
46.8256
 30
0.0
 11
1170.3
 21
49.6094
 31
0.0
  0
LINE
  8
0
 62
     250
 10
1170.3
 20
49.6094
 30
0.0
 11
1173.59
 21
53.268
 31
0.0
  0
LINE
  8
0
 62
     250
 10
1173.59
 20
53.268
 30
0.0
 11
1177.03
 21
57.6076
 31
0.0
  0
LINE
  8
0
 62
     250
 10
1177.03
 20
57.6076
 30
0.0
 11
1180.43
 21
62.4374
 31
0.0
  0
LINE
  8
0
 62
     250
 10
1180.43
 20
62.4374
 30
0.0
 11
1183.62
 21
67.564
 31
0.0
  0
LINE
  8
0
 62
     250
 10
1183.62
 20
67.564
 30
0.0
 11
1186.41
 21
72.795
 31
0.0
  0
LINE
  8
0
 62
     250
 10
1186.41
 20
72.795
 30
0.0
 11
1188.13
 21
76.6286
 31
0.0
  0
LINE
  8
0
 62
     250
 10
1188.13
 20
76.6286
 30
0.0
 11
1188.62
 21
77.9392
 31
0.0
  0
LINE
  8
0
 62
     250
 10
1188.62
 20
77.9392
 30
0.0
 11
1189.11
 21
79.2716
 31
0.0
  0
LINE
  8
0
 62
     250
 10
1189.11
 20
79.2716
 30
0.0
 11
1190.32
 21
83.366
 31
0.0
  0
LINE
  8
0
 62
     250
 10
1190.32
 20
83.366
 30
0.0
 11
1191.74
 21
89.4828
 31
0.0
  0
LINE
  8
0
 62
     250
 10
1191.74
 20
89.4828
 30
0.0
 11
1192.93
 21
96.1581
 31
0.0
  0
LINE
  8
0
 62
     250
 10
1192.93
 20
96.1581
 30
0.0
 11
1193.96
 21
103.263
 31
0.0
  0
LINE
  8
0
 62
     250
 10
1193.96
 20
103.263
 30
0.0
 11
1194.88
 21
110.665
 31
0.0
  0
LINE
  8
0
 62
     250
 10
1194.88
 20
110.665
 30
0.0
 11
1195.76
 21
118.233
 31
0.0
  0
LINE
  8
0
 62
     250
 10
1195.76
 20
118.233
 30
0.0
 11
1196.66
 21
125.835
 31
0.0
  0
LINE
  8
0
 62
     250
 10
1196.66
 20
125.835
 30
0.0
 11
1197.38
 21
131.469
 31
0.0
  0
LINE
  8
0
 62
     250
 10
1197.38
 20
131.469
 30
0.0
 11
1197.64
 21
133.342
 31
0.0
  0
LINE
  8
0
 62
     250
 10
1197.64
 20
133.342
 30
0.0
 11
1197.79
 21
134.448
 31
0.0
  0
LINE
  8
0
 62
     250
 10
1197.79
 20
134.448
 30
0.0
 11
1198.29
 21
137.761
 31
0.0
  0
LINE
  8
0
 62
     250
 10
1198.29
 20
137.761
 30
0.0
 11
1199.19
 21
143.554
 31
0.0
  0
LINE
  8
0
 62
     250
 10
1199.19
 20
143.554
 30
0.0
 11
1200.29
 21
150.651
 31
0.0
  0
LINE
  8
0
 62
     250
 10
1200.29
 20
150.651
 30
0.0
 11
1201.56
 21
158.981
 31
0.0
  0
LINE
  8
0
 62
     250
 10
1201.56
 20
158.981
 30
0.0
 11
1202.96
 21
168.472
 31
0.0
  0
LINE
  8
0
 62
     250
 10
1202.96
 20
168.472
 30
0.0
 11
1204.44
 21
179.053
 31
0.0
  0
LINE
  8
0
 62
     250
 10
1204.44
 20
179.053
 30
0.0
 11
1205.97
 21
190.653
 31
0.0
  0
LINE
  8
0
 62
     250
 10
1205.97
 20
190.653
 30
0.0
 11
1207.51
 21
203.201
 31
0.0
  0
LINE
  8
0
 62
     250
 10
1207.51
 20
203.201
 30
0.0
 11
1209.01
 21
216.625
 31
0.0
  0
LINE
  8
0
 62
     250
 10
1209.01
 20
216.625
 30
0.0
 11
1210.44
 21
230.855
 31
0.0
  0
LINE
  8
0
 62
     250
 10
1210.44
 20
230.855
 30
0.0
 11
1211.76
 21
245.819
 31
0.0
  0
LINE
  8
0
 62
     250
 10
1211.76
 20
245.819
 30
0.0
 11
1212.93
 21
261.445
 31
0.0
  0
LINE
  8
0
 62
     250
 10
1212.93
 20
261.445
 30
0.0
 11
1213.91
 21
277.665
 31
0.0
  0
LINE
  8
0
 62
     250
 10
1213.91
 20
277.665
 30
0.0
 11
1214.66
 21
294.405
 31
0.0
  0
LINE
  8
0
 62
     250
 10
1214.66
 20
294.405
 30
0.0
 11
1215.14
 21
311.594
 31
0.0
  0
LINE
  8
0
 62
     250
 10
1215.14
 20
311.594
 30
0.0
 11
1215.31
 21
324.769
 31
0.0
  0
LINE
  8
0
 62
     250
 10
1215.31
 20
324.769
 30
0.0
 11
1215.31
 21
329.161
 31
0.0
  0
LINE
  8
0
 62
     250
 10
500.549
 20
66.1871
 30
0.0
 11
500.549
 21
66.1871
 31
0.0
  0
LINE
  8
0
 62
     250
 10
500.549
 20
66.1871
 30
0.0
 11
499.971
 21
66.1638
 31
0.0
  0
LINE
  8
0
 62
     250
 10
499.971
 20
66.1638
 30
0.0
 11
498.323
 21
66.1705
 31
0.0
  0
LINE
  8
0
 62
     250
 10
498.323
 20
66.1705
 30
0.0
 11
495.755
 21
66.3265
 31
0.0
  0
LINE
  8
0
 62
     250
 10
495.755
 20
66.3265
 30
0.0
 11
492.407
 21
66.748
 31
0.0
  0
LINE
  8
0
 62
     250
 10
492.407
 20
66.748
 30
0.0
 11
488.421
 21
67.5541
 31
0.0
  0
LINE
  8
0
 62
     250
 10
488.421
 20
67.5541
 30
0.0
 11
483.937
 21
68.8647
 31
0.0
  0
LINE
  8
0
 62
     250
 10
483.937
 20
68.8647
 30
0.0
 11
479.097
 21
70.7954
 31
0.0
  0
LINE
  8
0
 62
     250
 10
479.097
 20
70.7954
 30
0.0
 11
475.269
 21
72.7287
 31
0.0
  0
LINE
  8
0
 62
     250
 10
475.269
 20
72.7287
 30
0.0
 11
474.052
 21
73.4632
 31
0.0
  0
LINE
  8
0
 62
     250
 10
474.052
 20
73.4632
 30
0.0
 11
472.765
 21
74.2379
 31
0.0
  0
LINE
  8
0
 62
     250
 10
472.765
 20
74.2379
 30
0.0
 11
469.043
 21
76.7828
 31
0.0
  0
LINE
  8
0
 62
     250
 10
469.043
 20
76.7828
 30
0.0
 11
464.294
 21
80.4679
 31
0.0
  0
LINE
  8
0
 62
     250
 10
464.294
 20
80.4679
 30
0.0
 11
459.885
 21
84.34
 31
0.0
  0
LINE
  8
0
 62
     250
 10
459.885
 20
84.34
 30
0.0
 11
455.902
 21
88.2234
 31
0.0
  0
LINE
  8
0
 62
     250
 10
455.902
 20
88.2234
 30
0.0
 11
452.423
 21
91.9399
 31
0.0
  0
LINE
  8
0
 62
     250
 10
452.423
 20
91.9399
 30
0.0
 11
449.541
 21
95.3149
 31
0.0
  0
LINE
  8
0
 62
     250
 10
449.541
 20
95.3149
 30
0.0
 11
447.336
 21
98.1685
 31
0.0
  0
LINE
  8
0
 62
     250
 10
447.336
 20
98.1685
 30
0.0
 11
446.225
 21
99.7673
 31
0.0
  0
LINE
  8
0
 62
     250
 10
446.225
 20
99.7673
 30
0.0
 11
445.893
 21
100.324
 31
0.0
  0
LINE
  8
0
 62
     250
 10
445.893
 20
100.324
 30
0.0
 11
445.322
 21
101.293
 31
0.0
  0
LINE
  8
0
 62
     250
 10
445.322
 20
101.293
 30
0.0
 11
443.953
 21
104.408
 31
0.0
  0
LINE
  8
0
 62
     250
 10
443.953
 20
104.408
 30
0.0
 11
442.376
 21
109.488
 31
0.0
  0
LINE
  8
0
 62
     250
 10
442.376
 20
109.488
 30
0.0
 11
441.314
 21
115.303
 31
0.0
  0
LINE
  8
0
 62
     250
 10
441.314
 20
115.303
 30
0.0
 11
440.926
 21
120.019
 31
0.0
  0
LINE
  8
0
 62
     250
 10
440.926
 20
120.019
 30
0.0
 11
440.926
 21
121.59
 31
0.0
  0
LINE
  8
0
 62
     250
 10
440.926
 20
121.59
 30
0.0
 11
440.926
 21
122.658
 31
0.0
  0
LINE
  8
0
 62
     250
 10
440.926
 20
122.658
 30
0.0
 11
441.106
 21
125.858
 31
0.0
  0
LINE
  8
0
 62
     250
 10
441.106
 20
125.858
 30
0.0
 11
441.6
 21
131.982
 31
0.0
  0
LINE
  8
0
 62
     250
 10
441.6
 20
131.982
 30
0.0
 11
442.345
 21
139.595
 31
0.0
  0
LINE
  8
0
 62
     250
 10
442.345
 20
139.595
 30
0.0
 11
443.272
 21
148.335
 31
0.0
  0
LINE
  8
0
 62
     250
 10
443.272
 20
148.335
 30
0.0
 11
444.324
 21
157.836
 31
0.0
  0
LINE
  8
0
 62
     250
 10
444.324
 20
157.836
 30
0.0
 11
445.428
 21
167.732
 31
0.0
  0
LINE
  8
0
 62
     250
 10
445.428
 20
167.732
 30
0.0
 11
446.525
 21
177.66
 31
0.0
  0
LINE
  8
0
 62
     250
 10
446.525
 20
177.66
 30
0.0
 11
447.301
 21
184.853
 31
0.0
  0
LINE
  8
0
 62
     250
 10
447.301
 20
184.853
 30
0.0
 11
447.552
 21
187.251
 31
0.0
  0
LINE
  8
0
 62
     250
 10
447.552
 20
187.251
 30
0.0
 11
447.682
 21
188.514
 31
0.0
  0
LINE
  8
0
 62
     250
 10
447.682
 20
188.514
 30
0.0
 11
448.038
 21
192.309
 31
0.0
  0
LINE
  8
0
 62
     250
 10
448.038
 20
192.309
 30
0.0
 11
448.529
 21
198.098
 31
0.0
  0
LINE
  8
0
 62
     250
 10
448.529
 20
198.098
 30
0.0
 11
449.023
 21
204.498
 31
0.0
  0
LINE
  8
0
 62
     250
 10
449.023
 20
204.498
 30
0.0
 11
449.513
 21
211.388
 31
0.0
  0
LINE
  8
0
 62
     250
 10
449.513
 20
211.388
 30
0.0
 11
450
 21
218.645
 31
0.0
  0
LINE
  8
0
 62
     250
 10
450
 20
218.645
 30
0.0
 11
450.48
 21
226.15
 31
0.0
  0
LINE
  8
0
 62
     250
 10
450.48
 20
226.15
 30
0.0
 11
450.942
 21
233.782
 31
0.0
  0
LINE
  8
0
 62
     250
 10
450.942
 20
233.782
 30
0.0
 11
451.393
 21
241.419
 31
0.0
  0
LINE
  8
0
 62
     250
 10
451.393
 20
241.419
 30
0.0
 11
451.82
 21
248.938
 31
0.0
  0
LINE
  8
0
 62
     250
 10
451.82
 20
248.938
 30
0.0
 11
452.229
 21
256.221
 31
0.0
  0
LINE
  8
0
 62
     250
 10
452.229
 20
256.221
 30
0.0
 11
452.607
 21
263.148
 31
0.0
  0
LINE
  8
0
 62
     250
 10
452.607
 20
263.148
 30
0.0
 11
452.96
 21
269.594
 31
0.0
  0
LINE
  8
0
 62
     250
 10
452.96
 20
269.594
 30
0.0
 11
453.277
 21
275.441
 31
0.0
  0
LINE
  8
0
 62
     250
 10
453.277
 20
275.441
 30
0.0
 11
453.556
 21
280.566
 31
0.0
  0
LINE
  8
0
 62
     250
 10
453.556
 20
280.566
 30
0.0
 11
453.796
 21
284.849
 31
0.0
  0
LINE
  8
0
 62
     250
 10
453.796
 20
284.849
 30
0.0
 11
453.94
 21
287.339
 31
0.0
  0
LINE
  8
0
 62
     250
 10
453.94
 20
287.339
 30
0.0
 11
453.993
 21
288.168
 31
0.0
  0
LINE
  8
0
 62
     250
 10
453.993
 20
288.168
 30
0.0
 11
454.081
 21
289.607
 31
0.0
  0
LINE
  8
0
 62
     250
 10
454.081
 20
289.607
 30
0.0
 11
454.445
 21
293.916
 31
0.0
  0
LINE
  8
0
 62
     250
 10
454.445
 20
293.916
 30
0.0
 11
455.069
 21
299.846
 31
0.0
  0
LINE
  8
0
 62
     250
 10
455.069
 20
299.846
 30
0.0
 11
455.792
 21
305.778
 31
0.0
  0
LINE
  8
0
 62
     250
 10
455.792
 20
305.778
 30
0.0
 11
456.544
 21
311.533
 31
0.0
  0
LINE
  8
0
 62
     250
 10
456.544
 20
311.533
 30
0.0
 11
457.253
 21
316.928
 31
0.0
  0
LINE
  8
0
 62
     250
 10
457.253
 20
316.928
 30
0.0
 11
457.849
 21
321.784
 31
0.0
  0
LINE
  8
0
 62
     250
 10
457.849
 20
321.784
 30
0.0
 11
458.255
 21
325.923
 31
0.0
  0
LINE
  8
0
 62
     250
 10
458.255
 20
325.923
 30
0.0
 11
458.41
 21
328.351
 31
0.0
  0
LINE
  8
0
 62
     250
 10
458.41
 20
328.351
 30
0.0
 11
458.41
 21
329.16
 31
0.0
  0
LINE
  8
0
 62
     250
 10
1038.01
 20
22.8534
 30
0.0
 11
1039.84
 21
22.7073
 31
0.0
  0
LINE
  8
0
 62
     250
 10
1039.84
 20
22.7073
 30
0.0
 11
1045.35
 21
22.2856
 31
0.0
  0
LINE
  8
0
 62
     250
 10
1045.35
 20
22.2856
 30
0.0
 11
1052.7
 21
21.7606
 31
0.0
  0
LINE
  8
0
 62
     250
 10
1052.7
 20
21.7606
 30
0.0
 11
1059.96
 21
21.2893
 31
0.0
  0
LINE
  8
0
 62
     250
 10
1059.96
 20
21.2893
 30
0.0
 11
1067
 21
20.88
 31
0.0
  0
LINE
  8
0
 62
     250
 10
1067
 20
20.88
 30
0.0
 11
1073.72
 21
20.5438
 31
0.0
  0
LINE
  8
0
 62
     250
 10
1073.72
 20
20.5438
 30
0.0
 11
1080.01
 21
20.2916
 31
0.0
  0
LINE
  8
0
 62
     250
 10
1080.01
 20
20.2916
 30
0.0
 11
1085.74
 21
20.1331
 31
0.0
  0
LINE
  8
0
 62
     250
 10
1085.74
 20
20.1331
 30
0.0
 11
1089.54
 21
20.0767
 31
0.0
  0
LINE
  8
0
 62
     250
 10
1089.54
 20
20.0767
 30
0.0
 11
1090.8
 21
20.0767
 31
0.0
  0
LINE
  8
0
 62
     250
 10
1090.8
 20
20.0767
 30
0.0
 11
1092.09
 21
20.0767
 31
0.0
  0
LINE
  8
0
 62
     250
 10
1092.09
 20
20.0767
 30
0.0
 11
1095.96
 21
20.1607
 31
0.0
  0
LINE
  8
0
 62
     250
 10
1095.96
 20
20.1607
 30
0.0
 11
1102
 21
20.4074
 31
0.0
  0
LINE
  8
0
 62
     250
 10
1102
 20
20.4074
 30
0.0
 11
1108.84
 21
20.8098
 31
0.0
  0
LINE
  8
0
 62
     250
 10
1108.84
 20
20.8098
 30
0.0
 11
1116.4
 21
21.3582
 31
0.0
  0
LINE
  8
0
 62
     250
 10
1116.4
 20
21.3582
 30
0.0
 11
1124.6
 21
22.0445
 31
0.0
  0
LINE
  8
0
 62
     250
 10
1124.6
 20
22.0445
 30
0.0
 11
1133.35
 21
22.863
 31
0.0
  0
LINE
  8
0
 62
     250
 10
1133.35
 20
22.863
 30
0.0
 11
1142.58
 21
23.8042
 31
0.0
  0
LINE
  8
0
 62
     250
 10
1142.58
 20
23.8042
 30
0.0
 11
1152.2
 21
24.8598
 31
0.0
  0
LINE
  8
0
 62
     250
 10
1152.2
 20
24.8598
 30
0.0
 11
1162.13
 21
26.0242
 31
0.0
  0
LINE
  8
0
 62
     250
 10
1162.13
 20
26.0242
 30
0.0
 11
1172.29
 21
27.2866
 31
0.0
  0
LINE
  8
0
 62
     250
 10
1172.29
 20
27.2866
 30
0.0
 11
1182.61
 21
28.6411
 31
0.0
  0
LINE
  8
0
 62
     250
 10
1182.61
 20
28.6411
 30
0.0
 11
1193
 21
30.0784
 31
0.0
  0
LINE
  8
0
 62
     250
 10
1193
 20
30.0784
 30
0.0
 11
1203.37
 21
31.5902
 31
0.0
  0
LINE
  8
0
 62
     250
 10
1203.37
 20
31.5902
 30
0.0
 11
1213.65
 21
33.1707
 31
0.0
  0
LINE
  8
0
 62
     250
 10
1213.65
 20
33.1707
 30
0.0
 11
1223.75
 21
34.8106
 31
0.0
  0
LINE
  8
0
 62
     250
 10
1223.75
 20
34.8106
 30
0.0
 11
1231.15
 21
36.0673
 31
0.0
  0
LINE
  8
0
 62
     250
 10
1231.15
 20
36.0673
 30
0.0
 11
1233.61
 21
36.5016
 31
0.0
  0
LINE
  8
0
 62
     250
 10
1233.61
 20
36.5016
 30
0.0
 11
1236.1
 21
36.9425
 31
0.0
  0
LINE
  8
0
 62
     250
 10
1236.1
 20
36.9425
 30
0.0
 11
1243.57
 21
38.3438
 31
0.0
  0
LINE
  8
0
 62
     250
 10
1243.57
 20
38.3438
 30
0.0
 11
1253.96
 21
40.4096
 31
0.0
  0
LINE
  8
0
 62
     250
 10
1253.96
 20
40.4096
 30
0.0
 11
1264.66
 21
42.6586
 31
0.0
  0
LINE
  8
0
 62
     250
 10
1264.66
 20
42.6586
 30
0.0
 11
1275.5
 21
45.0465
 31
0.0
  0
LINE
  8
0
 62
     250
 10
1275.5
 20
45.0465
 30
0.0
 11
1286.35
 21
47.5354
 31
0.0
  0
LINE
  8
0
 62
     250
 10
1286.35
 20
47.5354
 30
0.0
 11
1297.08
 21
50.0793
 31
0.0
  0
LINE
  8
0
 62
     250
 10
1297.08
 20
50.0793
 30
0.0
 11
1307.53
 21
52.6369
 31
0.0
  0
LINE
  8
0
 62
     250
 10
1307.53
 20
52.6369
 30
0.0
 11
1317.57
 21
55.167
 31
0.0
  0
LINE
  8
0
 62
     250
 10
1317.57
 20
55.167
 30
0.0
 11
1327.05
 21
57.627
 31
0.0
  0
LINE
  8
0
 62
     250
 10
1327.05
 20
57.627
 30
0.0
 11
1335.83
 21
59.975
 31
0.0
  0
LINE
  8
0
 62
     250
 10
1335.83
 20
59.975
 30
0.0
 11
1343.77
 21
62.169
 31
0.0
  0
LINE
  8
0
 62
     250
 10
1343.77
 20
62.169
 30
0.0
 11
1350.73
 21
64.1671
 31
0.0
  0
LINE
  8
0
 62
     250
 10
1350.73
 20
64.1671
 30
0.0
 11
1356.57
 21
65.9268
 31
0.0
  0
LINE
  8
0
 62
     250
 10
1356.57
 20
65.9268
 30
0.0
 11
1361.14
 21
67.4053
 31
0.0
  0
LINE
  8
0
 62
     250
 10
1361.14
 20
67.4053
 30
0.0
 11
1364.3
 21
68.5602
 31
0.0
  0
LINE
  8
0
 62
     250
 10
1364.3
 20
68.5602
 30
0.0
 11
1365.57
 21
69.0866
 31
0.0
  0
LINE
  8
0
 62
     250
 10
1365.57
 20
69.0866
 30
0.0
 11
1365.92
 21
69.3512
 31
0.0
  0
LINE
  8
0
 62
     250
 10
1365.92
 20
69.3512
 30
0.0
 11
1366.35
 21
69.675
 31
0.0
  0
LINE
  8
0
 62
     250
 10
1366.35
 20
69.675
 30
0.0
 11
1367.54
 21
70.7842
 31
0.0
  0
LINE
  8
0
 62
     250
 10
1367.54
 20
70.7842
 30
0.0
 11
1369.2
 21
72.7258
 31
0.0
  0
LINE
  8
0
 62
     250
 10
1369.2
 20
72.7258
 30
0.0
 11
1370.84
 21
75.2147
 31
0.0
  0
LINE
  8
0
 62
     250
 10
1370.84
 20
75.2147
 30
0.0
 11
1372.41
 21
78.2877
 31
0.0
  0
LINE
  8
0
 62
     250
 10
1372.41
 20
78.2877
 30
0.0
 11
1373.85
 21
81.981
 31
0.0
  0
LINE
  8
0
 62
     250
 10
1373.85
 20
81.981
 30
0.0
 11
1375.13
 21
86.3342
 31
0.0
  0
LINE
  8
0
 62
     250
 10
1375.13
 20
86.3342
 30
0.0
 11
1376.19
 21
91.3818
 31
0.0
  0
LINE
  8
0
 62
     250
 10
1376.19
 20
91.3818
 30
0.0
 11
1376.82
 21
95.7118
 31
0.0
  0
LINE
  8
0
 62
     250
 10
1376.82
 20
95.7118
 30
0.0
 11
1376.96
 21
97.1614
 31
0.0
  0
LINE
  8
0
 62
     250
 10
1376.96
 20
97.1614
 30
0.0
 11
1377.06
 21
98.1287
 31
0.0
  0
LINE
  8
0
 62
     250
 10
1377.06
 20
98.1287
 30
0.0
 11
1377.32
 21
101.035
 31
0.0
  0
LINE
  8
0
 62
     250
 10
1377.32
 20
101.035
 30
0.0
 11
1377.77
 21
106.473
 31
0.0
  0
LINE
  8
0
 62
     250
 10
1377.77
 20
106.473
 30
0.0
 11
1378.29
 21
113.44
 31
0.0
  0
LINE
  8
0
 62
     250
 10
1378.29
 20
113.44
 30
0.0
 11
1378.87
 21
121.906
 31
0.0
  0
LINE
  8
0
 62
     250
 10
1378.87
 20
121.906
 30
0.0
 11
1379.49
 21
131.836
 31
0.0
  0
LINE
  8
0
 62
     250
 10
1379.49
 20
131.836
 30
0.0
 11
1380.13
 21
143.195
 31
0.0
  0
LINE
  8
0
 62
     250
 10
1380.13
 20
143.195
 30
0.0
 11
1380.79
 21
155.951
 31
0.0
  0
LINE
  8
0
 62
     250
 10
1380.79
 20
155.951
 30
0.0
 11
1381.45
 21
170.071
 31
0.0
  0
LINE
  8
0
 62
     250
 10
1381.45
 20
170.071
 30
0.0
 11
1382.08
 21
185.52
 31
0.0
  0
LINE
  8
0
 62
     250
 10
1382.08
 20
185.52
 30
0.0
 11
1382.68
 21
202.266
 31
0.0
  0
LINE
  8
0
 62
     250
 10
1382.68
 20
202.266
 30
0.0
 11
1383.23
 21
220.275
 31
0.0
  0
LINE
  8
0
 62
     250
 10
1383.23
 20
220.275
 30
0.0
 11
1383.71
 21
239.513
 31
0.0
  0
LINE
  8
0
 62
     250
 10
1383.71
 20
239.513
 30
0.0
 11
1384.12
 21
259.946
 31
0.0
  0
LINE
  8
0
 62
     250
 10
1384.12
 20
259.946
 30
0.0
 11
1384.43
 21
281.543
 31
0.0
  0
LINE
  8
0
 62
     250
 10
1384.43
 20
281.543
 30
0.0
 11
1384.62
 21
304.268
 31
0.0
  0
LINE
  8
0
 62
     250
 10
1384.62
 20
304.268
 30
0.0
 11
1384.69
 21
322.133
 31
0.0
  0
LINE
  8
0
 62
     250
 10
1384.69
 20
322.133
 30
0.0
 11
1384.69
 21
328.088
 31
0.0
  0
LINE
  8
0
 62
     250
 10
1384.69
 20
328.088
 30
0.0
 11
1384.69
 21
330.233
 31
0.0
  0
LINE
  8
0
 62
     250
 10
1384.69
 20
330.233
 30
0.0
 11
1384.69
 21
336.189
 31
0.0
  0
LINE
  8
0
 62
     250
 10
1384.69
 20
336.189
 30
0.0
 11
1384.62
 21
354.055
 31
0.0
  0
LINE
  8
0
 62
     250
 10
1384.62
 20
354.055
 30
0.0
 11
1384.43
 21
376.781
 31
0.0
  0
LINE
  8
0
 62
     250
 10
1384.43
 20
376.781
 30
0.0
 11
1384.12
 21
398.374
 31
0.0
  0
LINE
  8
0
 62
     250
 10
1384.12
 20
398.374
 30
0.0
 11
1383.71
 21
418.811
 31
0.0
  0
LINE
  8
0
 62
     250
 10
1383.71
 20
418.811
 30
0.0
 11
1383.23
 21
438.048
 31
0.0
  0
LINE
  8
0
 62
     250
 10
1383.23
 20
438.048
 30
0.0
 11
1382.68
 21
456.057
 31
0.0
  0
LINE
  8
0
 62
     250
 10
1382.68
 20
456.057
 30
0.0
 11
1382.08
 21
472.803
 31
0.0
  0
LINE
  8
0
 62
     250
 10
1382.08
 20
472.803
 30
0.0
 11
1381.45
 21
488.252
 31
0.0
  0
LINE
  8
0
 62
     250
 10
1381.45
 20
488.252
 30
0.0
 11
1380.79
 21
502.373
 31
0.0
  0
LINE
  8
0
 62
     250
 10
1380.79
 20
502.373
 30
0.0
 11
1380.13
 21
515.126
 31
0.0
  0
LINE
  8
0
 62
     250
 10
1380.13
 20
515.126
 30
0.0
 11
1379.49
 21
526.489
 31
0.0
  0
LINE
  8
0
 62
     250
 10
1379.49
 20
526.489
 30
0.0
 11
1378.87
 21
536.416
 31
0.0
  0
LINE
  8
0
 62
     250
 10
1378.87
 20
536.416
 30
0.0
 11
1378.29
 21
544.883
 31
0.0
  0
LINE
  8
0
 62
     250
 10
1378.29
 20
544.883
 30
0.0
 11
1377.77
 21
551.85
 31
0.0
  0
LINE
  8
0
 62
     250
 10
1377.77
 20
551.85
 30
0.0
 11
1377.32
 21
557.287
 31
0.0
  0
LINE
  8
0
 62
     250
 10
1377.32
 20
557.287
 30
0.0
 11
1377.06
 21
560.193
 31
0.0
  0
LINE
  8
0
 62
     250
 10
1377.06
 20
560.193
 30
0.0
 11
1376.96
 21
561.16
 31
0.0
  0
LINE
  8
0
 62
     250
 10
1376.96
 20
561.16
 30
0.0
 11
1376.82
 21
562.61
 31
0.0
  0
LINE
  8
0
 62
     250
 10
1376.82
 20
562.61
 30
0.0
 11
1376.19
 21
566.939
 31
0.0
  0
LINE
  8
0
 62
     250
 10
1376.19
 20
566.939
 30
0.0
 11
1375.13
 21
571.987
 31
0.0
  0
LINE
  8
0
 62
     250
 10
1375.13
 20
571.987
 30
0.0
 11
1373.85
 21
576.34
 31
0.0
  0
LINE
  8
0
 62
     250
 10
1373.85
 20
576.34
 30
0.0
 11
1372.41
 21
580.034
 31
0.0
  0
LINE
  8
0
 62
     250
 10
1372.41
 20
580.034
 30
0.0
 11
1370.84
 21
583.106
 31
0.0
  0
LINE
  8
0
 62
     250
 10
1370.84
 20
583.106
 30
0.0
 11
1369.2
 21
585.597
 31
0.0
  0
LINE
  8
0
 62
     250
 10
1369.2
 20
585.597
 30
0.0
 11
1367.54
 21
587.537
 31
0.0
  0
LINE
  8
0
 62
     250
 10
1367.54
 20
587.537
 30
0.0
 11
1366.35
 21
588.649
 31
0.0
  0
LINE
  8
0
 62
     250
 10
1366.35
 20
588.649
 30
0.0
 11
1365.92
 21
588.97
 31
0.0
  0
LINE
  8
0
 62
     250
 10
1365.92
 20
588.97
 30
0.0
 11
1365.57
 21
589.234
 31
0.0
  0
LINE
  8
0
 62
     250
 10
1365.57
 20
589.234
 30
0.0
 11
1364.3
 21
589.763
 31
0.0
  0
LINE
  8
0
 62
     250
 10
1364.3
 20
589.763
 30
0.0
 11
1361.14
 21
590.917
 31
0.0
  0
LINE
  8
0
 62
     250
 10
1361.14
 20
590.917
 30
0.0
 11
1356.57
 21
592.395
 31
0.0
  0
LINE
  8
0
 62
     250
 10
1356.57
 20
592.395
 30
0.0
 11
1350.73
 21
594.155
 31
0.0
  0
LINE
  8
0
 62
     250
 10
1350.73
 20
594.155
 30
0.0
 11
1343.77
 21
596.152
 31
0.0
  0
LINE
  8
0
 62
     250
 10
1343.77
 20
596.152
 30
0.0
 11
1335.83
 21
598.346
 31
0.0
  0
LINE
  8
0
 62
     250
 10
1335.83
 20
598.346
 30
0.0
 11
1327.05
 21
600.696
 31
0.0
  0
LINE
  8
0
 62
     250
 10
1327.05
 20
600.696
 30
0.0
 11
1317.57
 21
603.155
 31
0.0
  0
LINE
  8
0
 62
     250
 10
1317.57
 20
603.155
 30
0.0
 11
1307.53
 21
605.684
 31
0.0
  0
LINE
  8
0
 62
     250
 10
1307.53
 20
605.684
 30
0.0
 11
1297.08
 21
608.245
 31
0.0
  0
LINE
  8
0
 62
     250
 10
1297.08
 20
608.245
 30
0.0
 11
1286.35
 21
610.789
 31
0.0
  0
LINE
  8
0
 62
     250
 10
1286.35
 20
610.789
 30
0.0
 11
1275.5
 21
613.276
 31
0.0
  0
LINE
  8
0
 62
     250
 10
1275.5
 20
613.276
 30
0.0
 11
1264.66
 21
615.664
 31
0.0
  0
LINE
  8
0
 62
     250
 10
1264.66
 20
615.664
 30
0.0
 11
1253.96
 21
617.911
 31
0.0
  0
LINE
  8
0
 62
     250
 10
1253.96
 20
617.911
 30
0.0
 11
1243.57
 21
619.979
 31
0.0
  0
LINE
  8
0
 62
     250
 10
1243.57
 20
619.979
 30
0.0
 11
1236.1
 21
621.379
 31
0.0
  0
LINE
  8
0
 62
     250
 10
1236.1
 20
621.379
 30
0.0
 11
1233.61
 21
621.82
 31
0.0
  0
LINE
  8
0
 62
     250
 10
1233.61
 20
621.82
 30
0.0
 11
1231.15
 21
622.254
 31
0.0
  0
LINE
  8
0
 62
     250
 10
1231.15
 20
622.254
 30
0.0
 11
1223.75
 21
623.51
 31
0.0
  0
LINE
  8
0
 62
     250
 10
1223.75
 20
623.51
 30
0.0
 11
1213.65
 21
625.15
 31
0.0
  0
LINE
  8
0
 62
     250
 10
1213.65
 20
625.15
 30
0.0
 11
1203.37
 21
626.731
 31
0.0
  0
LINE
  8
0
 62
     250
 10
1203.37
 20
626.731
 30
0.0
 11
1193
 21
628.244
 31
0.0
  0
LINE
  8
0
 62
     250
 10
1193
 20
628.244
 30
0.0
 11
1182.61
 21
629.68
 31
0.0
  0
LINE
  8
0
 62
     250
 10
1182.61
 20
629.68
 30
0.0
 11
1172.29
 21
631.035
 31
0.0
  0
LINE
  8
0
 62
     250
 10
1172.29
 20
631.035
 30
0.0
 11
1162.13
 21
632.298
 31
0.0
  0
LINE
  8
0
 62
     250
 10
1162.13
 20
632.298
 30
0.0
 11
1152.2
 21
633.462
 31
0.0
  0
LINE
  8
0
 62
     250
 10
1152.2
 20
633.462
 30
0.0
 11
1142.58
 21
634.517
 31
0.0
  0
LINE
  8
0
 62
     250
 10
1142.58
 20
634.517
 30
0.0
 11
1133.35
 21
635.459
 31
0.0
  0
LINE
  8
0
 62
     250
 10
1133.35
 20
635.459
 30
0.0
 11
1124.6
 21
636.277
 31
0.0
  0
LINE
  8
0
 62
     250
 10
1124.6
 20
636.277
 30
0.0
 11
1116.4
 21
636.965
 31
0.0
  0
LINE
  8
0
 62
     250
 10
1116.4
 20
636.965
 30
0.0
 11
1108.84
 21
637.512
 31
0.0
  0
LINE
  8
0
 62
     250
 10
1108.84
 20
637.512
 30
0.0
 11
1102
 21
637.914
 31
0.0
  0
LINE
  8
0
 62
     250
 10
1102
 20
637.914
 30
0.0
 11
1095.96
 21
638.161
 31
0.0
  0
LINE
  8
0
 62
     250
 10
1095.96
 20
638.161
 30
0.0
 11
1092.09
 21
638.246
 31
0.0
  0
LINE
  8
0
 62
     250
 10
1092.09
 20
638.246
 30
0.0
 11
1090.8
 21
638.246
 31
0.0
  0
LINE
  8
0
 62
     250
 10
1090.8
 20
638.246
 30
0.0
 11
1089.52
 21
638.246
 31
0.0
  0
LINE
  8
0
 62
     250
 10
1089.52
 20
638.246
 30
0.0
 11
1085.68
 21
638.189
 31
0.0
  0
LINE
  8
0
 62
     250
 10
1085.68
 20
638.189
 30
0.0
 11
1079.89
 21
638.027
 31
0.0
  0
LINE
  8
0
 62
     250
 10
1079.89
 20
638.027
 30
0.0
 11
1073.53
 21
637.769
 31
0.0
  0
LINE
  8
0
 62
     250
 10
1073.53
 20
637.769
 30
0.0
 11
1066.73
 21
637.427
 31
0.0
  0
LINE
  8
0
 62
     250
 10
1066.73
 20
637.427
 30
0.0
 11
1059.6
 21
637.011
 31
0.0
  0
LINE
  8
0
 62
     250
 10
1059.6
 20
637.011
 30
0.0
 11
1052.27
 21
636.531
 31
0.0
  0
LINE
  8
0
 62
     250
 10
1052.27
 20
636.531
 30
0.0
 11
1044.84
 21
635.998
 31
0.0
  0
LINE
  8
0
 62
     250
 10
1044.84
 20
635.998
 30
0.0
 11
1039.29
 21
635.572
 31
0.0
  0
LINE
  8
0
 62
     250
 10
1039.29
 20
635.572
 30
0.0
 11
1037.44
 21
635.42
 31
0.0
  0
LINE
  8
0
 62
     250
 10
486.347
 20
68.0819
 30
0.0
 11
485.503
 21
67.6257
 31
0.0
  0
LINE
  8
0
 62
     250
 10
485.503
 20
67.6257
 30
0.0
 11
482.847
 21
66.4905
 31
0.0
  0
LINE
  8
0
 62
     250
 10
482.847
 20
66.4905
 30
0.0
 11
478.667
 21
65.0946
 31
0.0
  0
LINE
  8
0
 62
     250
 10
478.667
 20
65.0946
 30
0.0
 11
473.908
 21
63.8888
 31
0.0
  0
LINE
  8
0
 62
     250
 10
473.908
 20
63.8888
 30
0.0
 11
468.679
 21
62.8618
 31
0.0
  0
LINE
  8
0
 62
     250
 10
468.679
 20
62.8618
 30
0.0
 11
463.095
 21
62.0088
 31
0.0
  0
LINE
  8
0
 62
     250
 10
463.095
 20
62.0088
 30
0.0
 11
457.253
 21
61.3212
 31
0.0
  0
LINE
  8
0
 62
     250
 10
457.253
 20
61.3212
 30
0.0
 11
451.27
 21
60.7907
 31
0.0
  0
LINE
  8
0
 62
     250
 10
451.27
 20
60.7907
 30
0.0
 11
446.754
 21
60.4862
 31
0.0
  0
LINE
  8
0
 62
     250
 10
446.754
 20
60.4862
 30
0.0
 11
445.251
 21
60.409
 31
0.0
  0
LINE
  8
0
 62
     250
 10
445.251
 20
60.409
 30
0.0
 11
444.186
 21
60.3553
 31
0.0
  0
LINE
  8
0
 62
     250
 10
444.186
 20
60.3553
 30
0.0
 11
440.99
 21
60.2601
 31
0.0
  0
LINE
  8
0
 62
     250
 10
440.99
 20
60.2601
 30
0.0
 11
436.347
 21
60.2396
 31
0.0
  0
LINE
  8
0
 62
     250
 10
436.347
 20
60.2396
 30
0.0
 11
431.26
 21
60.3596
 31
0.0
  0
LINE
  8
0
 62
     250
 10
431.26
 20
60.3596
 30
0.0
 11
425.676
 21
60.628
 31
0.0
  0
LINE
  8
0
 62
     250
 10
425.676
 20
60.628
 30
0.0
 11
419.534
 21
61.0581
 31
0.0
  0
LINE
  8
0
 62
     250
 10
419.534
 20
61.0581
 30
0.0
 11
412.782
 21
61.6589
 31
0.0
  0
LINE
  8
0
 62
     250
 10
412.782
 20
61.6589
 30
0.0
 11
405.356
 21
62.4431
 31
0.0
  0
LINE
  8
0
 62
     250
 10
405.356
 20
62.4431
 30
0.0
 11
397.21
 21
63.4189
 31
0.0
  0
LINE
  8
0
 62
     250
 10
397.21
 20
63.4189
 30
0.0
 11
388.278
 21
64.5982
 31
0.0
  0
LINE
  8
0
 62
     250
 10
388.278
 20
64.5982
 30
0.0
 11
378.509
 21
65.9917
 31
0.0
  0
LINE
  8
0
 62
     250
 10
378.509
 20
65.9917
 30
0.0
 11
367.845
 21
67.6106
 31
0.0
  0
LINE
  8
0
 62
     250
 10
367.845
 20
67.6106
 30
0.0
 11
356.228
 21
69.4641
 31
0.0
  0
LINE
  8
0
 62
     250
 10
356.228
 20
69.4641
 30
0.0
 11
343.603
 21
71.5641
 31
0.0
  0
LINE
  8
0
 62
     250
 10
343.603
 20
71.5641
 30
0.0
 11
329.912
 21
73.9207
 31
0.0
  0
LINE
  8
0
 62
     250
 10
329.912
 20
73.9207
 30
0.0
 11
315.099
 21
76.5447
 31
0.0
  0
LINE
  8
0
 62
     250
 10
315.099
 20
76.5447
 30
0.0
 11
303.105
 21
78.715
 31
0.0
  0
LINE
  8
0
 62
     250
 10
303.105
 20
78.715
 30
0.0
 11
299.11
 21
79.4466
 31
0.0
  0
LINE
  8
0
 62
     250
 10
299.11
 20
79.4466
 30
0.0
 11
295.035
 21
80.1949
 31
0.0
  0
LINE
  8
0
 62
     250
 10
295.035
 20
80.1949
 30
0.0
 11
282.819
 21
82.477
 31
0.0
  0
LINE
  8
0
 62
     250
 10
282.819
 20
82.477
 30
0.0
 11
267.162
 21
85.4714
 31
0.0
  0
LINE
  8
0
 62
     250
 10
267.162
 20
85.4714
 30
0.0
 11
252.16
 21
88.4192
 31
0.0
  0
LINE
  8
0
 62
     250
 10
252.16
 20
88.4192
 30
0.0
 11
237.84
 21
91.3102
 31
0.0
  0
LINE
  8
0
 62
     250
 10
237.84
 20
91.3102
 30
0.0
 11
224.223
 21
94.1366
 31
0.0
  0
LINE
  8
0
 62
     250
 10
224.223
 20
94.1366
 30
0.0
 11
211.335
 21
96.8886
 31
0.0
  0
LINE
  8
0
 62
     250
 10
211.335
 20
96.8886
 30
0.0
 11
199.197
 21
99.5535
 31
0.0
  0
LINE
  8
0
 62
     250
 10
199.197
 20
99.5535
 30
0.0
 11
187.835
 21
102.124
 31
0.0
  0
LINE
  8
0
 62
     250
 10
187.835
 20
102.124
 30
0.0
 11
177.271
 21
104.59
 31
0.0
  0
LINE
  8
0
 62
     250
 10
177.271
 20
104.59
 30
0.0
 11
167.53
 21
106.94
 31
0.0
  0
LINE
  8
0
 62
     250
 10
167.53
 20
106.94
 30
0.0
 11
158.634
 21
109.167
 31
0.0
  0
LINE
  8
0
 62
     250
 10
158.634
 20
109.167
 30
0.0
 11
150.609
 21
111.259
 31
0.0
  0
LINE
  8
0
 62
     250
 10
150.609
 20
111.259
 30
0.0
 11
143.476
 21
113.206
 31
0.0
  0
LINE
  8
0
 62
     250
 10
143.476
 20
113.206
 30
0.0
 11
137.259
 21
114.999
 31
0.0
  0
LINE
  8
0
 62
     250
 10
137.259
 20
114.999
 30
0.0
 11
131.986
 21
116.628
 31
0.0
  0
LINE
  8
0
 62
     250
 10
131.986
 20
116.628
 30
0.0
 11
128.746
 21
117.7
 31
0.0
  0
LINE
  8
0
 62
     250
 10
128.746
 20
117.7
 30
0.0
 11
127.675
 21
118.081
 31
0.0
  0
LINE
  8
0
 62
     250
 10
127.675
 20
118.081
 30
0.0
 11
125.888
 21
118.719
 31
0.0
  0
LINE
  8
0
 62
     250
 10
125.888
 20
118.719
 30
0.0
 11
120.519
 21
120.61
 31
0.0
  0
LINE
  8
0
 62
     250
 10
120.519
 20
120.61
 30
0.0
 11
114.293
 21
122.877
 31
0.0
  0
LINE
  8
0
 62
     250
 10
114.293
 20
122.877
 30
0.0
 11
108.94
 21
125.09
 31
0.0
  0
LINE
  8
0
 62
     250
 10
108.94
 20
125.09
 30
0.0
 11
104.401
 21
127.462
 31
0.0
  0
LINE
  8
0
 62
     250
 10
104.401
 20
127.462
 30
0.0
 11
100.622
 21
130.2
 31
0.0
  0
LINE
  8
0
 62
     250
 10
100.622
 20
130.2
 30
0.0
 11
97.5402
 21
133.515
 31
0.0
  0
LINE
  8
0
 62
     250
 10
97.5402
 20
133.515
 30
0.0
 11
95.1025
 21
137.619
 31
0.0
  0
LINE
  8
0
 62
     250
 10
95.1025
 20
137.619
 30
0.0
 11
93.6114
 21
141.417
 31
0.0
  0
LINE
  8
0
 62
     250
 10
93.6114
 20
141.417
 30
0.0
 11
93.249
 21
142.719
 31
0.0
  0
LINE
  8
0
 62
     250
 10
93.249
 20
142.719
 30
0.0
 11
92.8328
 21
144.21
 31
0.0
  0
LINE
  8
0
 62
     250
 10
92.8328
 20
144.21
 30
0.0
 11
91.8863
 21
148.767
 31
0.0
  0
LINE
  8
0
 62
     250
 10
91.8863
 20
148.767
 30
0.0
 11
90.9204
 21
155.615
 31
0.0
  0
LINE
  8
0
 62
     250
 10
90.9204
 20
155.615
 30
0.0
 11
90.2836
 21
163.329
 31
0.0
  0
LINE
  8
0
 62
     250
 10
90.2836
 20
163.329
 30
0.0
 11
89.91
 21
171.976
 31
0.0
  0
LINE
  8
0
 62
     250
 10
89.91
 20
171.976
 30
0.0
 11
89.735
 21
181.62
 31
0.0
  0
LINE
  8
0
 62
     250
 10
89.735
 20
181.62
 30
0.0
 11
89.6909
 21
192.326
 31
0.0
  0
LINE
  8
0
 62
     250
 10
89.6909
 20
192.326
 30
0.0
 11
89.7132
 21
204.162
 31
0.0
  0
LINE
  8
0
 62
     250
 10
89.7132
 20
204.162
 30
0.0
 11
89.735
 21
213.934
 31
0.0
  0
LINE
  8
0
 62
     250
 10
89.735
 20
213.934
 30
0.0
 11
89.735
 21
217.19
 31
0.0
  0
LINE
  8
0
 62
     250
 10
89.735
 20
217.19
 30
0.0
 11
89.735
 21
218.94
 31
0.0
  0
LINE
  8
0
 62
     250
 10
89.735
 20
218.94
 30
0.0
 11
89.8137
 21
224.187
 31
0.0
  0
LINE
  8
0
 62
     250
 10
89.8137
 20
224.187
 30
0.0
 11
90.037
 21
231.487
 31
0.0
  0
LINE
  8
0
 62
     250
 10
90.037
 20
231.487
 30
0.0
 11
90.3827
 21
239.021
 31
0.0
  0
LINE
  8
0
 62
     250
 10
90.3827
 20
239.021
 30
0.0
 11
90.8322
 21
246.723
 31
0.0
  0
LINE
  8
0
 62
     250
 10
90.8322
 20
246.723
 30
0.0
 11
91.3638
 21
254.528
 31
0.0
  0
LINE
  8
0
 62
     250
 10
91.3638
 20
254.528
 30
0.0
 11
91.9579
 21
262.368
 31
0.0
  0
LINE
  8
0
 62
     250
 10
91.9579
 20
262.368
 30
0.0
 11
92.5918
 21
270.177
 31
0.0
  0
LINE
  8
0
 62
     250
 10
92.5918
 20
270.177
 30
0.0
 11
93.2476
 21
277.888
 31
0.0
  0
LINE
  8
0
 62
     250
 10
93.2476
 20
277.888
 30
0.0
 11
93.9038
 21
285.436
 31
0.0
  0
LINE
  8
0
 62
     250
 10
93.9038
 20
285.436
 30
0.0
 11
94.5374
 21
292.753
 31
0.0
  0
LINE
  8
0
 62
     250
 10
94.5374
 20
292.753
 30
0.0
 11
95.1315
 21
299.773
 31
0.0
  0
LINE
  8
0
 62
     250
 10
95.1315
 20
299.773
 30
0.0
 11
95.6635
 21
306.43
 31
0.0
  0
LINE
  8
0
 62
     250
 10
95.6635
 20
306.43
 30
0.0
 11
96.1125
 21
312.656
 31
0.0
  0
LINE
  8
0
 62
     250
 10
96.1125
 20
312.656
 30
0.0
 11
96.4586
 21
318.385
 31
0.0
  0
LINE
  8
0
 62
     250
 10
96.4586
 20
318.385
 30
0.0
 11
96.6819
 21
323.551
 31
0.0
  0
LINE
  8
0
 62
     250
 10
96.6819
 20
323.551
 30
0.0
 11
96.7617
 21
326.953
 31
0.0
  0
LINE
  8
0
 62
     250
 10
96.7617
 20
326.953
 30
0.0
 11
96.7617
 21
328.088
 31
0.0
  0
LINE
  8
0
 62
     250
 10
96.7617
 20
328.088
 30
0.0
 11
96.7617
 21
330.233
 31
0.0
  0
LINE
  8
0
 62
     250
 10
96.7617
 20
330.233
 30
0.0
 11
96.7617
 21
331.369
 31
0.0
  0
LINE
  8
0
 62
     250
 10
96.7617
 20
331.369
 30
0.0
 11
96.6819
 21
334.771
 31
0.0
  0
LINE
  8
0
 62
     250
 10
96.6819
 20
334.771
 30
0.0
 11
96.4586
 21
339.937
 31
0.0
  0
LINE
  8
0
 62
     250
 10
96.4586
 20
339.937
 30
0.0
 11
96.1125
 21
345.666
 31
0.0
  0
LINE
  8
0
 62
     250
 10
96.1125
 20
345.666
 30
0.0
 11
95.6635
 21
351.892
 31
0.0
  0
LINE
  8
0
 62
     250
 10
95.6635
 20
351.892
 30
0.0
 11
95.1315
 21
358.549
 31
0.0
  0
LINE
  8
0
 62
     250
 10
95.1315
 20
358.549
 30
0.0
 11
94.5374
 21
365.57
 31
0.0
  0
LINE
  8
0
 62
     250
 10
94.5374
 20
365.57
 30
0.0
 11
93.9038
 21
372.886
 31
0.0
  0
LINE
  8
0
 62
     250
 10
93.9038
 20
372.886
 30
0.0
 11
93.2476
 21
380.432
 31
0.0
  0
LINE
  8
0
 62
     250
 10
93.2476
 20
380.432
 30
0.0
 11
92.5918
 21
388.144
 31
0.0
  0
LINE
  8
0
 62
     250
 10
92.5918
 20
388.144
 30
0.0
 11
91.9579
 21
395.954
 31
0.0
  0
LINE
  8
0
 62
     250
 10
91.9579
 20
395.954
 30
0.0
 11
91.3638
 21
403.793
 31
0.0
  0
LINE
  8
0
 62
     250
 10
91.3638
 20
403.793
 30
0.0
 11
90.8322
 21
411.6
 31
0.0
  0
LINE
  8
0
 62
     250
 10
90.8322
 20
411.6
 30
0.0
 11
90.3827
 21
419.301
 31
0.0
  0
LINE
  8
0
 62
     250
 10
90.3827
 20
419.301
 30
0.0
 11
90.037
 21
426.836
 31
0.0
  0
LINE
  8
0
 62
     250
 10
90.037
 20
426.836
 30
0.0
 11
89.8137
 21
434.135
 31
0.0
  0
LINE
  8
0
 62
     250
 10
89.8137
 20
434.135
 30
0.0
 11
89.735
 21
439.381
 31
0.0
  0
LINE
  8
0
 62
     250
 10
89.735
 20
439.381
 30
0.0
 11
89.735
 21
441.131
 31
0.0
  0
LINE
  8
0
 62
     250
 10
89.735
 20
441.131
 30
0.0
 11
89.735
 21
444.387
 31
0.0
  0
LINE
  8
0
 62
     250
 10
89.735
 20
444.387
 30
0.0
 11
89.7132
 21
454.159
 31
0.0
  0
LINE
  8
0
 62
     250
 10
89.7132
 20
454.159
 30
0.0
 11
89.6909
 21
465.995
 31
0.0
  0
LINE
  8
0
 62
     250
 10
89.6909
 20
465.995
 30
0.0
 11
89.735
 21
476.702
 31
0.0
  0
LINE
  8
0
 62
     250
 10
89.735
 20
476.702
 30
0.0
 11
89.91
 21
486.347
 31
0.0
  0
LINE
  8
0
 62
     250
 10
89.91
 20
486.347
 30
0.0
 11
90.2836
 21
494.993
 31
0.0
  0
LINE
  8
0
 62
     250
 10
90.2836
 20
494.993
 30
0.0
 11
90.9204
 21
502.708
 31
0.0
  0
LINE
  8
0
 62
     250
 10
90.9204
 20
502.708
 30
0.0
 11
91.8863
 21
509.556
 31
0.0
  0
LINE
  8
0
 62
     250
 10
91.8863
 20
509.556
 30
0.0
 11
92.8328
 21
514.114
 31
0.0
  0
LINE
  8
0
 62
     250
 10
92.8328
 20
514.114
 30
0.0
 11
93.249
 21
515.602
 31
0.0
  0
LINE
  8
0
 62
     250
 10
93.249
 20
515.602
 30
0.0
 11
93.6114
 21
516.908
 31
0.0
  0
LINE
  8
0
 62
     250
 10
93.6114
 20
516.908
 30
0.0
 11
95.1025
 21
520.704
 31
0.0
  0
LINE
  8
0
 62
     250
 10
95.1025
 20
520.704
 30
0.0
 11
97.5402
 21
524.806
 31
0.0
  0
LINE
  8
0
 62
     250
 10
97.5402
 20
524.806
 30
0.0
 11
100.622
 21
528.122
 31
0.0
  0
LINE
  8
0
 62
     250
 10
100.622
 20
528.122
 30
0.0
 11
104.401
 21
530.86
 31
0.0
  0
LINE
  8
0
 62
     250
 10
104.401
 20
530.86
 30
0.0
 11
108.94
 21
533.231
 31
0.0
  0
LINE
  8
0
 62
     250
 10
108.94
 20
533.231
 30
0.0
 11
114.293
 21
535.446
 31
0.0
  0
LINE
  8
0
 62
     250
 10
114.293
 20
535.446
 30
0.0
 11
120.519
 21
537.711
 31
0.0
  0
LINE
  8
0
 62
     250
 10
120.519
 20
537.711
 30
0.0
 11
125.888
 21
539.602
 31
0.0
  0
LINE
  8
0
 62
     250
 10
125.888
 20
539.602
 30
0.0
 11
127.675
 21
540.24
 31
0.0
  0
LINE
  8
0
 62
     250
 10
127.675
 20
540.24
 30
0.0
 11
128.746
 21
540.621
 31
0.0
  0
LINE
  8
0
 62
     250
 10
128.746
 20
540.621
 30
0.0
 11
131.986
 21
541.694
 31
0.0
  0
LINE
  8
0
 62
     250
 10
131.986
 20
541.694
 30
0.0
 11
137.259
 21
543.324
 31
0.0
  0
LINE
  8
0
 62
     250
 10
137.259
 20
543.324
 30
0.0
 11
143.476
 21
545.116
 31
0.0
  0
LINE
  8
0
 62
     250
 10
143.476
 20
545.116
 30
0.0
 11
150.609
 21
547.063
 31
0.0
  0
LINE
  8
0
 62
     250
 10
150.609
 20
547.063
 30
0.0
 11
158.634
 21
549.155
 31
0.0
  0
LINE
  8
0
 62
     250
 10
158.634
 20
549.155
 30
0.0
 11
167.53
 21
551.381
 31
0.0
  0
LINE
  8
0
 62
     250
 10
167.53
 20
551.381
 30
0.0
 11
177.271
 21
553.734
 31
0.0
  0
LINE
  8
0
 62
     250
 10
177.271
 20
553.734
 30
0.0
 11
187.835
 21
556.2
 31
0.0
  0
LINE
  8
0
 62
     250
 10
187.835
 20
556.2
 30
0.0
 11
199.197
 21
558.768
 31
0.0
  0
LINE
  8
0
 62
     250
 10
199.197
 20
558.768
 30
0.0
 11
211.335
 21
561.435
 31
0.0
  0
LINE
  8
0
 62
     250
 10
211.335
 20
561.435
 30
0.0
 11
224.223
 21
564.187
 31
0.0
  0
LINE
  8
0
 62
     250
 10
224.223
 20
564.187
 30
0.0
 11
237.84
 21
567.013
 31
0.0
  0
LINE
  8
0
 62
     250
 10
237.84
 20
567.013
 30
0.0
 11
252.16
 21
569.905
 31
0.0
  0
LINE
  8
0
 62
     250
 10
252.16
 20
569.905
 30
0.0
 11
267.162
 21
572.851
 31
0.0
  0
LINE
  8
0
 62
     250
 10
267.162
 20
572.851
 30
0.0
 11
282.819
 21
575.846
 31
0.0
  0
LINE
  8
0
 62
     250
 10
282.819
 20
575.846
 30
0.0
 11
295.035
 21
578.129
 31
0.0
  0
LINE
  8
0
 62
     250
 10
295.035
 20
578.129
 30
0.0
 11
299.11
 21
578.877
 31
0.0
  0
LINE
  8
0
 62
     250
 10
299.11
 20
578.877
 30
0.0
 11
303.105
 21
579.607
 31
0.0
  0
LINE
  8
0
 62
     250
 10
303.105
 20
579.607
 30
0.0
 11
315.099
 21
581.776
 31
0.0
  0
LINE
  8
0
 62
     250
 10
315.099
 20
581.776
 30
0.0
 11
329.912
 21
584.401
 31
0.0
  0
LINE
  8
0
 62
     250
 10
329.912
 20
584.401
 30
0.0
 11
343.603
 21
586.758
 31
0.0
  0
LINE
  8
0
 62
     250
 10
343.603
 20
586.758
 30
0.0
 11
356.228
 21
588.857
 31
0.0
  0
LINE
  8
0
 62
     250
 10
356.228
 20
588.857
 30
0.0
 11
367.845
 21
590.712
 31
0.0
  0
LINE
  8
0
 62
     250
 10
367.845
 20
590.712
 30
0.0
 11
378.509
 21
592.332
 31
0.0
  0
LINE
  8
0
 62
     250
 10
378.509
 20
592.332
 30
0.0
 11
388.278
 21
593.725
 31
0.0
  0
LINE
  8
0
 62
     250
 10
388.278
 20
593.725
 30
0.0
 11
397.21
 21
594.903
 31
0.0
  0
LINE
  8
0
 62
     250
 10
397.21
 20
594.903
 30
0.0
 11
405.356
 21
595.88
 31
0.0
  0
LINE
  8
0
 62
     250
 10
405.356
 20
595.88
 30
0.0
 11
412.782
 21
596.664
 31
0.0
  0
LINE
  8
0
 62
     250
 10
412.782
 20
596.664
 30
0.0
 11
419.534
 21
597.263
 31
0.0
  0
LINE
  8
0
 62
     250
 10
419.534
 20
597.263
 30
0.0
 11
425.676
 21
597.694
 31
0.0
  0
LINE
  8
0
 62
     250
 10
425.676
 20
597.694
 30
0.0
 11
431.26
 21
597.965
 31
0.0
  0
LINE
  8
0
 62
     250
 10
431.26
 20
597.965
 30
0.0
 11
436.347
 21
598.082
 31
0.0
  0
LINE
  8
0
 62
     250
 10
436.347
 20
598.082
 30
0.0
 11
440.99
 21
598.064
 31
0.0
  0
LINE
  8
0
 62
     250
 10
440.99
 20
598.064
 30
0.0
 11
444.186
 21
597.969
 31
0.0
  0
LINE
  8
0
 62
     250
 10
444.186
 20
597.969
 30
0.0
 11
445.251
 21
597.912
 31
0.0
  0
LINE
  8
0
 62
     250
 10
445.251
 20
597.912
 30
0.0
 11
446.761
 21
597.835
 31
0.0
  0
LINE
  8
0
 62
     250
 10
446.761
 20
597.835
 30
0.0
 11
451.295
 21
597.531
 31
0.0
  0
LINE
  8
0
 62
     250
 10
451.295
 20
597.531
 30
0.0
 11
457.302
 21
596.995
 31
0.0
  0
LINE
  8
0
 62
     250
 10
457.302
 20
596.995
 30
0.0
 11
463.162
 21
596.304
 31
0.0
  0
LINE
  8
0
 62
     250
 10
463.162
 20
596.304
 30
0.0
 11
468.768
 21
595.447
 31
0.0
  0
LINE
  8
0
 62
     250
 10
468.768
 20
595.447
 30
0.0
 11
474.006
 21
594.413
 31
0.0
  0
LINE
  8
0
 62
     250
 10
474.006
 20
594.413
 30
0.0
 11
478.776
 21
593.196
 31
0.0
  0
LINE
  8
0
 62
     250
 10
478.776
 20
593.196
 30
0.0
 11
482.956
 21
591.788
 31
0.0
  0
LINE
  8
0
 62
     250
 10
482.956
 20
591.788
 30
0.0
 11
485.606
 21
590.645
 31
0.0
  0
LINE
  8
0
 62
     250
 10
485.606
 20
590.645
 30
0.0
 11
486.449
 21
590.183
 31
0.0
  0
LINE
  8
0
 62
     250
 10
89.6909
 20
785.992
 30
0.0
 11
89.6909
 21
705.993
 31
0.0
  0
LINE
  8
0
 62
     250
 10
1934.69
 20
785.992
 30
0.0
 11
1934.69
 21
705.993
 31
0.0
  0
LINE
  8
0
 62
     250
 10
94.6753
 20
745.991
 30
0.0
 11
1929.71
 21
745.991
 31
0.0
  0
LINE
  8
0
 62
     250
 10
105.103
 20
740.382
 30
0.0
 11
105.705
 21
742.04
 31
0.0
  0
LINE
  8
0
 62
     250
 10
105.705
 20
742.04
 30
0.0
 11
94.8475
 21
745.991
 31
0.0
  0
LINE
  8
0
 62
     250
 10
94.8475
 20
745.991
 30
0.0
 11
105.705
 21
749.942
 31
0.0
  0
LINE
  8
0
 62
     250
 10
105.705
 20
749.942
 30
0.0
 11
105.103
 21
751.6
 31
0.0
  0
LINE
  8
0
 62
     250
 10
105.103
 20
751.6
 30
0.0
 11
89.6923
 21
745.991
 31
0.0
  0
LINE
  8
0
 62
     250
 10
89.6923
 20
745.991
 30
0.0
 11
105.103
 21
740.382
 31
0.0
  0
LINE
  8
0
 62
     250
 10
1919.28
 20
740.382
 30
0.0
 11
1918.68
 21
742.04
 31
0.0
  0
LINE
  8
0
 62
     250
 10
1918.68
 20
742.04
 30
0.0
 11
1929.54
 21
745.991
 31
0.0
  0
LINE
  8
0
 62
     250
 10
1929.54
 20
745.991
 30
0.0
 11
1918.68
 21
749.942
 31
0.0
  0
LINE
  8
0
 62
     250
 10
1918.68
 20
749.942
 30
0.0
 11
1919.28
 21
751.6
 31
0.0
  0
LINE
  8
0
 62
     250
 10
1919.28
 20
751.6
 30
0.0
 11
1934.69
 21
745.991
 31
0.0
  0
LINE
  8
0
 62
     250
 10
1934.69
 20
745.991
 30
0.0
 11
1919.28
 21
740.382
 31
0.0
  0
LINE
  8
0
 62
     250
 10
740.738
 20
637.836
 30
0.0
 11
0.179145
 21
637.836
 31
0.0
  0
LINE
  8
0
 62
     250
 10
783.071
 20
20.4859
 30
0.0
 11
42.5154
 21
20.4859
 31
0.0
  0
LINE
  8
0
 62
     250
 10
40.1796
 20
25.4703
 30
0.0
 11
40.1796
 21
632.852
 31
0.0
  0
LINE
  8
0
 62
     250
 10
45.7895
 20
35.8965
 30
0.0
 11
44.1304
 21
36.5002
 31
0.0
  0
LINE
  8
0
 62
     250
 10
44.1304
 20
36.5002
 30
0.0
 11
40.1796
 21
25.6425
 31
0.0
  0
LINE
  8
0
 62
     250
 10
40.1796
 20
25.6425
 30
0.0
 11
36.2271
 21
36.5002
 31
0.0
  0
LINE
  8
0
 62
     250
 10
36.2271
 20
36.5002
 30
0.0
 11
34.5708
 21
35.8965
 31
0.0
  0
LINE
  8
0
 62
     250
 10
34.5708
 20
35.8965
 30
0.0
 11
40.1796
 21
20.4859
 31
0.0
  0
LINE
  8
0
 62
     250
 10
40.1796
 20
20.4859
 30
0.0
 11
45.7895
 21
35.8965
 31
0.0
  0
LINE
  8
0
 62
     250
 10
45.7895
 20
622.423
 30
0.0
 11
44.1304
 21
621.82
 31
0.0
  0
LINE
  8
0
 62
     250
 10
44.1304
 20
621.82
 30
0.0
 11
40.1796
 21
632.679
 31
0.0
  0
LINE
  8
0
 62
     250
 10
40.1796
 20
632.679
 30
0.0
 11
36.2271
 21
621.82
 31
0.0
  0
LINE
  8
0
 62
     250
 10
36.2271
 20
621.82
 30
0.0
 11
34.5708
 21
622.423
 31
0.0
  0
LINE
  8
0
 62
     250
 10
34.5708
 20
622.423
 30
0.0
 11
40.1796
 21
637.836
 31
0.0
  0
LINE
  8
0
 62
     250
 10
40.1796
 20
637.836
 30
0.0
 11
45.7895
 21
622.423
 31
0.0
  0
LINE
  8
0
 62
     250
 10
18.7151
 20
322.325
 30
0.0
 11
18.2259
 21
322.325
 31
0.0
  0
LINE
  8
0
 62
     250
 10
18.2259
 20
322.325
 30
0.0
 11
16.7597
 21
322.043
 31
0.0
  0
LINE
  8
0
 62
     250
 10
16.7597
 20
322.043
 30
0.0
 11
15.3072
 21
321.253
 31
0.0
  0
LINE
  8
0
 62
     250
 10
15.3072
 20
321.253
 30
0.0
 11
14.4032
 21
320.033
 31
0.0
  0
LINE
  8
0
 62
     250
 10
14.4032
 20
320.033
 30
0.0
 11
14.0918
 21
318.856
 31
0.0
  0
LINE
  8
0
 62
     250
 10
14.0918
 20
318.856
 30
0.0
 11
14.0918
 21
318.463
 31
0.0
  0
LINE
  8
0
 62
     250
 10
14.0918
 20
318.463
 30
0.0
 11
14.0918
 21
318.261
 31
0.0
  0
LINE
  8
0
 62
     250
 10
14.0918
 20
318.261
 30
0.0
 11
14.1883
 21
317.653
 31
0.0
  0
LINE
  8
0
 62
     250
 10
14.1883
 20
317.653
 30
0.0
 11
14.4543
 21
316.906
 31
0.0
  0
LINE
  8
0
 62
     250
 10
14.4543
 20
316.906
 30
0.0
 11
14.8566
 21
316.236
 31
0.0
  0
LINE
  8
0
 62
     250
 10
14.8566
 20
316.236
 30
0.0
 11
15.361
 21
315.657
 31
0.0
  0
LINE
  8
0
 62
     250
 10
15.361
 20
315.657
 30
0.0
 11
15.9315
 21
315.184
 31
0.0
  0
LINE
  8
0
 62
     250
 10
15.9315
 20
315.184
 30
0.0
 11
16.5351
 21
314.828
 31
0.0
  0
LINE
  8
0
 62
     250
 10
16.5351
 20
314.828
 30
0.0
 11
17.1345
 21
314.605
 31
0.0
  0
LINE
  8
0
 62
     250
 10
17.1345
 20
314.605
 30
0.0
 11
17.5576
 21
314.526
 31
0.0
  0
LINE
  8
0
 62
     250
 10
17.5576
 20
314.526
 30
0.0
 11
17.6995
 21
314.526
 31
0.0
  0
LINE
  8
0
 62
     250
 10
17.6995
 20
314.526
 30
0.0
 11
18.2948
 21
314.532
 31
0.0
  0
LINE
  8
0
 62
     250
 10
18.2948
 20
314.532
 30
0.0
 11
20.0835
 21
314.813
 31
0.0
  0
LINE
  8
0
 62
     250
 10
20.0835
 20
314.813
 30
0.0
 11
21.937
 21
315.616
 31
0.0
  0
LINE
  8
0
 62
     250
 10
21.937
 20
315.616
 30
0.0
 11
23.1386
 21
316.91
 31
0.0
  0
LINE
  8
0
 62
     250
 10
23.1386
 20
316.91
 30
0.0
 11
23.5672
 21
318.229
 31
0.0
  0
LINE
  8
0
 62
     250
 10
23.5672
 20
318.229
 30
0.0
 11
23.5672
 21
318.667
 31
0.0
  0
LINE
  8
0
 62
     250
 10
23.5672
 20
318.667
 30
0.0
 11
23.5672
 21
319.043
 31
0.0
  0
LINE
  8
0
 62
     250
 10
23.5672
 20
319.043
 30
0.0
 11
23.2117
 21
320.172
 31
0.0
  0
LINE
  8
0
 62
     250
 10
23.2117
 20
320.172
 30
0.0
 11
22.2167
 21
321.326
 31
0.0
  0
LINE
  8
0
 62
     250
 10
22.2167
 20
321.326
 30
0.0
 11
20.683
 21
322.064
 31
0.0
  0
LINE
  8
0
 62
     250
 10
20.683
 20
322.064
 30
0.0
 11
19.2071
 21
322.325
 31
0.0
  0
LINE
  8
0
 62
     250
 10
19.2071
 20
322.325
 30
0.0
 11
18.7151
 21
322.325
 31
0.0
  0
LINE
  8
0
 62
     250
 10
14.8291
 20
314.628
 30
0.0
 11
14.5852
 21
314.795
 31
0.0
  0
LINE
  8
0
 62
     250
 10
14.5852
 20
314.795
 30
0.0
 11
13.9278
 21
315.403
 31
0.0
  0
LINE
  8
0
 62
     250
 10
13.9278
 20
315.403
 30
0.0
 11
13.1837
 21
316.413
 31
0.0
  0
LINE
  8
0
 62
     250
 10
13.1837
 20
316.413
 30
0.0
 11
12.678
 21
317.643
 31
0.0
  0
LINE
  8
0
 62
     250
 10
12.678
 20
317.643
 30
0.0
 11
12.4919
 21
318.717
 31
0.0
  0
LINE
  8
0
 62
     250
 10
12.4919
 20
318.717
 30
0.0
 11
12.4919
 21
319.074
 31
0.0
  0
LINE
  8
0
 62
     250
 10
12.4919
 20
319.074
 30
0.0
 11
12.4919
 21
319.625
 31
0.0
  0
LINE
  8
0
 62
     250
 10
12.4919
 20
319.625
 30
0.0
 11
12.926
 21
321.277
 31
0.0
  0
LINE
  8
0
 62
     250
 10
12.926
 20
321.277
 30
0.0
 11
14.1552
 21
322.976
 31
0.0
  0
LINE
  8
0
 62
     250
 10
14.1552
 20
322.976
 30
0.0
 11
16.0707
 21
324.072
 31
0.0
  0
LINE
  8
0
 62
     250
 10
16.0707
 20
324.072
 30
0.0
 11
17.9393
 21
324.459
 31
0.0
  0
LINE
  8
0
 62
     250
 10
17.9393
 20
324.459
 30
0.0
 11
18.5622
 21
324.459
 31
0.0
  0
LINE
  8
0
 62
     250
 10
18.5622
 20
324.459
 30
0.0
 11
19.1892
 21
324.459
 31
0.0
  0
LINE
  8
0
 62
     250
 10
19.1892
 20
324.459
 30
0.0
 11
21.0702
 21
324.068
 31
0.0
  0
LINE
  8
0
 62
     250
 10
21.0702
 20
324.068
 30
0.0
 11
23.1951
 21
322.93
 31
0.0
  0
LINE
  8
0
 62
     250
 10
23.1951
 20
322.93
 30
0.0
 11
24.6669
 21
321.094
 31
0.0
  0
LINE
  8
0
 62
     250
 10
24.6669
 20
321.094
 30
0.0
 11
25.2181
 21
319.236
 31
0.0
  0
LINE
  8
0
 62
     250
 10
25.2181
 20
319.236
 30
0.0
 11
25.2181
 21
318.616
 31
0.0
  0
LINE
  8
0
 62
     250
 10
25.2181
 20
318.616
 30
0.0
 11
25.2181
 21
317.984
 31
0.0
  0
LINE
  8
0
 62
     250
 10
25.2181
 20
317.984
 30
0.0
 11
24.66
 21
316.083
 31
0.0
  0
LINE
  8
0
 62
     250
 10
24.66
 20
316.083
 30
0.0
 11
23.0642
 21
314.127
 31
0.0
  0
LINE
  8
0
 62
     250
 10
23.0642
 20
314.127
 30
0.0
 11
20.5452
 21
312.866
 31
0.0
  0
LINE
  8
0
 62
     250
 10
20.5452
 20
312.866
 30
0.0
 11
18.0482
 21
312.418
 31
0.0
  0
LINE
  8
0
 62
     250
 10
18.0482
 20
312.418
 30
0.0
 11
17.2158
 21
312.418
 31
0.0
  0
LINE
  8
0
 62
     250
 10
17.2158
 20
312.418
 30
0.0
 11
16.7363
 21
312.418
 31
0.0
  0
LINE
  8
0
 62
     250
 10
16.7363
 20
312.418
 30
0.0
 11
15.299
 21
312.534
 31
0.0
  0
LINE
  8
0
 62
     250
 10
15.299
 20
312.534
 30
0.0
 11
13.4138
 21
312.888
 31
0.0
  0
LINE
  8
0
 62
     250
 10
13.4138
 20
312.888
 30
0.0
 11
11.6141
 21
313.499
 31
0.0
  0
LINE
  8
0
 62
     250
 10
11.6141
 20
313.499
 30
0.0
 11
9.95355
 21
314.384
 31
0.0
  0
LINE
  8
0
 62
     250
 10
9.95355
 20
314.384
 30
0.0
 11
8.48459
 21
315.558
 31
0.0
  0
LINE
  8
0
 62
     250
 10
8.48459
 20
315.558
 30
0.0
 11
7.2595
 21
317.037
 31
0.0
  0
LINE
  8
0
 62
     250
 10
7.2595
 20
317.037
 30
0.0
 11
6.33345
 21
318.839
 31
0.0
  0
LINE
  8
0
 62
     250
 10
6.33345
 20
318.839
 30
0.0
 11
5.84839
 21
320.435
 31
0.0
  0
LINE
  8
0
 62
     250
 10
5.84839
 20
320.435
 30
0.0
 11
5.76019
 21
320.978
 31
0.0
  0
LINE
  8
0
 62
     250
 10
5.76019
 20
320.978
 30
0.0
 11
5.73401
 21
321.157
 31
0.0
  0
LINE
  8
0
 62
     250
 10
5.73401
 20
321.157
 30
0.0
 11
5.63203
 21
321.973
 31
0.0
  0
LINE
  8
0
 62
     250
 10
5.63203
 20
321.973
 30
0.0
 11
5.58243
 21
322.562
 31
0.0
  0
LINE
  8
0
 62
     250
 10
5.58243
 20
322.562
 30
0.0
 11
5.58243
 21
322.757
 31
0.0
  0
LINE
  8
0
 62
     250
 10
5.58243
 20
322.757
 30
0.0
 11
7.33531
 21
322.782
 31
0.0
  0
LINE
  8
0
 62
     250
 10
7.33531
 20
322.782
 30
0.0
 11
7.33531
 21
321.919
 31
0.0
  0
LINE
  8
0
 62
     250
 10
7.33531
 20
321.919
 30
0.0
 11
7.99123
 21
319.329
 31
0.0
  0
LINE
  8
0
 62
     250
 10
7.99123
 20
319.329
 30
0.0
 11
9.70964
 21
316.848
 31
0.0
  0
LINE
  8
0
 62
     250
 10
9.70964
 20
316.848
 30
0.0
 11
12.1143
 21
315.279
 31
0.0
  0
LINE
  8
0
 62
     250
 10
12.1143
 20
315.279
 30
0.0
 11
14.1387
 21
314.634
 31
0.0
  0
LINE
  8
0
 62
     250
 10
14.1387
 20
314.634
 30
0.0
 11
14.8291
 21
314.553
 31
0.0
  0
LINE
  8
0
 62
     250
 10
14.8291
 20
314.553
 30
0.0
 11
14.8291
 21
314.628
 31
0.0
  0
LINE
  8
0
 62
     250
 10
24.9136
 20
332.027
 30
0.0
 11
7.8686
 21
332.027
 31
0.0
  0
LINE
  8
0
 62
     250
 10
7.8686
 20
332.027
 30
0.0
 11
7.8686
 21
331.976
 31
0.0
  0
LINE
  8
0
 62
     250
 10
7.8686
 20
331.976
 30
0.0
 11
9.67109
 21
328.852
 31
0.0
  0
LINE
  8
0
 62
     250
 10
9.67109
 20
328.852
 30
0.0
 11
8.09734
 21
328.344
 31
0.0
  0
LINE
  8
0
 62
     250
 10
8.09734
 20
328.344
 30
0.0
 11
5.88698
 21
332.281
 31
0.0
  0
LINE
  8
0
 62
     250
 10
5.88698
 20
332.281
 30
0.0
 11
5.88698
 21
334.085
 31
0.0
  0
LINE
  8
0
 62
     250
 10
5.88698
 20
334.085
 30
0.0
 11
24.9136
 21
334.085
 31
0.0
  0
LINE
  8
0
 62
     250
 10
24.9136
 20
334.085
 30
0.0
 11
24.9136
 21
332.027
 31
0.0
  0
LINE
  8
0
 62
     250
 10
15.3114
 20
350.264
 30
0.0
 11
14.4956
 21
350.264
 31
0.0
  0
LINE
  8
0
 62
     250
 10
14.4956
 20
350.264
 30
0.0
 11
12.0523
 21
350.045
 31
0.0
  0
LINE
  8
0
 62
     250
 10
12.0523
 20
350.045
 30
0.0
 11
9.51537
 21
349.36
 31
0.0
  0
LINE
  8
0
 62
     250
 10
9.51537
 20
349.36
 30
0.0
 11
7.86998
 21
348.175
 31
0.0
  0
LINE
  8
0
 62
     250
 10
7.86998
 20
348.175
 30
0.0
 11
7.2843
 21
346.885
 31
0.0
  0
LINE
  8
0
 62
     250
 10
7.2843
 20
346.885
 30
0.0
 11
7.2843
 21
346.454
 31
0.0
  0
LINE
  8
0
 62
     250
 10
7.2843
 20
346.454
 30
0.0
 11
7.2843
 21
346.065
 31
0.0
  0
LINE
  8
0
 62
     250
 10
7.2843
 20
346.065
 30
0.0
 11
7.83414
 21
344.898
 31
0.0
  0
LINE
  8
0
 62
     250
 10
7.83414
 20
344.898
 30
0.0
 11
9.42026
 21
343.676
 31
0.0
  0
LINE
  8
0
 62
     250
 10
9.42026
 20
343.676
 30
0.0
 11
11.9448
 21
342.879
 31
0.0
  0
LINE
  8
0
 62
     250
 10
11.9448
 20
342.879
 30
0.0
 11
14.4694
 21
342.593
 31
0.0
  0
LINE
  8
0
 62
     250
 10
14.4694
 20
342.593
 30
0.0
 11
15.3114
 21
342.593
 31
0.0
  0
LINE
  8
0
 62
     250
 10
15.3114
 20
342.593
 30
0.0
 11
16.1575
 21
342.593
 31
0.0
  0
LINE
  8
0
 62
     250
 10
16.1575
 20
342.593
 30
0.0
 11
18.7
 21
342.849
 31
0.0
  0
LINE
  8
0
 62
     250
 10
18.7
 20
342.849
 30
0.0
 11
21.2769
 21
343.59
 31
0.0
  0
LINE
  8
0
 62
     250
 10
21.2769
 20
343.59
 30
0.0
 11
22.9154
 21
344.78
 31
0.0
  0
LINE
  8
0
 62
     250
 10
22.9154
 20
344.78
 30
0.0
 11
23.49
 21
345.979
 31
0.0
  0
LINE
  8
0
 62
     250
 10
23.49
 20
345.979
 30
0.0
 11
23.49
 21
346.378
 31
0.0
  0
LINE
  8
0
 62
     250
 10
23.49
 20
346.378
 30
0.0
 11
23.49
 21
346.827
 31
0.0
  0
LINE
  8
0
 62
     250
 10
23.49
 20
346.827
 30
0.0
 11
22.8479
 21
348.175
 31
0.0
  0
LINE
  8
0
 62
     250
 10
22.8479
 20
348.175
 30
0.0
 11
21.095
 21
349.379
 31
0.0
  0
LINE
  8
0
 62
     250
 10
21.095
 20
349.379
 30
0.0
 11
18.496
 21
350.055
 31
0.0
  0
LINE
  8
0
 62
     250
 10
18.496
 20
350.055
 30
0.0
 11
16.1065
 21
350.264
 31
0.0
  0
LINE
  8
0
 62
     250
 10
16.1065
 20
350.264
 30
0.0
 11
15.3114
 21
350.264
 31
0.0
  0
LINE
  8
0
 62
     250
 10
15.463
 20
340.435
 30
0.0
 11
14.3743
 21
340.435
 31
0.0
  0
LINE
  8
0
 62
     250
 10
14.3743
 20
340.435
 30
0.0
 11
11.1111
 21
340.896
 31
0.0
  0
LINE
  8
0
 62
     250
 10
11.1111
 20
340.896
 30
0.0
 11
8.02707
 21
342.175
 31
0.0
  0
LINE
  8
0
 62
     250
 10
8.02707
 20
342.175
 30
0.0
 11
6.19016
 21
344.122
 31
0.0
  0
LINE
  8
0
 62
     250
 10
6.19016
 20
344.122
 30
0.0
 11
5.58243
 21
345.967
 31
0.0
  0
LINE
  8
0
 62
     250
 10
5.58243
 20
345.967
 30
0.0
 11
5.58243
 21
346.582
 31
0.0
  0
LINE
  8
0
 62
     250
 10
5.58243
 20
346.582
 30
0.0
 11
5.58243
 21
347.19
 31
0.0
  0
LINE
  8
0
 62
     250
 10
5.58243
 20
347.19
 30
0.0
 11
6.21083
 21
349.013
 31
0.0
  0
LINE
  8
0
 62
     250
 10
6.21083
 20
349.013
 30
0.0
 11
8.06154
 21
350.843
 31
0.0
  0
LINE
  8
0
 62
     250
 10
8.06154
 20
350.843
 30
0.0
 11
11.0794
 21
351.998
 31
0.0
  0
LINE
  8
0
 62
     250
 10
11.0794
 20
351.998
 30
0.0
 11
14.1759
 21
352.399
 31
0.0
  0
LINE
  8
0
 62
     250
 10
14.1759
 20
352.399
 30
0.0
 11
15.2094
 21
352.399
 31
0.0
  0
LINE
  8
0
 62
     250
 10
15.2094
 20
352.399
 30
0.0
 11
16.2967
 21
352.399
 31
0.0
  0
LINE
  8
0
 62
     250
 10
16.2967
 20
352.399
 30
0.0
 11
19.5585
 21
351.978
 31
0.0
  0
LINE
  8
0
 62
     250
 10
19.5585
 20
351.978
 30
0.0
 11
22.6894
 21
350.77
 31
0.0
  0
LINE
  8
0
 62
     250
 10
22.6894
 20
350.77
 30
0.0
 11
24.5828
 21
348.852
 31
0.0
  0
LINE
  8
0
 62
     250
 10
24.5828
 20
348.852
 30
0.0
 11
25.2181
 21
346.94
 31
0.0
  0
LINE
  8
0
 62
     250
 10
25.2181
 20
346.94
 30
0.0
 11
25.2181
 21
346.303
 31
0.0
  0
LINE
  8
0
 62
     250
 10
25.2181
 20
346.303
 30
0.0
 11
25.2181
 21
345.71
 31
0.0
  0
LINE
  8
0
 62
     250
 10
25.2181
 20
345.71
 30
0.0
 11
24.587
 21
343.929
 31
0.0
  0
LINE
  8
0
 62
     250
 10
24.587
 20
343.929
 30
0.0
 11
22.7211
 21
342.073
 31
0.0
  0
LINE
  8
0
 62
     250
 10
22.7211
 20
342.073
 30
0.0
 11
19.666
 21
340.866
 31
0.0
  0
LINE
  8
0
 62
     250
 10
19.666
 20
340.866
 30
0.0
 11
16.513
 21
340.435
 31
0.0
  0
LINE
  8
0
 62
     250
 10
16.513
 20
340.435
 30
0.0
 11
15.463
 21
340.435
 31
0.0
  0
LINE
  8
0
 62
     250
 10
2098.21
 20
582.115
 30
0.0
 11
1640.95
 21
582.115
 31
0.0
  0
LINE
  8
0
 62
     250
 10
2098.21
 20
0.176389
 30
0.0
 11
1640.95
 21
0.176389
 31
0.0
  0
LINE
  8
0
 62
     250
 10
2058.21
 20
5.16075
 30
0.0
 11
2058.21
 21
577.13
 31
0.0
  0
LINE
  8
0
 62
     250
 10
2063.82
 20
15.587
 30
0.0
 11
2062.17
 21
16.1892
 31
0.0
  0
LINE
  8
0
 62
     250
 10
2062.17
 20
16.1892
 30
0.0
 11
2058.21
 21
5.33301
 31
0.0
  0
LINE
  8
0
 62
     250
 10
2058.21
 20
5.33301
 30
0.0
 11
2054.26
 21
16.1892
 31
0.0
  0
LINE
  8
0
 62
     250
 10
2054.26
 20
16.1892
 30
0.0
 11
2052.61
 21
15.587
 31
0.0
  0
LINE
  8
0
 62
     250
 10
2052.61
 20
15.587
 30
0.0
 11
2058.21
 21
0.176389
 31
0.0
  0
LINE
  8
0
 62
     250
 10
2058.21
 20
0.176389
 30
0.0
 11
2063.82
 21
15.587
 31
0.0
  0
LINE
  8
0
 62
     250
 10
2063.82
 20
566.706
 30
0.0
 11
2062.17
 21
566.102
 31
0.0
  0
LINE
  8
0
 62
     250
 10
2062.17
 20
566.102
 30
0.0
 11
2058.21
 21
576.961
 31
0.0
  0
LINE
  8
0
 62
     250
 10
2058.21
 20
576.961
 30
0.0
 11
2054.26
 21
566.102
 31
0.0
  0
LINE
  8
0
 62
     250
 10
2054.26
 20
566.102
 30
0.0
 11
2052.61
 21
566.706
 31
0.0
  0
LINE
  8
0
 62
     250
 10
2052.61
 20
566.706
 30
0.0
 11
2058.21
 21
582.115
 31
0.0
  0
LINE
  8
0
 62
     250
 10
2058.21
 20
582.115
 30
0.0
 11
2063.82
 21
566.706
 31
0.0
  0
LINE
  8
0
 62
     250
 10
2026.53
 20
287.293
 30
0.0
 11
2028.28
 21
287.293
 31
0.0
  0
LINE
  8
0
 62
     250
 10
2028.28
 20
287.293
 30
0.0
 11
2028.28
 21
280.461
 31
0.0
  0
LINE
  8
0
 62
     250
 10
2028.28
 20
280.461
 30
0.0
 11
2033.67
 21
279.673
 31
0.0
  0
LINE
  8
0
 62
     250
 10
2033.67
 20
279.673
 30
0.0
 11
2033.65
 21
279.775
 31
0.0
  0
LINE
  8
0
 62
     250
 10
2033.65
 20
279.775
 30
0.0
 11
2033.6
 21
280.315
 31
0.0
  0
LINE
  8
0
 62
     250
 10
2033.6
 20
280.315
 30
0.0
 11
2033.57
 21
280.939
 31
0.0
  0
LINE
  8
0
 62
     250
 10
2033.57
 20
280.939
 30
0.0
 11
2033.57
 21
281.146
 31
0.0
  0
LINE
  8
0
 62
     250
 10
2033.57
 20
281.146
 30
0.0
 11
2033.57
 21
281.754
 31
0.0
  0
LINE
  8
0
 62
     250
 10
2033.57
 20
281.754
 30
0.0
 11
2033.94
 21
283.573
 31
0.0
  0
LINE
  8
0
 62
     250
 10
2033.94
 20
283.573
 30
0.0
 11
2035.05
 21
285.615
 31
0.0
  0
LINE
  8
0
 62
     250
 10
2035.05
 20
285.615
 30
0.0
 11
2036.88
 21
287.023
 31
0.0
  0
LINE
  8
0
 62
     250
 10
2036.88
 20
287.023
 30
0.0
 11
2038.78
 21
287.548
 31
0.0
  0
LINE
  8
0
 62
     250
 10
2038.78
 20
287.548
 30
0.0
 11
2039.41
 21
287.548
 31
0.0
  0
LINE
  8
0
 62
     250
 10
2039.41
 20
287.548
 30
0.0
 11
2040.06
 21
287.548
 31
0.0
  0
LINE
  8
0
 62
     250
 10
2040.06
 20
287.548
 30
0.0
 11
2042
 21
287.054
 31
0.0
  0
LINE
  8
0
 62
     250
 10
2042
 20
287.054
 30
0.0
 11
2044.04
 21
285.681
 31
0.0
  0
LINE
  8
0
 62
     250
 10
2044.04
 20
285.681
 30
0.0
 11
2045.38
 21
283.604
 31
0.0
  0
LINE
  8
0
 62
     250
 10
2045.38
 20
283.604
 30
0.0
 11
2045.86
 21
281.648
 31
0.0
  0
LINE
  8
0
 62
     250
 10
2045.86
 20
281.648
 30
0.0
 11
2045.86
 21
280.995
 31
0.0
  0
LINE
  8
0
 62
     250
 10
2045.86
 20
280.995
 30
0.0
 11
2045.86
 21
280.654
 31
0.0
  0
LINE
  8
0
 62
     250
 10
2045.86
 20
280.654
 30
0.0
 11
2045.77
 21
279.63
 31
0.0
  0
LINE
  8
0
 62
     250
 10
2045.77
 20
279.63
 30
0.0
 11
2045.51
 21
278.419
 31
0.0
  0
LINE
  8
0
 62
     250
 10
2045.51
 20
278.419
 30
0.0
 11
2045.16
 21
277.405
 31
0.0
  0
LINE
  8
0
 62
     250
 10
2045.16
 20
277.405
 30
0.0
 11
2044.86
 21
276.809
 31
0.0
  0
LINE
  8
0
 62
     250
 10
2044.86
 20
276.809
 30
0.0
 11
2044.75
 21
276.625
 31
0.0
  0
LINE
  8
0
 62
     250
 10
2044.75
 20
276.625
 30
0.0
 11
2043.09
 21
277.235
 31
0.0
  0
LINE
  8
0
 62
     250
 10
2043.09
 20
277.235
 30
0.0
 11
2043.2
 21
277.391
 31
0.0
  0
LINE
  8
0
 62
     250
 10
2043.2
 20
277.391
 30
0.0
 11
2043.46
 21
277.891
 31
0.0
  0
LINE
  8
0
 62
     250
 10
2043.46
 20
277.891
 30
0.0
 11
2043.81
 21
278.763
 31
0.0
  0
LINE
  8
0
 62
     250
 10
2043.81
 20
278.763
 30
0.0
 11
2044.06
 21
279.811
 31
0.0
  0
LINE
  8
0
 62
     250
 10
2044.06
 20
279.811
 30
0.0
 11
2044.16
 21
280.7
 31
0.0
  0
LINE
  8
0
 62
     250
 10
2044.16
 20
280.7
 30
0.0
 11
2044.16
 21
280.995
 31
0.0
  0
LINE
  8
0
 62
     250
 10
2044.16
 20
280.995
 30
0.0
 11
2044.16
 21
281.214
 31
0.0
  0
LINE
  8
0
 62
     250
 10
2044.16
 20
281.214
 30
0.0
 11
2044.08
 21
281.871
 31
0.0
  0
LINE
  8
0
 62
     250
 10
2044.08
 20
281.871
 30
0.0
 11
2043.84
 21
282.696
 31
0.0
  0
LINE
  8
0
 62
     250
 10
2043.84
 20
282.696
 30
0.0
 11
2043.46
 21
283.449
 31
0.0
  0
LINE
  8
0
 62
     250
 10
2043.46
 20
283.449
 30
0.0
 11
2042.94
 21
284.11
 31
0.0
  0
LINE
  8
0
 62
     250
 10
2042.94
 20
284.11
 30
0.0
 11
2042.29
 21
284.657
 31
0.0
  0
LINE
  8
0
 62
     250
 10
2042.29
 20
284.657
 30
0.0
 11
2041.52
 21
285.071
 31
0.0
  0
LINE
  8
0
 62
     250
 10
2041.52
 20
285.071
 30
0.0
 11
2040.64
 21
285.33
 31
0.0
  0
LINE
  8
0
 62
     250
 10
2040.64
 20
285.33
 30
0.0
 11
2039.91
 21
285.417
 31
0.0
  0
LINE
  8
0
 62
     250
 10
2039.91
 20
285.417
 30
0.0
 11
2039.66
 21
285.414
 31
0.0
  0
LINE
  8
0
 62
     250
 10
2039.66
 20
285.414
 30
0.0
 11
2039.21
 21
285.414
 31
0.0
  0
LINE
  8
0
 62
     250
 10
2039.21
 20
285.414
 30
0.0
 11
2037.87
 21
285.097
 31
0.0
  0
LINE
  8
0
 62
     250
 10
2037.87
 20
285.097
 30
0.0
 11
2036.46
 21
284.132
 31
0.0
  0
LINE
  8
0
 62
     250
 10
2036.46
 20
284.132
 30
0.0
 11
2035.55
 21
282.501
 31
0.0
  0
LINE
  8
0
 62
     250
 10
2035.55
 20
282.501
 30
0.0
 11
2035.22
 21
280.761
 31
0.0
  0
LINE
  8
0
 62
     250
 10
2035.22
 20
280.761
 30
0.0
 11
2035.22
 21
280.181
 31
0.0
  0
LINE
  8
0
 62
     250
 10
2035.22
 20
280.181
 30
0.0
 11
2035.22
 21
279.841
 31
0.0
  0
LINE
  8
0
 62
     250
 10
2035.22
 20
279.841
 30
0.0
 11
2035.27
 21
278.82
 31
0.0
  0
LINE
  8
0
 62
     250
 10
2035.27
 20
278.82
 30
0.0
 11
2035.37
 21
277.902
 31
0.0
  0
LINE
  8
0
 62
     250
 10
2035.37
 20
277.902
 30
0.0
 11
2035.4
 21
277.742
 31
0.0
  0
LINE
  8
0
 62
     250
 10
2035.4
 20
277.742
 30
0.0
 11
2026.53
 21
278.937
 31
0.0
  0
LINE
  8
0
 62
     250
 10
2026.53
 20
278.937
 30
0.0
 11
2026.53
 21
287.293
 31
0.0
  0
LINE
  8
0
 62
     250
 10
2030.98
 20
293.288
 30
0.0
 11
2031.31
 21
293.284
 31
0.0
  0
LINE
  8
0
 62
     250
 10
2031.31
 20
293.284
 30
0.0
 11
2032.34
 21
293.533
 31
0.0
  0
LINE
  8
0
 62
     250
 10
2032.34
 20
293.533
 30
0.0
 11
2033.39
 21
294.254
 31
0.0
  0
LINE
  8
0
 62
     250
 10
2033.39
 20
294.254
 30
0.0
 11
2034.19
 21
295.374
 31
0.0
  0
LINE
  8
0
 62
     250
 10
2034.19
 20
295.374
 30
0.0
 11
2034.65
 21
296.449
 31
0.0
  0
LINE
  8
0
 62
     250
 10
2034.65
 20
296.449
 30
0.0
 11
2034.76
 21
296.818
 31
0.0
  0
LINE
  8
0
 62
     250
 10
2034.76
 20
296.818
 30
0.0
 11
2034.65
 21
297.119
 31
0.0
  0
LINE
  8
0
 62
     250
 10
2034.65
 20
297.119
 30
0.0
 11
2034.16
 21
297.968
 31
0.0
  0
LINE
  8
0
 62
     250
 10
2034.16
 20
297.968
 30
0.0
 11
2033.33
 21
298.885
 31
0.0
  0
LINE
  8
0
 62
     250
 10
2033.33
 20
298.885
 30
0.0
 11
2032.28
 21
299.495
 31
0.0
  0
LINE
  8
0
 62
     250
 10
2032.28
 20
299.495
 30
0.0
 11
2031.34
 21
299.714
 31
0.0
  0
LINE
  8
0
 62
     250
 10
2031.34
 20
299.714
 30
0.0
 11
2031.03
 21
299.714
 31
0.0
  0
LINE
  8
0
 62
     250
 10
2031.03
 20
299.714
 30
0.0
 11
2030.73
 21
299.714
 31
0.0
  0
LINE
  8
0
 62
     250
 10
2030.73
 20
299.714
 30
0.0
 11
2029.84
 21
299.54
 31
0.0
  0
LINE
  8
0
 62
     250
 10
2029.84
 20
299.54
 30
0.0
 11
2028.8
 21
298.99
 31
0.0
  0
LINE
  8
0
 62
     250
 10
2028.8
 20
298.99
 30
0.0
 11
2028.06
 21
298.021
 31
0.0
  0
LINE
  8
0
 62
     250
 10
2028.06
 20
298.021
 30
0.0
 11
2027.77
 21
296.948
 31
0.0
  0
LINE
  8
0
 62
     250
 10
2027.77
 20
296.948
 30
0.0
 11
2027.77
 21
296.59
 31
0.0
  0
LINE
  8
0
 62
     250
 10
2027.77
 20
296.59
 30
0.0
 11
2027.77
 21
296.229
 31
0.0
  0
LINE
  8
0
 62
     250
 10
2027.77
 20
296.229
 30
0.0
 11
2028.04
 21
295.141
 31
0.0
  0
LINE
  8
0
 62
     250
 10
2028.04
 20
295.141
 30
0.0
 11
2028.75
 21
294.11
 31
0.0
  0
LINE
  8
0
 62
     250
 10
2028.75
 20
294.11
 30
0.0
 11
2029.78
 21
293.493
 31
0.0
  0
LINE
  8
0
 62
     250
 10
2029.78
 20
293.493
 30
0.0
 11
2030.68
 21
293.288
 31
0.0
  0
LINE
  8
0
 62
     250
 10
2030.68
 20
293.288
 30
0.0
 11
2030.98
 21
293.288
 31
0.0
  0
LINE
  8
0
 62
     250
 10
2040.65
 20
300.273
 30
0.0
 11
2040.26
 21
300.273
 31
0.0
  0
LINE
  8
0
 62
     250
 10
2040.26
 20
300.273
 30
0.0
 11
2039.07
 21
299.985
 31
0.0
  0
LINE
  8
0
 62
     250
 10
2039.07
 20
299.985
 30
0.0
 11
2037.85
 21
299.16
 31
0.0
  0
LINE
  8
0
 62
     250
 10
2037.85
 20
299.16
 30
0.0
 11
2036.93
 21
297.863
 31
0.0
  0
LINE
  8
0
 62
     250
 10
2036.93
 20
297.863
 30
0.0
 11
2036.37
 21
296.595
 31
0.0
  0
LINE
  8
0
 62
     250
 10
2036.37
 20
296.595
 30
0.0
 11
2036.23
 21
296.158
 31
0.0
  0
LINE
  8
0
 62
     250
 10
2036.23
 20
296.158
 30
0.0
 11
2036.36
 21
295.772
 31
0.0
  0
LINE
  8
0
 62
     250
 10
2036.36
 20
295.772
 30
0.0
 11
2036.94
 21
294.68
 31
0.0
  0
LINE
  8
0
 62
     250
 10
2036.94
 20
294.68
 30
0.0
 11
2037.93
 21
293.606
 31
0.0
  0
LINE
  8
0
 62
     250
 10
2037.93
 20
293.606
 30
0.0
 11
2039.12
 21
292.95
 31
0.0
  0
LINE
  8
0
 62
     250
 10
2039.12
 20
292.95
 30
0.0
 11
2040.14
 21
292.728
 31
0.0
  0
LINE
  8
0
 62
     250
 10
2040.14
 20
292.728
 30
0.0
 11
2040.48
 21
292.728
 31
0.0
  0
LINE
  8
0
 62
     250
 10
2040.48
 20
292.728
 30
0.0
 11
2040.85
 21
292.728
 31
0.0
  0
LINE
  8
0
 62
     250
 10
2040.85
 20
292.728
 30
0.0
 11
2041.98
 21
292.991
 31
0.0
  0
LINE
  8
0
 62
     250
 10
2041.98
 20
292.991
 30
0.0
 11
2043.19
 21
293.739
 31
0.0
  0
LINE
  8
0
 62
     250
 10
2043.19
 20
293.739
 30
0.0
 11
2043.99
 21
294.915
 31
0.0
  0
LINE
  8
0
 62
     250
 10
2043.99
 20
294.915
 30
0.0
 11
2044.29
 21
296.077
 31
0.0
  0
LINE
  8
0
 62
     250
 10
2044.29
 20
296.077
 30
0.0
 11
2044.29
 21
296.463
 31
0.0
  0
LINE
  8
0
 62
     250
 10
2044.29
 20
296.463
 30
0.0
 11
2044.29
 21
296.87
 31
0.0
  0
LINE
  8
0
 62
     250
 10
2044.29
 20
296.87
 30
0.0
 11
2044
 21
298.088
 31
0.0
  0
LINE
  8
0
 62
     250
 10
2044
 20
298.088
 30
0.0
 11
2043.21
 21
299.282
 31
0.0
  0
LINE
  8
0
 62
     250
 10
2043.21
 20
299.282
 30
0.0
 11
2042.06
 21
300.021
 31
0.0
  0
LINE
  8
0
 62
     250
 10
2042.06
 20
300.021
 30
0.0
 11
2041
 21
300.273
 31
0.0
  0
LINE
  8
0
 62
     250
 10
2041
 20
300.273
 30
0.0
 11
2040.65
 21
300.273
 31
0.0
  0
LINE
  8
0
 62
     250
 10
2035.47
 20
294.253
 30
0.0
 11
2035.3
 21
293.898
 31
0.0
  0
LINE
  8
0
 62
     250
 10
2035.3
 20
293.898
 30
0.0
 11
2034.61
 21
292.921
 31
0.0
  0
LINE
  8
0
 62
     250
 10
2034.61
 20
292.921
 30
0.0
 11
2033.56
 21
291.997
 31
0.0
  0
LINE
  8
0
 62
     250
 10
2033.56
 20
291.997
 30
0.0
 11
2032.4
 21
291.457
 31
0.0
  0
LINE
  8
0
 62
     250
 10
2032.4
 20
291.457
 30
0.0
 11
2031.48
 21
291.282
 31
0.0
  0
LINE
  8
0
 62
     250
 10
2031.48
 20
291.282
 30
0.0
 11
2031.18
 21
291.282
 31
0.0
  0
LINE
  8
0
 62
     250
 10
2031.18
 20
291.282
 30
0.0
 11
2030.91
 21
291.282
 31
0.0
  0
LINE
  8
0
 62
     250
 10
2030.91
 20
291.282
 30
0.0
 11
2030.12
 21
291.387
 31
0.0
  0
LINE
  8
0
 62
     250
 10
2030.12
 20
291.387
 30
0.0
 11
2029.16
 21
291.691
 31
0.0
  0
LINE
  8
0
 62
     250
 10
2029.16
 20
291.691
 30
0.0
 11
2028.32
 21
292.176
 31
0.0
  0
LINE
  8
0
 62
     250
 10
2028.32
 20
292.176
 30
0.0
 11
2027.6
 21
292.822
 31
0.0
  0
LINE
  8
0
 62
     250
 10
2027.6
 20
292.822
 30
0.0
 11
2027.02
 21
293.612
 31
0.0
  0
LINE
  8
0
 62
     250
 10
2027.02
 20
293.612
 30
0.0
 11
2026.58
 21
294.528
 31
0.0
  0
LINE
  8
0
 62
     250
 10
2026.58
 20
294.528
 30
0.0
 11
2026.32
 21
295.552
 31
0.0
  0
LINE
  8
0
 62
     250
 10
2026.32
 20
295.552
 30
0.0
 11
2026.22
 21
296.387
 31
0.0
  0
LINE
  8
0
 62
     250
 10
2026.22
 20
296.387
 30
0.0
 11
2026.22
 21
296.665
 31
0.0
  0
LINE
  8
0
 62
     250
 10
2026.22
 20
296.665
 30
0.0
 11
2026.22
 21
296.969
 31
0.0
  0
LINE
  8
0
 62
     250
 10
2026.22
 20
296.969
 30
0.0
 11
2026.33
 21
297.877
 31
0.0
  0
LINE
  8
0
 62
     250
 10
2026.33
 20
297.877
 30
0.0
 11
2026.63
 21
298.921
 31
0.0
  0
LINE
  8
0
 62
     250
 10
2026.63
 20
298.921
 30
0.0
 11
2027.09
 21
299.799
 31
0.0
  0
LINE
  8
0
 62
     250
 10
2027.09
 20
299.799
 30
0.0
 11
2027.68
 21
300.514
 31
0.0
  0
LINE
  8
0
 62
     250
 10
2027.68
 20
300.514
 30
0.0
 11
2028.38
 21
301.067
 31
0.0
  0
LINE
  8
0
 62
     250
 10
2028.38
 20
301.067
 30
0.0
 11
2029.16
 21
301.46
 31
0.0
  0
LINE
  8
0
 62
     250
 10
2029.16
 20
301.46
 30
0.0
 11
2029.99
 21
301.694
 31
0.0
  0
LINE
  8
0
 62
     250
 10
2029.99
 20
301.694
 30
0.0
 11
2030.63
 21
301.771
 31
0.0
  0
LINE
  8
0
 62
     250
 10
2030.63
 20
301.771
 30
0.0
 11
2030.85
 21
301.771
 31
0.0
  0
LINE
  8
0
 62
     250
 10
2030.85
 20
301.771
 30
0.0
 11
2031.16
 21
301.771
 31
0.0
  0
LINE
  8
0
 62
     250
 10
2031.16
 20
301.771
 30
0.0
 11
2032.08
 21
301.602
 31
0.0
  0
LINE
  8
0
 62
     250
 10
2032.08
 20
301.602
 30
0.0
 11
2033.3
 21
301.057
 31
0.0
  0
LINE
  8
0
 62
     250
 10
2033.3
 20
301.057
 30
0.0
 11
2034.41
 21
300.09
 31
0.0
  0
LINE
  8
0
 62
     250
 10
2034.41
 20
300.09
 30
0.0
 11
2035.16
 21
299.031
 31
0.0
  0
LINE
  8
0
 62
     250
 10
2035.16
 20
299.031
 30
0.0
 11
2035.34
 21
298.647
 31
0.0
  0
LINE
  8
0
 62
     250
 10
2035.34
 20
298.647
 30
0.0
 11
2035.45
 21
298.647
 31
0.0
  0
LINE
  8
0
 62
     250
 10
2035.45
 20
298.647
 30
0.0
 11
2035.62
 21
299.06
 31
0.0
  0
LINE
  8
0
 62
     250
 10
2035.62
 20
299.06
 30
0.0
 11
2036.32
 21
300.225
 31
0.0
  0
LINE
  8
0
 62
     250
 10
2036.32
 20
300.225
 30
0.0
 11
2037.45
 21
301.417
 31
0.0
  0
LINE
  8
0
 62
     250
 10
2037.45
 20
301.417
 30
0.0
 11
2038.82
 21
302.171
 31
0.0
  0
LINE
  8
0
 62
     250
 10
2038.82
 20
302.171
 30
0.0
 11
2040.03
 21
302.433
 31
0.0
  0
LINE
  8
0
 62
     250
 10
2040.03
 20
302.433
 30
0.0
 11
2040.42
 21
302.433
 31
0.0
  0
LINE
  8
0
 62
     250
 10
2040.42
 20
302.433
 30
0.0
 11
2040.98
 21
302.433
 31
0.0
  0
LINE
  8
0
 62
     250
 10
2040.98
 20
302.433
 30
0.0
 11
2042.64
 21
301.968
 31
0.0
  0
LINE
  8
0
 62
     250
 10
2042.64
 20
301.968
 30
0.0
 11
2044.35
 21
300.693
 31
0.0
  0
LINE
  8
0
 62
     250
 10
2044.35
 20
300.693
 30
0.0
 11
2045.47
 21
298.789
 31
0.0
  0
LINE
  8
0
 62
     250
 10
2045.47
 20
298.789
 30
0.0
 11
2045.86
 21
297.025
 31
0.0
  0
LINE
  8
0
 62
     250
 10
2045.86
 20
297.025
 30
0.0
 11
2045.86
 21
296.437
 31
0.0
  0
LINE
  8
0
 62
     250
 10
2045.86
 20
296.437
 30
0.0
 11
2045.86
 21
295.825
 31
0.0
  0
LINE
  8
0
 62
     250
 10
2045.86
 20
295.825
 30
0.0
 11
2045.46
 21
293.988
 31
0.0
  0
LINE
  8
0
 62
     250
 10
2045.46
 20
293.988
 30
0.0
 11
2044.36
 21
292.141
 31
0.0
  0
LINE
  8
0
 62
     250
 10
2044.36
 20
292.141
 30
0.0
 11
2042.75
 21
290.976
 31
0.0
  0
LINE
  8
0
 62
     250
 10
2042.75
 20
290.976
 30
0.0
 11
2041.29
 21
290.569
 31
0.0
  0
LINE
  8
0
 62
     250
 10
2041.29
 20
290.569
 30
0.0
 11
2040.81
 21
290.569
 31
0.0
  0
LINE
  8
0
 62
     250
 10
2040.81
 20
290.569
 30
0.0
 11
2040.38
 21
290.569
 31
0.0
  0
LINE
  8
0
 62
     250
 10
2040.38
 20
290.569
 30
0.0
 11
2039.09
 21
290.835
 31
0.0
  0
LINE
  8
0
 62
     250
 10
2039.09
 20
290.835
 30
0.0
 11
2037.64
 21
291.582
 31
0.0
  0
LINE
  8
0
 62
     250
 10
2037.64
 20
291.582
 30
0.0
 11
2036.46
 21
292.745
 31
0.0
  0
LINE
  8
0
 62
     250
 10
2036.46
 20
292.745
 30
0.0
 11
2035.75
 21
293.857
 31
0.0
  0
LINE
  8
0
 62
     250
 10
2035.75
 20
293.857
 30
0.0
 11
2035.57
 21
294.253
 31
0.0
  0
LINE
  8
0
 62
     250
 10
2035.57
 20
294.253
 30
0.0
 11
2035.47
 21
294.253
 31
0.0
  0
LINE
  8
0
 62
     250
 10
2035.95
 20
314.319
 30
0.0
 11
2035.14
 21
314.319
 31
0.0
  0
LINE
  8
0
 62
     250
 10
2035.14
 20
314.319
 30
0.0
 11
2032.7
 21
314.1
 31
0.0
  0
LINE
  8
0
 62
     250
 10
2032.7
 20
314.1
 30
0.0
 11
2030.16
 21
313.416
 31
0.0
  0
LINE
  8
0
 62
     250
 10
2030.16
 20
313.416
 30
0.0
 11
2028.51
 21
312.231
 31
0.0
  0
LINE
  8
0
 62
     250
 10
2028.51
 20
312.231
 30
0.0
 11
2027.93
 21
310.94
 31
0.0
  0
LINE
  8
0
 62
     250
 10
2027.93
 20
310.94
 30
0.0
 11
2027.93
 21
310.509
 31
0.0
  0
LINE
  8
0
 62
     250
 10
2027.93
 20
310.509
 30
0.0
 11
2027.93
 21
310.121
 31
0.0
  0
LINE
  8
0
 62
     250
 10
2027.93
 20
310.121
 30
0.0
 11
2028.48
 21
308.952
 31
0.0
  0
LINE
  8
0
 62
     250
 10
2028.48
 20
308.952
 30
0.0
 11
2030.06
 21
307.731
 31
0.0
  0
LINE
  8
0
 62
     250
 10
2030.06
 20
307.731
 30
0.0
 11
2032.59
 21
306.935
 31
0.0
  0
LINE
  8
0
 62
     250
 10
2032.59
 20
306.935
 30
0.0
 11
2035.11
 21
306.648
 31
0.0
  0
LINE
  8
0
 62
     250
 10
2035.11
 20
306.648
 30
0.0
 11
2035.95
 21
306.648
 31
0.0
  0
LINE
  8
0
 62
     250
 10
2035.95
 20
306.648
 30
0.0
 11
2036.8
 21
306.648
 31
0.0
  0
LINE
  8
0
 62
     250
 10
2036.8
 20
306.648
 30
0.0
 11
2039.34
 21
306.904
 31
0.0
  0
LINE
  8
0
 62
     250
 10
2039.34
 20
306.904
 30
0.0
 11
2041.92
 21
307.645
 31
0.0
  0
LINE
  8
0
 62
     250
 10
2041.92
 20
307.645
 30
0.0
 11
2043.56
 21
308.835
 31
0.0
  0
LINE
  8
0
 62
     250
 10
2043.56
 20
308.835
 30
0.0
 11
2044.14
 21
310.034
 31
0.0
  0
LINE
  8
0
 62
     250
 10
2044.14
 20
310.034
 30
0.0
 11
2044.14
 21
310.432
 31
0.0
  0
LINE
  8
0
 62
     250
 10
2044.14
 20
310.432
 30
0.0
 11
2044.14
 21
310.883
 31
0.0
  0
LINE
  8
0
 62
     250
 10
2044.14
 20
310.883
 30
0.0
 11
2043.49
 21
312.231
 31
0.0
  0
LINE
  8
0
 62
     250
 10
2043.49
 20
312.231
 30
0.0
 11
2041.74
 21
313.435
 31
0.0
  0
LINE
  8
0
 62
     250
 10
2041.74
 20
313.435
 30
0.0
 11
2039.14
 21
314.11
 31
0.0
  0
LINE
  8
0
 62
     250
 10
2039.14
 20
314.11
 30
0.0
 11
2036.75
 21
314.319
 31
0.0
  0
LINE
  8
0
 62
     250
 10
2036.75
 20
314.319
 30
0.0
 11
2035.95
 21
314.319
 31
0.0
  0
LINE
  8
0
 62
     250
 10
2036.11
 20
304.488
 30
0.0
 11
2035.02
 21
304.488
 31
0.0
  0
LINE
  8
0
 62
     250
 10
2035.02
 20
304.488
 30
0.0
 11
2031.75
 21
304.95
 31
0.0
  0
LINE
  8
0
 62
     250
 10
2031.75
 20
304.95
 30
0.0
 11
2028.67
 21
306.229
 31
0.0
  0
LINE
  8
0
 62
     250
 10
2028.67
 20
306.229
 30
0.0
 11
2026.84
 21
308.176
 31
0.0
  0
LINE
  8
0
 62
     250
 10
2026.84
 20
308.176
 30
0.0
 11
2026.22
 21
310.021
 31
0.0
  0
LINE
  8
0
 62
     250
 10
2026.22
 20
310.021
 30
0.0
 11
2026.22
 21
310.636
 31
0.0
  0
LINE
  8
0
 62
     250
 10
2026.22
 20
310.636
 30
0.0
 11
2026.22
 21
311.244
 31
0.0
  0
LINE
  8
0
 62
     250
 10
2026.22
 20
311.244
 30
0.0
 11
2026.85
 21
313.067
 31
0.0
  0
LINE
  8
0
 62
     250
 10
2026.85
 20
313.067
 30
0.0
 11
2028.71
 21
314.897
 31
0.0
  0
LINE
  8
0
 62
     250
 10
2028.71
 20
314.897
 30
0.0
 11
2031.72
 21
316.052
 31
0.0
  0
LINE
  8
0
 62
     250
 10
2031.72
 20
316.052
 30
0.0
 11
2034.82
 21
316.453
 31
0.0
  0
LINE
  8
0
 62
     250
 10
2034.82
 20
316.453
 30
0.0
 11
2035.85
 21
316.453
 31
0.0
  0
LINE
  8
0
 62
     250
 10
2035.85
 20
316.453
 30
0.0
 11
2036.94
 21
316.453
 31
0.0
  0
LINE
  8
0
 62
     250
 10
2036.94
 20
316.453
 30
0.0
 11
2040.2
 21
316.034
 31
0.0
  0
LINE
  8
0
 62
     250
 10
2040.2
 20
316.034
 30
0.0
 11
2043.33
 21
314.825
 31
0.0
  0
LINE
  8
0
 62
     250
 10
2043.33
 20
314.825
 30
0.0
 11
2045.23
 21
312.907
 31
0.0
  0
LINE
  8
0
 62
     250
 10
2045.23
 20
312.907
 30
0.0
 11
2045.86
 21
310.994
 31
0.0
  0
LINE
  8
0
 62
     250
 10
2045.86
 20
310.994
 30
0.0
 11
2045.86
 21
310.356
 31
0.0
  0
LINE
  8
0
 62
     250
 10
2045.86
 20
310.356
 30
0.0
 11
2045.86
 21
309.764
 31
0.0
  0
LINE
  8
0
 62
     250
 10
2045.86
 20
309.764
 30
0.0
 11
2045.23
 21
307.983
 31
0.0
  0
LINE
  8
0
 62
     250
 10
2045.23
 20
307.983
 30
0.0
 11
2043.37
 21
306.127
 31
0.0
  0
LINE
  8
0
 62
     250
 10
2043.37
 20
306.127
 30
0.0
 11
2040.31
 21
304.92
 31
0.0
  0
LINE
  8
0
 62
     250
 10
2040.31
 20
304.92
 30
0.0
 11
2037.16
 21
304.488
 31
0.0
  0
LINE
  8
0
 62
     250
 10
2037.16
 20
304.488
 30
0.0
 11
2036.11
 21
304.488
 31
0.0
  0
LINE
  8
0
 62
     250
 10
992.068
 20
758.97
 30
0.0
 11
992.068
 21
776.012
 31
0.0
  0
LINE
  8
0
 62
     250
 10
992.068
 20
776.012
 30
0.0
 11
992.018
 21
776.012
 31
0.0
  0
LINE
  8
0
 62
     250
 10
992.018
 20
776.012
 30
0.0
 11
988.893
 21
774.21
 31
0.0
  0
LINE
  8
0
 62
     250
 10
988.893
 20
774.21
 30
0.0
 11
988.385
 21
775.783
 31
0.0
  0
LINE
  8
0
 62
     250
 10
988.385
 20
775.783
 30
0.0
 11
992.322
 21
777.995
 31
0.0
  0
LINE
  8
0
 62
     250
 10
992.322
 20
777.995
 30
0.0
 11
994.124
 21
777.995
 31
0.0
  0
LINE
  8
0
 62
     250
 10
994.124
 20
777.995
 30
0.0
 11
994.124
 21
758.97
 31
0.0
  0
LINE
  8
0
 62
     250
 10
994.124
 20
758.97
 30
0.0
 11
992.068
 21
758.97
 31
0.0
  0
LINE
  8
0
 62
     250
 10
1003.27
 20
773.55
 30
0.0
 11
1003.26
 21
773.211
 31
0.0
  0
LINE
  8
0
 62
     250
 10
1003.26
 20
773.211
 30
0.0
 11
1003.51
 21
772.192
 31
0.0
  0
LINE
  8
0
 62
     250
 10
1003.51
 20
772.192
 30
0.0
 11
1004.23
 21
771.133
 31
0.0
  0
LINE
  8
0
 62
     250
 10
1004.23
 20
771.133
 30
0.0
 11
1005.35
 21
770.34
 31
0.0
  0
LINE
  8
0
 62
     250
 10
1005.35
 20
770.34
 30
0.0
 11
1006.43
 21
769.874
 31
0.0
  0
LINE
  8
0
 62
     250
 10
1006.43
 20
769.874
 30
0.0
 11
1006.8
 21
769.765
 31
0.0
  0
LINE
  8
0
 62
     250
 10
1006.8
 20
769.765
 30
0.0
 11
1007.1
 21
769.881
 31
0.0
  0
LINE
  8
0
 62
     250
 10
1007.1
 20
769.881
 30
0.0
 11
1007.95
 21
770.361
 31
0.0
  0
LINE
  8
0
 62
     250
 10
1007.95
 20
770.361
 30
0.0
 11
1008.87
 21
771.193
 31
0.0
  0
LINE
  8
0
 62
     250
 10
1008.87
 20
771.193
 30
0.0
 11
1009.47
 21
772.245
 31
0.0
  0
LINE
  8
0
 62
     250
 10
1009.47
 20
772.245
 30
0.0
 11
1009.7
 21
773.187
 31
0.0
  0
LINE
  8
0
 62
     250
 10
1009.7
 20
773.187
 30
0.0
 11
1009.7
 21
773.497
 31
0.0
  0
LINE
  8
0
 62
     250
 10
1009.7
 20
773.497
 30
0.0
 11
1009.7
 21
773.793
 31
0.0
  0
LINE
  8
0
 62
     250
 10
1009.7
 20
773.793
 30
0.0
 11
1009.52
 21
774.682
 31
0.0
  0
LINE
  8
0
 62
     250
 10
1009.52
 20
774.682
 30
0.0
 11
1008.97
 21
775.723
 31
0.0
  0
LINE
  8
0
 62
     250
 10
1008.97
 20
775.723
 30
0.0
 11
1008
 21
776.467
 31
0.0
  0
LINE
  8
0
 62
     250
 10
1008
 20
776.467
 30
0.0
 11
1006.93
 21
776.75
 31
0.0
  0
LINE
  8
0
 62
     250
 10
1006.93
 20
776.75
 30
0.0
 11
1006.57
 21
776.75
 31
0.0
  0
LINE
  8
0
 62
     250
 10
1006.57
 20
776.75
 30
0.0
 11
1006.21
 21
776.75
 31
0.0
  0
LINE
  8
0
 62
     250
 10
1006.21
 20
776.75
 30
0.0
 11
1005.12
 21
776.482
 31
0.0
  0
LINE
  8
0
 62
     250
 10
1005.12
 20
776.482
 30
0.0
 11
1004.09
 21
775.769
 31
0.0
  0
LINE
  8
0
 62
     250
 10
1004.09
 20
775.769
 30
0.0
 11
1003.47
 21
774.746
 31
0.0
  0
LINE
  8
0
 62
     250
 10
1003.47
 20
774.746
 30
0.0
 11
1003.27
 21
773.85
 31
0.0
  0
LINE
  8
0
 62
     250
 10
1003.27
 20
773.85
 30
0.0
 11
1003.27
 21
773.55
 31
0.0
  0
LINE
  8
0
 62
     250
 10
1010.25
 20
763.87
 30
0.0
 11
1010.25
 21
764.268
 31
0.0
  0
LINE
  8
0
 62
     250
 10
1010.25
 20
764.268
 30
0.0
 11
1009.96
 21
765.454
 31
0.0
  0
LINE
  8
0
 62
     250
 10
1009.96
 20
765.454
 30
0.0
 11
1009.14
 21
766.671
 31
0.0
  0
LINE
  8
0
 62
     250
 10
1009.14
 20
766.671
 30
0.0
 11
1007.84
 21
767.595
 31
0.0
  0
LINE
  8
0
 62
     250
 10
1007.84
 20
767.595
 30
0.0
 11
1006.57
 21
768.149
 31
0.0
  0
LINE
  8
0
 62
     250
 10
1006.57
 20
768.149
 30
0.0
 11
1006.14
 21
768.29
 31
0.0
  0
LINE
  8
0
 62
     250
 10
1006.14
 20
768.29
 30
0.0
 11
1005.75
 21
768.163
 31
0.0
  0
LINE
  8
0
 62
     250
 10
1005.75
 20
768.163
 30
0.0
 11
1004.66
 21
767.581
 31
0.0
  0
LINE
  8
0
 62
     250
 10
1004.66
 20
767.581
 30
0.0
 11
1003.59
 21
766.6
 31
0.0
  0
LINE
  8
0
 62
     250
 10
1003.59
 20
766.6
 30
0.0
 11
1002.93
 21
765.401
 31
0.0
  0
LINE
  8
0
 62
     250
 10
1002.93
 20
765.401
 30
0.0
 11
1002.71
 21
764.388
 31
0.0
  0
LINE
  8
0
 62
     250
 10
1002.71
 20
764.388
 30
0.0
 11
1002.71
 21
764.046
 31
0.0
  0
LINE
  8
0
 62
     250
 10
1002.71
 20
764.046
 30
0.0
 11
1002.71
 21
763.672
 31
0.0
  0
LINE
  8
0
 62
     250
 10
1002.71
 20
763.672
 30
0.0
 11
1002.97
 21
762.543
 31
0.0
  0
LINE
  8
0
 62
     250
 10
1002.97
 20
762.543
 30
0.0
 11
1003.72
 21
761.333
 31
0.0
  0
LINE
  8
0
 62
     250
 10
1003.72
 20
761.333
 30
0.0
 11
1004.89
 21
760.529
 31
0.0
  0
LINE
  8
0
 62
     250
 10
1004.89
 20
760.529
 30
0.0
 11
1006.06
 21
760.236
 31
0.0
  0
LINE
  8
0
 62
     250
 10
1006.06
 20
760.236
 30
0.0
 11
1006.44
 21
760.236
 31
0.0
  0
LINE
  8
0
 62
     250
 10
1006.44
 20
760.236
 30
0.0
 11
1006.85
 21
760.236
 31
0.0
  0
LINE
  8
0
 62
     250
 10
1006.85
 20
760.236
 30
0.0
 11
1008.07
 21
760.525
 31
0.0
  0
LINE
  8
0
 62
     250
 10
1008.07
 20
760.525
 30
0.0
 11
1009.26
 21
761.312
 31
0.0
  0
LINE
  8
0
 62
     250
 10
1009.26
 20
761.312
 30
0.0
 11
1010
 21
762.466
 31
0.0
  0
LINE
  8
0
 62
     250
 10
1010
 20
762.466
 30
0.0
 11
1010.25
 21
763.52
 31
0.0
  0
LINE
  8
0
 62
     250
 10
1010.25
 20
763.52
 30
0.0
 11
1010.25
 21
763.87
 31
0.0
  0
LINE
  8
0
 62
     250
 10
1004.23
 20
769.052
 30
0.0
 11
1003.88
 21
769.225
 31
0.0
  0
LINE
  8
0
 62
     250
 10
1003.88
 20
769.225
 30
0.0
 11
1002.9
 21
769.913
 31
0.0
  0
LINE
  8
0
 62
     250
 10
1002.9
 20
769.913
 30
0.0
 11
1001.98
 21
770.961
 31
0.0
  0
LINE
  8
0
 62
     250
 10
1001.98
 20
770.961
 30
0.0
 11
1001.43
 21
772.128
 31
0.0
  0
LINE
  8
0
 62
     250
 10
1001.43
 20
772.128
 30
0.0
 11
1001.26
 21
773.042
 31
0.0
  0
LINE
  8
0
 62
     250
 10
1001.26
 20
773.042
 30
0.0
 11
1001.26
 21
773.345
 31
0.0
  0
LINE
  8
0
 62
     250
 10
1001.26
 20
773.345
 30
0.0
 11
1001.26
 21
773.61
 31
0.0
  0
LINE
  8
0
 62
     250
 10
1001.26
 20
773.61
 30
0.0
 11
1001.37
 21
774.404
 31
0.0
  0
LINE
  8
0
 62
     250
 10
1001.37
 20
774.404
 30
0.0
 11
1001.67
 21
775.363
 31
0.0
  0
LINE
  8
0
 62
     250
 10
1001.67
 20
775.363
 30
0.0
 11
1002.15
 21
776.21
 31
0.0
  0
LINE
  8
0
 62
     250
 10
1002.15
 20
776.21
 30
0.0
 11
1002.8
 21
776.93
 31
0.0
  0
LINE
  8
0
 62
     250
 10
1002.8
 20
776.93
 30
0.0
 11
1003.59
 21
777.508
 31
0.0
  0
LINE
  8
0
 62
     250
 10
1003.59
 20
777.508
 30
0.0
 11
1004.51
 21
777.938
 31
0.0
  0
LINE
  8
0
 62
     250
 10
1004.51
 20
777.938
 30
0.0
 11
1005.53
 21
778.21
 31
0.0
  0
LINE
  8
0
 62
     250
 10
1005.53
 20
778.21
 30
0.0
 11
1006.37
 21
778.298
 31
0.0
  0
LINE
  8
0
 62
     250
 10
1006.37
 20
778.298
 30
0.0
 11
1006.65
 21
778.298
 31
0.0
  0
LINE
  8
0
 62
     250
 10
1006.65
 20
778.298
 30
0.0
 11
1006.95
 21
778.298
 31
0.0
  0
LINE
  8
0
 62
     250
 10
1006.95
 20
778.298
 30
0.0
 11
1007.86
 21
778.196
 31
0.0
  0
LINE
  8
0
 62
     250
 10
1007.86
 20
778.196
 30
0.0
 11
1008.9
 21
777.9
 31
0.0
  0
LINE
  8
0
 62
     250
 10
1008.9
 20
777.9
 30
0.0
 11
1009.78
 21
777.441
 31
0.0
  0
LINE
  8
0
 62
     250
 10
1009.78
 20
777.441
 30
0.0
 11
1010.49
 21
776.845
 31
0.0
  0
LINE
  8
0
 62
     250
 10
1010.49
 20
776.845
 30
0.0
 11
1011.05
 21
776.143
 31
0.0
  0
LINE
  8
0
 62
     250
 10
1011.05
 20
776.143
 30
0.0
 11
1011.44
 21
775.363
 31
0.0
  0
LINE
  8
0
 62
     250
 10
1011.44
 20
775.363
 30
0.0
 11
1011.67
 21
774.531
 31
0.0
  0
LINE
  8
0
 62
     250
 10
1011.67
 20
774.531
 30
0.0
 11
1011.75
 21
773.892
 31
0.0
  0
LINE
  8
0
 62
     250
 10
1011.75
 20
773.892
 30
0.0
 11
1011.75
 21
773.677
 31
0.0
  0
LINE
  8
0
 62
     250
 10
1011.75
 20
773.677
 30
0.0
 11
1011.75
 21
773.366
 31
0.0
  0
LINE
  8
0
 62
     250
 10
1011.75
 20
773.366
 30
0.0
 11
1011.58
 21
772.442
 31
0.0
  0
LINE
  8
0
 62
     250
 10
1011.58
 20
772.442
 30
0.0
 11
1011.04
 21
771.229
 31
0.0
  0
LINE
  8
0
 62
     250
 10
1011.04
 20
771.229
 30
0.0
 11
1010.07
 21
770.114
 31
0.0
  0
LINE
  8
0
 62
     250
 10
1010.07
 20
770.114
 30
0.0
 11
1009.01
 21
769.366
 31
0.0
  0
LINE
  8
0
 62
     250
 10
1009.01
 20
769.366
 30
0.0
 11
1008.63
 21
769.179
 31
0.0
  0
LINE
  8
0
 62
     250
 10
1008.63
 20
769.179
 30
0.0
 11
1008.63
 21
769.077
 31
0.0
  0
LINE
  8
0
 62
     250
 10
1008.63
 20
769.077
 30
0.0
 11
1009.04
 21
768.904
 31
0.0
  0
LINE
  8
0
 62
     250
 10
1009.04
 20
768.904
 30
0.0
 11
1010.2
 21
768.205
 31
0.0
  0
LINE
  8
0
 62
     250
 10
1010.2
 20
768.205
 30
0.0
 11
1011.4
 21
767.073
 31
0.0
  0
LINE
  8
0
 62
     250
 10
1011.4
 20
767.073
 30
0.0
 11
1012.15
 21
765.704
 31
0.0
  0
LINE
  8
0
 62
     250
 10
1012.15
 20
765.704
 30
0.0
 11
1012.41
 21
764.501
 31
0.0
  0
LINE
  8
0
 62
     250
 10
1012.41
 20
764.501
 30
0.0
 11
1012.41
 21
764.099
 31
0.0
  0
LINE
  8
0
 62
     250
 10
1012.41
 20
764.099
 30
0.0
 11
1012.41
 21
763.545
 31
0.0
  0
LINE
  8
0
 62
     250
 10
1012.41
 20
763.545
 30
0.0
 11
1011.95
 21
761.887
 31
0.0
  0
LINE
  8
0
 62
     250
 10
1011.95
 20
761.887
 30
0.0
 11
1010.67
 21
760.173
 31
0.0
  0
LINE
  8
0
 62
     250
 10
1010.67
 20
760.173
 30
0.0
 11
1008.77
 21
759.058
 31
0.0
  0
LINE
  8
0
 62
     250
 10
1008.77
 20
759.058
 30
0.0
 11
1007
 21
758.663
 31
0.0
  0
LINE
  8
0
 62
     250
 10
1007
 20
758.663
 30
0.0
 11
1006.42
 21
758.663
 31
0.0
  0
LINE
  8
0
 62
     250
 10
1006.42
 20
758.663
 30
0.0
 11
1005.8
 21
758.663
 31
0.0
  0
LINE
  8
0
 62
     250
 10
1005.8
 20
758.663
 30
0.0
 11
1003.97
 21
759.068
 31
0.0
  0
LINE
  8
0
 62
     250
 10
1003.97
 20
759.068
 30
0.0
 11
1002.12
 21
760.162
 31
0.0
  0
LINE
  8
0
 62
     250
 10
1002.12
 20
760.162
 30
0.0
 11
1000.96
 21
761.771
 31
0.0
  0
LINE
  8
0
 62
     250
 10
1000.96
 20
761.771
 30
0.0
 11
1000.55
 21
763.231
 31
0.0
  0
LINE
  8
0
 62
     250
 10
1000.55
 20
763.231
 30
0.0
 11
1000.55
 21
763.718
 31
0.0
  0
LINE
  8
0
 62
     250
 10
1000.55
 20
763.718
 30
0.0
 11
1000.55
 21
764.148
 31
0.0
  0
LINE
  8
0
 62
     250
 10
1000.55
 20
764.148
 30
0.0
 11
1000.82
 21
765.436
 31
0.0
  0
LINE
  8
0
 62
     250
 10
1000.82
 20
765.436
 30
0.0
 11
1001.56
 21
766.89
 31
0.0
  0
LINE
  8
0
 62
     250
 10
1001.56
 20
766.89
 30
0.0
 11
1002.73
 21
768.061
 31
0.0
  0
LINE
  8
0
 62
     250
 10
1002.73
 20
768.061
 30
0.0
 11
1003.84
 21
768.773
 31
0.0
  0
LINE
  8
0
 62
     250
 10
1003.84
 20
768.773
 30
0.0
 11
1004.23
 21
768.95
 31
0.0
  0
LINE
  8
0
 62
     250
 10
1004.23
 20
768.95
 30
0.0
 11
1004.23
 21
769.052
 31
0.0
  0
LINE
  8
0
 62
     250
 10
1016.1
 20
765.926
 30
0.0
 11
1022.27
 21
765.926
 31
0.0
  0
LINE
  8
0
 62
     250
 10
1022.27
 20
765.926
 30
0.0
 11
1022.27
 21
772.686
 31
0.0
  0
LINE
  8
0
 62
     250
 10
1022.27
 20
772.686
 30
0.0
 11
1022.27
 21
773.448
 31
0.0
  0
LINE
  8
0
 62
     250
 10
1022.27
 20
773.448
 30
0.0
 11
1022.36
 21
775.487
 31
0.0
  0
LINE
  8
0
 62
     250
 10
1022.36
 20
775.487
 30
0.0
 11
1022.37
 21
775.734
 31
0.0
  0
LINE
  8
0
 62
     250
 10
1022.37
 20
775.734
 30
0.0
 11
1022.27
 21
775.734
 31
0.0
  0
LINE
  8
0
 62
     250
 10
1022.27
 20
775.734
 30
0.0
 11
1022.12
 21
775.441
 31
0.0
  0
LINE
  8
0
 62
     250
 10
1022.12
 20
775.441
 30
0.0
 11
1021.47
 21
774.196
 31
0.0
  0
LINE
  8
0
 62
     250
 10
1021.47
 20
774.196
 30
0.0
 11
1020.86
 21
773.105
 31
0.0
  0
LINE
  8
0
 62
     250
 10
1020.86
 20
773.105
 30
0.0
 11
1020.74
 21
772.887
 31
0.0
  0
LINE
  8
0
 62
     250
 10
1020.74
 20
772.887
 30
0.0
 11
1016.1
 21
765.979
 31
0.0
  0
LINE
  8
0
 62
     250
 10
1016.1
 20
765.979
 30
0.0
 11
1016.1
 21
765.926
 31
0.0
  0
LINE
  8
0
 62
     250
 10
1024.28
 20
758.97
 30
0.0
 11
1022.27
 21
758.97
 31
0.0
  0
LINE
  8
0
 62
     250
 10
1022.27
 20
758.97
 30
0.0
 11
1022.27
 21
764.304
 31
0.0
  0
LINE
  8
0
 62
     250
 10
1022.27
 20
764.304
 30
0.0
 11
1013.96
 21
764.304
 31
0.0
  0
LINE
  8
0
 62
     250
 10
1013.96
 20
764.304
 30
0.0
 11
1013.96
 21
765.648
 31
0.0
  0
LINE
  8
0
 62
     250
 10
1013.96
 20
765.648
 30
0.0
 11
1022.09
 21
777.995
 31
0.0
  0
LINE
  8
0
 62
     250
 10
1022.09
 20
777.995
 30
0.0
 11
1024.28
 21
777.995
 31
0.0
  0
LINE
  8
0
 62
     250
 10
1024.28
 20
777.995
 30
0.0
 11
1024.28
 21
765.926
 31
0.0
  0
LINE
  8
0
 62
     250
 10
1024.28
 20
765.926
 30
0.0
 11
1026.87
 21
765.926
 31
0.0
  0
LINE
  8
0
 62
     250
 10
1026.87
 20
765.926
 30
0.0
 11
1026.87
 21
764.304
 31
0.0
  0
LINE
  8
0
 62
     250
 10
1026.87
 20
764.304
 30
0.0
 11
1024.28
 21
764.304
 31
0.0
  0
LINE
  8
0
 62
     250
 10
1024.28
 20
764.304
 30
0.0
 11
1024.28
 21
758.97
 31
0.0
  0
LINE
  8
0
 62
     250
 10
1039.26
 20
777.995
 30
0.0
 11
1039.26
 21
776.242
 31
0.0
  0
LINE
  8
0
 62
     250
 10
1039.26
 20
776.242
 30
0.0
 11
1032.43
 21
776.242
 31
0.0
  0
LINE
  8
0
 62
     250
 10
1032.43
 20
776.242
 30
0.0
 11
1031.64
 21
770.858
 31
0.0
  0
LINE
  8
0
 62
     250
 10
1031.64
 20
770.858
 30
0.0
 11
1031.74
 21
770.869
 31
0.0
  0
LINE
  8
0
 62
     250
 10
1031.74
 20
770.869
 30
0.0
 11
1032.28
 21
770.925
 31
0.0
  0
LINE
  8
0
 62
     250
 10
1032.28
 20
770.925
 30
0.0
 11
1032.91
 21
770.957
 31
0.0
  0
LINE
  8
0
 62
     250
 10
1032.91
 20
770.957
 30
0.0
 11
1033.11
 21
770.957
 31
0.0
  0
LINE
  8
0
 62
     250
 10
1033.11
 20
770.957
 30
0.0
 11
1033.72
 21
770.957
 31
0.0
  0
LINE
  8
0
 62
     250
 10
1033.72
 20
770.957
 30
0.0
 11
1035.54
 21
770.587
 31
0.0
  0
LINE
  8
0
 62
     250
 10
1035.54
 20
770.587
 30
0.0
 11
1037.58
 21
769.475
 31
0.0
  0
LINE
  8
0
 62
     250
 10
1037.58
 20
769.475
 30
0.0
 11
1038.99
 21
767.648
 31
0.0
  0
LINE
  8
0
 62
     250
 10
1038.99
 20
767.648
 30
0.0
 11
1039.52
 21
765.75
 31
0.0
  0
LINE
  8
0
 62
     250
 10
1039.52
 20
765.75
 30
0.0
 11
1039.52
 21
765.115
 31
0.0
  0
LINE
  8
0
 62
     250
 10
1039.52
 20
765.115
 30
0.0
 11
1039.52
 21
764.469
 31
0.0
  0
LINE
  8
0
 62
     250
 10
1039.52
 20
764.469
 30
0.0
 11
1039.02
 21
762.522
 31
0.0
  0
LINE
  8
0
 62
     250
 10
1039.02
 20
762.522
 30
0.0
 11
1037.65
 21
760.48
 31
0.0
  0
LINE
  8
0
 62
     250
 10
1037.65
 20
760.48
 30
0.0
 11
1035.57
 21
759.142
 31
0.0
  0
LINE
  8
0
 62
     250
 10
1035.57
 20
759.142
 30
0.0
 11
1033.61
 21
758.663
 31
0.0
  0
LINE
  8
0
 62
     250
 10
1033.61
 20
758.663
 30
0.0
 11
1032.96
 21
758.663
 31
0.0
  0
LINE
  8
0
 62
     250
 10
1032.96
 20
758.663
 30
0.0
 11
1032.62
 21
758.663
 31
0.0
  0
LINE
  8
0
 62
     250
 10
1032.62
 20
758.663
 30
0.0
 11
1031.6
 21
758.758
 31
0.0
  0
LINE
  8
0
 62
     250
 10
1031.6
 20
758.758
 30
0.0
 11
1030.39
 21
759.012
 31
0.0
  0
LINE
  8
0
 62
     250
 10
1030.39
 20
759.012
 30
0.0
 11
1029.37
 21
759.372
 31
0.0
  0
LINE
  8
0
 62
     250
 10
1029.37
 20
759.372
 30
0.0
 11
1028.77
 21
759.665
 31
0.0
  0
LINE
  8
0
 62
     250
 10
1028.77
 20
759.665
 30
0.0
 11
1028.59
 21
759.781
 31
0.0
  0
LINE
  8
0
 62
     250
 10
1028.59
 20
759.781
 30
0.0
 11
1029.2
 21
761.432
 31
0.0
  0
LINE
  8
0
 62
     250
 10
1029.2
 20
761.432
 30
0.0
 11
1029.36
 21
761.326
 31
0.0
  0
LINE
  8
0
 62
     250
 10
1029.36
 20
761.326
 30
0.0
 11
1029.86
 21
761.062
 31
0.0
  0
LINE
  8
0
 62
     250
 10
1029.86
 20
761.062
 30
0.0
 11
1030.73
 21
760.719
 31
0.0
  0
LINE
  8
0
 62
     250
 10
1030.73
 20
760.719
 30
0.0
 11
1031.78
 21
760.465
 31
0.0
  0
LINE
  8
0
 62
     250
 10
1031.78
 20
760.465
 30
0.0
 11
1032.67
 21
760.367
 31
0.0
  0
LINE
  8
0
 62
     250
 10
1032.67
 20
760.367
 30
0.0
 11
1032.96
 21
760.367
 31
0.0
  0
LINE
  8
0
 62
     250
 10
1032.96
 20
760.367
 30
0.0
 11
1033.18
 21
760.367
 31
0.0
  0
LINE
  8
0
 62
     250
 10
1033.18
 20
760.367
 30
0.0
 11
1033.84
 21
760.448
 31
0.0
  0
LINE
  8
0
 62
     250
 10
1033.84
 20
760.448
 30
0.0
 11
1034.66
 21
760.684
 31
0.0
  0
LINE
  8
0
 62
     250
 10
1034.66
 20
760.684
 30
0.0
 11
1035.42
 21
761.065
 31
0.0
  0
LINE
  8
0
 62
     250
 10
1035.42
 20
761.065
 30
0.0
 11
1036.08
 21
761.584
 31
0.0
  0
LINE
  8
0
 62
     250
 10
1036.08
 20
761.584
 30
0.0
 11
1036.62
 21
762.233
 31
0.0
  0
LINE
  8
0
 62
     250
 10
1036.62
 20
762.233
 30
0.0
 11
1037.04
 21
763.002
 31
0.0
  0
LINE
  8
0
 62
     250
 10
1037.04
 20
763.002
 30
0.0
 11
1037.29
 21
763.88
 31
0.0
  0
LINE
  8
0
 62
     250
 10
1037.29
 20
763.88
 30
0.0
 11
1037.38
 21
764.618
 31
0.0
  0
LINE
  8
0
 62
     250
 10
1037.38
 20
764.618
 30
0.0
 11
1037.38
 21
764.861
 31
0.0
  0
LINE
  8
0
 62
     250
 10
1037.38
 20
764.861
 30
0.0
 11
1037.38
 21
765.313
 31
0.0
  0
LINE
  8
0
 62
     250
 10
1037.38
 20
765.313
 30
0.0
 11
1037.06
 21
766.66
 31
0.0
  0
LINE
  8
0
 62
     250
 10
1037.06
 20
766.66
 30
0.0
 11
1036.1
 21
768.068
 31
0.0
  0
LINE
  8
0
 62
     250
 10
1036.1
 20
768.068
 30
0.0
 11
1034.46
 21
768.981
 31
0.0
  0
LINE
  8
0
 62
     250
 10
1034.46
 20
768.981
 30
0.0
 11
1032.73
 21
769.306
 31
0.0
  0
LINE
  8
0
 62
     250
 10
1032.73
 20
769.306
 30
0.0
 11
1032.15
 21
769.306
 31
0.0
  0
LINE
  8
0
 62
     250
 10
1032.15
 20
769.306
 30
0.0
 11
1031.8
 21
769.306
 31
0.0
  0
LINE
  8
0
 62
     250
 10
1031.8
 20
769.306
 30
0.0
 11
1030.78
 21
769.257
 31
0.0
  0
LINE
  8
0
 62
     250
 10
1030.78
 20
769.257
 30
0.0
 11
1029.87
 21
769.154
 31
0.0
  0
LINE
  8
0
 62
     250
 10
1029.87
 20
769.154
 30
0.0
 11
1029.71
 21
769.13
 31
0.0
  0
LINE
  8
0
 62
     250
 10
1029.71
 20
769.13
 30
0.0
 11
1030.9
 21
777.995
 31
0.0
  0
LINE
  8
0
 62
     250
 10
1030.9
 20
777.995
 30
0.0
 11
1039.26
 21
777.995
 31
0.0
  0
ENDSEC
  0
EOF
