  0
SECTION
  2
HEADER
  9
$ACADVER
  1
AC1009
  9
$EXTMIN
 10
0.0
 20
0.0
 30
0.0
  9
$EXTMAX
 10
1000.0
 20
1000.0
 30
0.0
  9
$FILLMODE
 70
 0
  9
$SPLFRAME
 70
 1
  0
ENDSEC
  0
SECTION
  2
TABLES
  0
TABLE
  2
LAYER
 70
1
  0
LAYER
  2
0
 70
     0
 62
     7
  6
CONTINUOUS
  0
ENDTAB
  0
ENDSEC
  0
SECTION
  2
ENTITIES
  0
LINE
  8
0
 62
     250
 10
1203.96
 20
123.508
 30
0.0
 11
1203.96
 21
123.508
 31
0.0
  0
LINE
  8
0
 62
     250
 10
1203.96
 20
123.508
 30
0.0
 11
1204.21
 21
123.53
 31
0.0
  0
LINE
  8
0
 62
     250
 10
1204.21
 20
123.53
 30
0.0
 11
1204.92
 21
123.618
 31
0.0
  0
LINE
  8
0
 62
     250
 10
1204.92
 20
123.618
 30
0.0
 11
1206.04
 21
123.804
 31
0.0
  0
LINE
  8
0
 62
     250
 10
1206.04
 20
123.804
 30
0.0
 11
1207.53
 21
124.124
 31
0.0
  0
LINE
  8
0
 62
     250
 10
1207.53
 20
124.124
 30
0.0
 11
1209.34
 21
124.608
 31
0.0
  0
LINE
  8
0
 62
     250
 10
1209.34
 20
124.608
 30
0.0
 11
1211.41
 21
125.288
 31
0.0
  0
LINE
  8
0
 62
     250
 10
1211.41
 20
125.288
 30
0.0
 11
1213.7
 21
126.202
 31
0.0
  0
LINE
  8
0
 62
     250
 10
1213.7
 20
126.202
 30
0.0
 11
1216.17
 21
127.38
 31
0.0
  0
LINE
  8
0
 62
     250
 10
1216.17
 20
127.38
 30
0.0
 11
1218.76
 21
128.855
 31
0.0
  0
LINE
  8
0
 62
     250
 10
1218.76
 20
128.855
 30
0.0
 11
1221.42
 21
130.661
 31
0.0
  0
LINE
  8
0
 62
     250
 10
1221.42
 20
130.661
 30
0.0
 11
1224.11
 21
132.83
 31
0.0
  0
LINE
  8
0
 62
     250
 10
1224.11
 20
132.83
 30
0.0
 11
1226.77
 21
135.398
 31
0.0
  0
LINE
  8
0
 62
     250
 10
1226.77
 20
135.398
 30
0.0
 11
1229.37
 21
138.394
 31
0.0
  0
LINE
  8
0
 62
     250
 10
1229.37
 20
138.394
 30
0.0
 11
1231.84
 21
141.854
 31
0.0
  0
LINE
  8
0
 62
     250
 10
1231.84
 20
141.854
 30
0.0
 11
1234.14
 21
145.81
 31
0.0
  0
LINE
  8
0
 62
     250
 10
1234.14
 20
145.81
 30
0.0
 11
1235.76
 21
149.153
 31
0.0
  0
LINE
  8
0
 62
     250
 10
1235.76
 20
149.153
 30
0.0
 11
1236.23
 21
150.294
 31
0.0
  0
LINE
  8
0
 62
     250
 10
1236.23
 20
150.294
 30
0.0
 11
1236.51
 21
150.966
 31
0.0
  0
LINE
  8
0
 62
     250
 10
1236.51
 20
150.966
 30
0.0
 11
1237.2
 21
153.038
 31
0.0
  0
LINE
  8
0
 62
     250
 10
1237.2
 20
153.038
 30
0.0
 11
1238.13
 21
156.474
 31
0.0
  0
LINE
  8
0
 62
     250
 10
1238.13
 20
156.474
 30
0.0
 11
1239.03
 21
160.555
 31
0.0
  0
LINE
  8
0
 62
     250
 10
1239.03
 20
160.555
 30
0.0
 11
1239.9
 21
165.24
 31
0.0
  0
LINE
  8
0
 62
     250
 10
1239.9
 20
165.24
 30
0.0
 11
1240.74
 21
170.48
 31
0.0
  0
LINE
  8
0
 62
     250
 10
1240.74
 20
170.48
 30
0.0
 11
1241.54
 21
176.23
 31
0.0
  0
LINE
  8
0
 62
     250
 10
1241.54
 20
176.23
 30
0.0
 11
1242.31
 21
182.444
 31
0.0
  0
LINE
  8
0
 62
     250
 10
1242.31
 20
182.444
 30
0.0
 11
1243.05
 21
189.077
 31
0.0
  0
LINE
  8
0
 62
     250
 10
1243.05
 20
189.077
 30
0.0
 11
1243.76
 21
196.081
 31
0.0
  0
LINE
  8
0
 62
     250
 10
1243.76
 20
196.081
 30
0.0
 11
1244.44
 21
203.412
 31
0.0
  0
LINE
  8
0
 62
     250
 10
1244.44
 20
203.412
 30
0.0
 11
1245.09
 21
211.023
 31
0.0
  0
LINE
  8
0
 62
     250
 10
1245.09
 20
211.023
 30
0.0
 11
1245.71
 21
218.87
 31
0.0
  0
LINE
  8
0
 62
     250
 10
1245.71
 20
218.87
 30
0.0
 11
1246.29
 21
226.905
 31
0.0
  0
LINE
  8
0
 62
     250
 10
1246.29
 20
226.905
 30
0.0
 11
1246.85
 21
235.085
 31
0.0
  0
LINE
  8
0
 62
     250
 10
1246.85
 20
235.085
 30
0.0
 11
1247.37
 21
243.36
 31
0.0
  0
LINE
  8
0
 62
     250
 10
1247.37
 20
243.36
 30
0.0
 11
1247.86
 21
251.689
 31
0.0
  0
LINE
  8
0
 62
     250
 10
1247.86
 20
251.689
 30
0.0
 11
1248.32
 21
260.022
 31
0.0
  0
LINE
  8
0
 62
     250
 10
1248.32
 20
260.022
 30
0.0
 11
1248.76
 21
268.315
 31
0.0
  0
LINE
  8
0
 62
     250
 10
1248.76
 20
268.315
 30
0.0
 11
1249.15
 21
276.523
 31
0.0
  0
LINE
  8
0
 62
     250
 10
1249.15
 20
276.523
 30
0.0
 11
1249.52
 21
284.598
 31
0.0
  0
LINE
  8
0
 62
     250
 10
1249.52
 20
284.598
 30
0.0
 11
1249.87
 21
292.497
 31
0.0
  0
LINE
  8
0
 62
     250
 10
1249.87
 20
292.497
 30
0.0
 11
1250.17
 21
300.171
 31
0.0
  0
LINE
  8
0
 62
     250
 10
1250.17
 20
300.171
 30
0.0
 11
1250.46
 21
307.577
 31
0.0
  0
LINE
  8
0
 62
     250
 10
1250.46
 20
307.577
 30
0.0
 11
1250.71
 21
314.667
 31
0.0
  0
LINE
  8
0
 62
     250
 10
1250.71
 20
314.667
 30
0.0
 11
1250.93
 21
321.396
 31
0.0
  0
LINE
  8
0
 62
     250
 10
1250.93
 20
321.396
 30
0.0
 11
1251.12
 21
327.72
 31
0.0
  0
LINE
  8
0
 62
     250
 10
1251.12
 20
327.72
 30
0.0
 11
1251.28
 21
333.588
 31
0.0
  0
LINE
  8
0
 62
     250
 10
1251.28
 20
333.588
 30
0.0
 11
1251.41
 21
338.96
 31
0.0
  0
LINE
  8
0
 62
     250
 10
1251.41
 20
338.96
 30
0.0
 11
1251.51
 21
343.788
 31
0.0
  0
LINE
  8
0
 62
     250
 10
1251.51
 20
343.788
 30
0.0
 11
1251.58
 21
348.025
 31
0.0
  0
LINE
  8
0
 62
     250
 10
1251.58
 20
348.025
 30
0.0
 11
1251.63
 21
351.627
 31
0.0
  0
LINE
  8
0
 62
     250
 10
1251.63
 20
351.627
 30
0.0
 11
1251.64
 21
353.818
 31
0.0
  0
LINE
  8
0
 62
     250
 10
1251.64
 20
353.818
 30
0.0
 11
1251.64
 21
354.545
 31
0.0
  0
LINE
  8
0
 62
     250
 10
1203.96
 20
585.583
 30
0.0
 11
1203.96
 21
585.583
 31
0.0
  0
LINE
  8
0
 62
     250
 10
1203.96
 20
585.583
 30
0.0
 11
1204.21
 21
585.562
 31
0.0
  0
LINE
  8
0
 62
     250
 10
1204.21
 20
585.562
 30
0.0
 11
1204.92
 21
585.474
 31
0.0
  0
LINE
  8
0
 62
     250
 10
1204.92
 20
585.474
 30
0.0
 11
1206.04
 21
585.29
 31
0.0
  0
LINE
  8
0
 62
     250
 10
1206.04
 20
585.29
 30
0.0
 11
1207.53
 21
584.969
 31
0.0
  0
LINE
  8
0
 62
     250
 10
1207.53
 20
584.969
 30
0.0
 11
1209.34
 21
584.486
 31
0.0
  0
LINE
  8
0
 62
     250
 10
1209.34
 20
584.486
 30
0.0
 11
1211.41
 21
583.805
 31
0.0
  0
LINE
  8
0
 62
     250
 10
1211.41
 20
583.805
 30
0.0
 11
1213.7
 21
582.891
 31
0.0
  0
LINE
  8
0
 62
     250
 10
1213.7
 20
582.891
 30
0.0
 11
1216.17
 21
581.713
 31
0.0
  0
LINE
  8
0
 62
     250
 10
1216.17
 20
581.713
 30
0.0
 11
1218.76
 21
580.238
 31
0.0
  0
LINE
  8
0
 62
     250
 10
1218.76
 20
580.238
 30
0.0
 11
1221.42
 21
578.429
 31
0.0
  0
LINE
  8
0
 62
     250
 10
1221.42
 20
578.429
 30
0.0
 11
1224.11
 21
576.263
 31
0.0
  0
LINE
  8
0
 62
     250
 10
1224.11
 20
576.263
 30
0.0
 11
1226.77
 21
573.694
 31
0.0
  0
LINE
  8
0
 62
     250
 10
1226.77
 20
573.694
 30
0.0
 11
1229.37
 21
570.699
 31
0.0
  0
LINE
  8
0
 62
     250
 10
1229.37
 20
570.699
 30
0.0
 11
1231.84
 21
567.238
 31
0.0
  0
LINE
  8
0
 62
     250
 10
1231.84
 20
567.238
 30
0.0
 11
1234.14
 21
563.28
 31
0.0
  0
LINE
  8
0
 62
     250
 10
1234.14
 20
563.28
 30
0.0
 11
1235.76
 21
559.939
 31
0.0
  0
LINE
  8
0
 62
     250
 10
1235.76
 20
559.939
 30
0.0
 11
1236.23
 21
558.796
 31
0.0
  0
LINE
  8
0
 62
     250
 10
1236.23
 20
558.796
 30
0.0
 11
1236.51
 21
558.126
 31
0.0
  0
LINE
  8
0
 62
     250
 10
1236.51
 20
558.126
 30
0.0
 11
1237.2
 21
556.055
 31
0.0
  0
LINE
  8
0
 62
     250
 10
1237.2
 20
556.055
 30
0.0
 11
1238.13
 21
552.619
 31
0.0
  0
LINE
  8
0
 62
     250
 10
1238.13
 20
552.619
 30
0.0
 11
1239.03
 21
548.538
 31
0.0
  0
LINE
  8
0
 62
     250
 10
1239.03
 20
548.538
 30
0.0
 11
1239.9
 21
543.853
 31
0.0
  0
LINE
  8
0
 62
     250
 10
1239.9
 20
543.853
 30
0.0
 11
1240.74
 21
538.611
 31
0.0
  0
LINE
  8
0
 62
     250
 10
1240.74
 20
538.611
 30
0.0
 11
1241.54
 21
532.864
 31
0.0
  0
LINE
  8
0
 62
     250
 10
1241.54
 20
532.864
 30
0.0
 11
1242.31
 21
526.648
 31
0.0
  0
LINE
  8
0
 62
     250
 10
1242.31
 20
526.648
 30
0.0
 11
1243.05
 21
520.016
 31
0.0
  0
LINE
  8
0
 62
     250
 10
1243.05
 20
520.016
 30
0.0
 11
1243.76
 21
513.013
 31
0.0
  0
LINE
  8
0
 62
     250
 10
1243.76
 20
513.013
 30
0.0
 11
1244.44
 21
505.682
 31
0.0
  0
LINE
  8
0
 62
     250
 10
1244.44
 20
505.682
 30
0.0
 11
1245.09
 21
498.069
 31
0.0
  0
LINE
  8
0
 62
     250
 10
1245.09
 20
498.069
 30
0.0
 11
1245.71
 21
490.224
 31
0.0
  0
LINE
  8
0
 62
     250
 10
1245.71
 20
490.224
 30
0.0
 11
1246.29
 21
482.187
 31
0.0
  0
LINE
  8
0
 62
     250
 10
1246.29
 20
482.187
 30
0.0
 11
1246.85
 21
474.006
 31
0.0
  0
LINE
  8
0
 62
     250
 10
1246.85
 20
474.006
 30
0.0
 11
1247.37
 21
465.73
 31
0.0
  0
LINE
  8
0
 62
     250
 10
1247.37
 20
465.73
 30
0.0
 11
1247.86
 21
457.405
 31
0.0
  0
LINE
  8
0
 62
     250
 10
1247.86
 20
457.405
 30
0.0
 11
1248.32
 21
449.072
 31
0.0
  0
LINE
  8
0
 62
     250
 10
1248.32
 20
449.072
 30
0.0
 11
1248.76
 21
440.778
 31
0.0
  0
LINE
  8
0
 62
     250
 10
1248.76
 20
440.778
 30
0.0
 11
1249.15
 21
432.569
 31
0.0
  0
LINE
  8
0
 62
     250
 10
1249.15
 20
432.569
 30
0.0
 11
1249.52
 21
424.494
 31
0.0
  0
LINE
  8
0
 62
     250
 10
1249.52
 20
424.494
 30
0.0
 11
1249.87
 21
416.595
 31
0.0
  0
LINE
  8
0
 62
     250
 10
1249.87
 20
416.595
 30
0.0
 11
1250.17
 21
408.922
 31
0.0
  0
LINE
  8
0
 62
     250
 10
1250.17
 20
408.922
 30
0.0
 11
1250.46
 21
401.518
 31
0.0
  0
LINE
  8
0
 62
     250
 10
1250.46
 20
401.518
 30
0.0
 11
1250.71
 21
394.427
 31
0.0
  0
LINE
  8
0
 62
     250
 10
1250.71
 20
394.427
 30
0.0
 11
1250.93
 21
387.696
 31
0.0
  0
LINE
  8
0
 62
     250
 10
1250.93
 20
387.696
 30
0.0
 11
1251.12
 21
381.374
 31
0.0
  0
LINE
  8
0
 62
     250
 10
1251.12
 20
381.374
 30
0.0
 11
1251.28
 21
375.504
 31
0.0
  0
LINE
  8
0
 62
     250
 10
1251.28
 20
375.504
 30
0.0
 11
1251.41
 21
370.134
 31
0.0
  0
LINE
  8
0
 62
     250
 10
1251.41
 20
370.134
 30
0.0
 11
1251.51
 21
365.305
 31
0.0
  0
LINE
  8
0
 62
     250
 10
1251.51
 20
365.305
 30
0.0
 11
1251.58
 21
361.068
 31
0.0
  0
LINE
  8
0
 62
     250
 10
1251.58
 20
361.068
 30
0.0
 11
1251.63
 21
357.466
 31
0.0
  0
LINE
  8
0
 62
     250
 10
1251.63
 20
357.466
 30
0.0
 11
1251.64
 21
355.275
 31
0.0
  0
LINE
  8
0
 62
     250
 10
1251.64
 20
355.275
 30
0.0
 11
1251.64
 21
354.545
 31
0.0
  0
LINE
  8
0
 62
     250
 10
820.409
 20
127.751
 30
0.0
 11
820.409
 21
127.751
 31
0.0
  0
LINE
  8
0
 62
     250
 10
820.409
 20
127.751
 30
0.0
 11
820.24
 21
127.543
 31
0.0
  0
LINE
  8
0
 62
     250
 10
820.24
 20
127.543
 30
0.0
 11
819.753
 21
126.944
 31
0.0
  0
LINE
  8
0
 62
     250
 10
819.753
 20
126.944
 30
0.0
 11
818.991
 21
125.998
 31
0.0
  0
LINE
  8
0
 62
     250
 10
818.991
 20
125.998
 30
0.0
 11
817.986
 21
124.747
 31
0.0
  0
LINE
  8
0
 62
     250
 10
817.986
 20
124.747
 30
0.0
 11
816.769
 21
123.234
 31
0.0
  0
LINE
  8
0
 62
     250
 10
816.769
 20
123.234
 30
0.0
 11
815.375
 21
121.502
 31
0.0
  0
LINE
  8
0
 62
     250
 10
815.375
 20
121.502
 30
0.0
 11
813.841
 21
119.592
 31
0.0
  0
LINE
  8
0
 62
     250
 10
813.841
 20
119.592
 30
0.0
 11
812.2
 21
117.548
 31
0.0
  0
LINE
  8
0
 62
     250
 10
812.2
 20
117.548
 30
0.0
 11
810.489
 21
115.413
 31
0.0
  0
LINE
  8
0
 62
     250
 10
810.489
 20
115.413
 30
0.0
 11
808.743
 21
113.229
 31
0.0
  0
LINE
  8
0
 62
     250
 10
808.743
 20
113.229
 30
0.0
 11
806.993
 21
111.038
 31
0.0
  0
LINE
  8
0
 62
     250
 10
806.993
 20
111.038
 30
0.0
 11
805.279
 21
108.883
 31
0.0
  0
LINE
  8
0
 62
     250
 10
805.279
 20
108.883
 30
0.0
 11
803.631
 21
106.806
 31
0.0
  0
LINE
  8
0
 62
     250
 10
803.631
 20
106.806
 30
0.0
 11
802.086
 21
104.852
 31
0.0
  0
LINE
  8
0
 62
     250
 10
802.086
 20
104.852
 30
0.0
 11
800.679
 21
103.061
 31
0.0
  0
LINE
  8
0
 62
     250
 10
800.679
 20
103.061
 30
0.0
 11
799.751
 21
101.872
 31
0.0
  0
LINE
  8
0
 62
     250
 10
799.751
 20
101.872
 30
0.0
 11
799.444
 21
101.475
 31
0.0
  0
LINE
  8
0
 62
     250
 10
799.444
 20
101.475
 30
0.0
 11
798.844
 21
100.701
 31
0.0
  0
LINE
  8
0
 62
     250
 10
798.844
 20
100.701
 30
0.0
 11
796.985
 21
98.425
 31
0.0
  0
LINE
  8
0
 62
     250
 10
796.985
 20
98.425
 30
0.0
 11
794.262
 21
95.2444
 31
0.0
  0
LINE
  8
0
 62
     250
 10
794.262
 20
95.2444
 30
0.0
 11
791.415
 21
92.0806
 31
0.0
  0
LINE
  8
0
 62
     250
 10
791.415
 20
92.0806
 30
0.0
 11
788.596
 21
89.0834
 31
0.0
  0
LINE
  8
0
 62
     250
 10
788.596
 20
89.0834
 30
0.0
 11
785.947
 21
86.4002
 31
0.0
  0
LINE
  8
0
 62
     250
 10
785.947
 20
86.4002
 30
0.0
 11
783.618
 21
84.1802
 31
0.0
  0
LINE
  8
0
 62
     250
 10
783.618
 20
84.1802
 30
0.0
 11
781.756
 21
82.5708
 31
0.0
  0
LINE
  8
0
 62
     250
 10
781.756
 20
82.5708
 30
0.0
 11
780.842
 21
81.8804
 31
0.0
  0
LINE
  8
0
 62
     250
 10
780.842
 20
81.8804
 30
0.0
 11
780.503
 21
81.7217
 31
0.0
  0
LINE
  8
0
 62
     250
 10
781.378
 20
626.95
 30
0.0
 11
781.378
 21
626.95
 31
0.0
  0
LINE
  8
0
 62
     250
 10
781.378
 20
626.95
 30
0.0
 11
781.692
 21
626.657
 31
0.0
  0
LINE
  8
0
 62
     250
 10
781.692
 20
626.657
 30
0.0
 11
782.546
 21
625.845
 31
0.0
  0
LINE
  8
0
 62
     250
 10
782.546
 20
625.845
 30
0.0
 11
783.812
 21
624.639
 31
0.0
  0
LINE
  8
0
 62
     250
 10
783.812
 20
624.639
 30
0.0
 11
785.357
 21
623.143
 31
0.0
  0
LINE
  8
0
 62
     250
 10
785.357
 20
623.143
 30
0.0
 11
787.054
 21
621.478
 31
0.0
  0
LINE
  8
0
 62
     250
 10
787.054
 20
621.478
 30
0.0
 11
788.765
 21
619.76
 31
0.0
  0
LINE
  8
0
 62
     250
 10
788.765
 20
619.76
 30
0.0
 11
790.367
 21
618.098
 31
0.0
  0
LINE
  8
0
 62
     250
 10
790.367
 20
618.098
 30
0.0
 11
791.39
 21
616.987
 31
0.0
  0
LINE
  8
0
 62
     250
 10
791.39
 20
616.987
 30
0.0
 11
791.722
 21
616.61
 31
0.0
  0
LINE
  8
0
 62
     250
 10
791.722
 20
616.61
 30
0.0
 11
792.364
 21
615.872
 31
0.0
  0
LINE
  8
0
 62
     250
 10
792.364
 20
615.872
 30
0.0
 11
794.322
 21
613.689
 31
0.0
  0
LINE
  8
0
 62
     250
 10
794.322
 20
613.689
 30
0.0
 11
797.221
 21
610.443
 31
0.0
  0
LINE
  8
0
 62
     250
 10
797.221
 20
610.443
 30
0.0
 11
800.195
 21
606.958
 31
0.0
  0
LINE
  8
0
 62
     250
 10
800.195
 20
606.958
 30
0.0
 11
802.351
 21
604.259
 31
0.0
  0
LINE
  8
0
 62
     250
 10
802.351
 20
604.259
 30
0.0
 11
803.032
 21
603.331
 31
0.0
  0
LINE
  8
0
 62
     250
 10
803.032
 20
603.331
 30
0.0
 11
803.444
 21
602.767
 31
0.0
  0
LINE
  8
0
 62
     250
 10
803.444
 20
602.767
 30
0.0
 11
804.686
 21
601.087
 31
0.0
  0
LINE
  8
0
 62
     250
 10
804.686
 20
601.087
 30
0.0
 11
806.849
 21
598.191
 31
0.0
  0
LINE
  8
0
 62
     250
 10
806.849
 20
598.191
 30
0.0
 11
809.325
 21
594.903
 31
0.0
  0
LINE
  8
0
 62
     250
 10
809.325
 20
594.903
 30
0.0
 11
811.943
 21
591.467
 31
0.0
  0
LINE
  8
0
 62
     250
 10
811.943
 20
591.467
 30
0.0
 11
814.515
 21
588.148
 31
0.0
  0
LINE
  8
0
 62
     250
 10
814.515
 20
588.148
 30
0.0
 11
816.857
 21
585.191
 31
0.0
  0
LINE
  8
0
 62
     250
 10
816.857
 20
585.191
 30
0.0
 11
818.79
 21
582.852
 31
0.0
  0
LINE
  8
0
 62
     250
 10
818.79
 20
582.852
 30
0.0
 11
819.774
 21
581.731
 31
0.0
  0
LINE
  8
0
 62
     250
 10
819.774
 20
581.731
 30
0.0
 11
820.134
 21
581.388
 31
0.0
  0
LINE
  8
0
 62
     250
 10
987.647
 20
354.545
 30
0.0
 11
987.647
 21
354.023
 31
0.0
  0
LINE
  8
0
 62
     250
 10
987.647
 20
354.023
 30
0.0
 11
987.626
 21
352.453
 31
0.0
  0
LINE
  8
0
 62
     250
 10
987.626
 20
352.453
 30
0.0
 11
987.57
 21
349.331
 31
0.0
  0
LINE
  8
0
 62
     250
 10
987.57
 20
349.331
 30
0.0
 11
987.481
 21
345.291
 31
0.0
  0
LINE
  8
0
 62
     250
 10
987.481
 20
345.291
 30
0.0
 11
987.362
 21
340.439
 31
0.0
  0
LINE
  8
0
 62
     250
 10
987.362
 20
340.439
 30
0.0
 11
987.21
 21
334.881
 31
0.0
  0
LINE
  8
0
 62
     250
 10
987.21
 20
334.881
 30
0.0
 11
987.03
 21
328.73
 31
0.0
  0
LINE
  8
0
 62
     250
 10
987.03
 20
328.73
 30
0.0
 11
986.829
 21
322.089
 31
0.0
  0
LINE
  8
0
 62
     250
 10
986.829
 20
322.089
 30
0.0
 11
986.603
 21
315.069
 31
0.0
  0
LINE
  8
0
 62
     250
 10
986.603
 20
315.069
 30
0.0
 11
986.356
 21
307.777
 31
0.0
  0
LINE
  8
0
 62
     250
 10
986.356
 20
307.777
 30
0.0
 11
986.091
 21
300.32
 31
0.0
  0
LINE
  8
0
 62
     250
 10
986.091
 20
300.32
 30
0.0
 11
985.813
 21
292.808
 31
0.0
  0
LINE
  8
0
 62
     250
 10
985.813
 20
292.808
 30
0.0
 11
985.517
 21
285.347
 31
0.0
  0
LINE
  8
0
 62
     250
 10
985.517
 20
285.347
 30
0.0
 11
985.213
 21
278.048
 31
0.0
  0
LINE
  8
0
 62
     250
 10
985.213
 20
278.048
 30
0.0
 11
984.899
 21
271.016
 31
0.0
  0
LINE
  8
0
 62
     250
 10
984.899
 20
271.016
 30
0.0
 11
984.578
 21
264.36
 31
0.0
  0
LINE
  8
0
 62
     250
 10
984.578
 20
264.36
 30
0.0
 11
984.338
 21
259.73
 31
0.0
  0
LINE
  8
0
 62
     250
 10
984.338
 20
259.73
 30
0.0
 11
984.254
 21
258.186
 31
0.0
  0
LINE
  8
0
 62
     250
 10
984.254
 20
258.186
 30
0.0
 11
984.088
 21
255.217
 31
0.0
  0
LINE
  8
0
 62
     250
 10
984.088
 20
255.217
 30
0.0
 11
983.516
 21
246.312
 31
0.0
  0
LINE
  8
0
 62
     250
 10
983.516
 20
246.312
 30
0.0
 11
982.648
 21
234.44
 31
0.0
  0
LINE
  8
0
 62
     250
 10
982.648
 20
234.44
 30
0.0
 11
981.706
 21
222.84
 31
0.0
  0
LINE
  8
0
 62
     250
 10
981.706
 20
222.84
 30
0.0
 11
980.74
 21
211.776
 31
0.0
  0
LINE
  8
0
 62
     250
 10
980.74
 20
211.776
 30
0.0
 11
979.798
 21
201.513
 31
0.0
  0
LINE
  8
0
 62
     250
 10
979.798
 20
201.513
 30
0.0
 11
978.937
 21
192.319
 31
0.0
  0
LINE
  8
0
 62
     250
 10
978.937
 20
192.319
 30
0.0
 11
978.207
 21
184.459
 31
0.0
  0
LINE
  8
0
 62
     250
 10
978.207
 20
184.459
 30
0.0
 11
977.791
 21
179.765
 31
0.0
  0
LINE
  8
0
 62
     250
 10
977.791
 20
179.765
 30
0.0
 11
977.664
 21
178.198
 31
0.0
  0
LINE
  8
0
 62
     250
 10
977.664
 20
178.198
 30
0.0
 11
977.544
 21
176.75
 31
0.0
  0
LINE
  8
0
 62
     250
 10
977.544
 20
176.75
 30
0.0
 11
977.12
 21
172.408
 31
0.0
  0
LINE
  8
0
 62
     250
 10
977.12
 20
172.408
 30
0.0
 11
976.415
 21
166.052
 31
0.0
  0
LINE
  8
0
 62
     250
 10
976.415
 20
166.052
 30
0.0
 11
975.618
 21
159.544
 31
0.0
  0
LINE
  8
0
 62
     250
 10
975.618
 20
159.544
 30
0.0
 11
974.803
 21
153.296
 31
0.0
  0
LINE
  8
0
 62
     250
 10
974.803
 20
153.296
 30
0.0
 11
974.044
 21
147.718
 31
0.0
  0
LINE
  8
0
 62
     250
 10
974.044
 20
147.718
 30
0.0
 11
973.409
 21
143.224
 31
0.0
  0
LINE
  8
0
 62
     250
 10
973.409
 20
143.224
 30
0.0
 11
972.979
 21
140.225
 31
0.0
  0
LINE
  8
0
 62
     250
 10
972.979
 20
140.225
 30
0.0
 11
972.817
 21
139.134
 31
0.0
  0
LINE
  8
0
 62
     250
 10
972.817
 20
139.134
 30
0.0
 11
972.817
 21
139.134
 31
0.0
  0
LINE
  8
0
 62
     250
 10
972.817
 20
139.134
 30
0.0
 11
972.817
 21
139.134
 31
0.0
  0
LINE
  8
0
 62
     250
 10
972.817
 20
139.134
 30
0.0
 11
973.857
 21
138.976
 31
0.0
  0
LINE
  8
0
 62
     250
 10
973.857
 20
138.976
 30
0.0
 11
976.658
 21
138.553
 31
0.0
  0
LINE
  8
0
 62
     250
 10
976.658
 20
138.553
 30
0.0
 11
980.733
 21
137.938
 31
0.0
  0
LINE
  8
0
 62
     250
 10
980.733
 20
137.938
 30
0.0
 11
985.598
 21
137.204
 31
0.0
  0
LINE
  8
0
 62
     250
 10
985.598
 20
137.204
 30
0.0
 11
990.766
 21
136.427
 31
0.0
  0
LINE
  8
0
 62
     250
 10
990.766
 20
136.427
 30
0.0
 11
995.754
 21
135.682
 31
0.0
  0
LINE
  8
0
 62
     250
 10
995.754
 20
135.682
 30
0.0
 11
1000.08
 21
135.039
 31
0.0
  0
LINE
  8
0
 62
     250
 10
1000.08
 20
135.039
 30
0.0
 11
1002.46
 21
134.691
 31
0.0
  0
LINE
  8
0
 62
     250
 10
1002.46
 20
134.691
 30
0.0
 11
1003.25
 21
134.577
 31
0.0
  0
LINE
  8
0
 62
     250
 10
1003.25
 20
134.577
 30
0.0
 11
1003.87
 21
134.487
 31
0.0
  0
LINE
  8
0
 62
     250
 10
1003.87
 20
134.487
 30
0.0
 11
1005.75
 21
134.195
 31
0.0
  0
LINE
  8
0
 62
     250
 10
1005.75
 20
134.195
 30
0.0
 11
1008.3
 21
133.763
 31
0.0
  0
LINE
  8
0
 62
     250
 10
1008.3
 20
133.763
 30
0.0
 11
1010.78
 21
133.314
 31
0.0
  0
LINE
  8
0
 62
     250
 10
1010.78
 20
133.314
 30
0.0
 11
1013.07
 21
132.879
 31
0.0
  0
LINE
  8
0
 62
     250
 10
1013.07
 20
132.879
 30
0.0
 11
1015.06
 21
132.487
 31
0.0
  0
LINE
  8
0
 62
     250
 10
1015.06
 20
132.487
 30
0.0
 11
1016.63
 21
132.17
 31
0.0
  0
LINE
  8
0
 62
     250
 10
1016.63
 20
132.17
 30
0.0
 11
1017.66
 21
131.957
 31
0.0
  0
LINE
  8
0
 62
     250
 10
1017.66
 20
131.957
 30
0.0
 11
1018.03
 21
131.878
 31
0.0
  0
LINE
  8
0
 62
     250
 10
1018.03
 20
131.878
 30
0.0
 11
1018.03
 21
131.878
 31
0.0
  0
LINE
  8
0
 62
     250
 10
1018.03
 20
131.878
 30
0.0
 11
1018.03
 21
131.878
 31
0.0
  0
LINE
  8
0
 62
     250
 10
1018.03
 20
131.878
 30
0.0
 11
1018.56
 21
131.68
 31
0.0
  0
LINE
  8
0
 62
     250
 10
1018.56
 20
131.68
 30
0.0
 11
1020.06
 21
131.123
 31
0.0
  0
LINE
  8
0
 62
     250
 10
1020.06
 20
131.123
 30
0.0
 11
1022.36
 21
130.27
 31
0.0
  0
LINE
  8
0
 62
     250
 10
1022.36
 20
130.27
 30
0.0
 11
1025.3
 21
129.182
 31
0.0
  0
LINE
  8
0
 62
     250
 10
1025.3
 20
129.182
 30
0.0
 11
1028.72
 21
127.919
 31
0.0
  0
LINE
  8
0
 62
     250
 10
1028.72
 20
127.919
 30
0.0
 11
1032.46
 21
126.544
 31
0.0
  0
LINE
  8
0
 62
     250
 10
1032.46
 20
126.544
 30
0.0
 11
1036.37
 21
125.115
 31
0.0
  0
LINE
  8
0
 62
     250
 10
1036.37
 20
125.115
 30
0.0
 11
1039.29
 21
124.048
 31
0.0
  0
LINE
  8
0
 62
     250
 10
1039.29
 20
124.048
 30
0.0
 11
1040.27
 21
123.694
 31
0.0
  0
LINE
  8
0
 62
     250
 10
1040.27
 20
123.694
 30
0.0
 11
1042.26
 21
122.973
 31
0.0
  0
LINE
  8
0
 62
     250
 10
1042.26
 20
122.973
 30
0.0
 11
1048.41
 21
121.284
 31
0.0
  0
LINE
  8
0
 62
     250
 10
1048.41
 20
121.284
 30
0.0
 11
1056.89
 21
119.614
 31
0.0
  0
LINE
  8
0
 62
     250
 10
1056.89
 20
119.614
 30
0.0
 11
1064.94
 21
118.659
 31
0.0
  0
LINE
  8
0
 62
     250
 10
1064.94
 20
118.659
 30
0.0
 11
1070.06
 21
118.374
 31
0.0
  0
LINE
  8
0
 62
     250
 10
1070.06
 20
118.374
 30
0.0
 11
1071.77
 21
118.393
 31
0.0
  0
LINE
  8
0
 62
     250
 10
1071.77
 20
118.393
 30
0.0
 11
1072.54
 21
118.402
 31
0.0
  0
LINE
  8
0
 62
     250
 10
1072.54
 20
118.402
 30
0.0
 11
1074.85
 21
118.507
 31
0.0
  0
LINE
  8
0
 62
     250
 10
1074.85
 20
118.507
 30
0.0
 11
1078.17
 21
118.797
 31
0.0
  0
LINE
  8
0
 62
     250
 10
1078.17
 20
118.797
 30
0.0
 11
1081.76
 21
119.293
 31
0.0
  0
LINE
  8
0
 62
     250
 10
1081.76
 20
119.293
 30
0.0
 11
1085.65
 21
120.02
 31
0.0
  0
LINE
  8
0
 62
     250
 10
1085.65
 20
120.02
 30
0.0
 11
1089.88
 21
121.011
 31
0.0
  0
LINE
  8
0
 62
     250
 10
1089.88
 20
121.011
 30
0.0
 11
1094.47
 21
122.29
 31
0.0
  0
LINE
  8
0
 62
     250
 10
1094.47
 20
122.29
 30
0.0
 11
1099.47
 21
123.888
 31
0.0
  0
LINE
  8
0
 62
     250
 10
1099.47
 20
123.888
 30
0.0
 11
1103.56
 21
125.326
 31
0.0
  0
LINE
  8
0
 62
     250
 10
1103.56
 20
125.326
 30
0.0
 11
1104.91
 21
125.833
 31
0.0
  0
LINE
  8
0
 62
     250
 10
1104.91
 20
125.833
 30
0.0
 11
1106.42
 21
126.399
 31
0.0
  0
LINE
  8
0
 62
     250
 10
1106.42
 20
126.399
 30
0.0
 11
1110.91
 21
128.167
 31
0.0
  0
LINE
  8
0
 62
     250
 10
1110.91
 20
128.167
 30
0.0
 11
1117.35
 21
130.806
 31
0.0
  0
LINE
  8
0
 62
     250
 10
1117.35
 20
130.806
 30
0.0
 11
1123.9
 21
133.595
 31
0.0
  0
LINE
  8
0
 62
     250
 10
1123.9
 20
133.595
 30
0.0
 11
1130.25
 21
136.379
 31
0.0
  0
LINE
  8
0
 62
     250
 10
1130.25
 20
136.379
 30
0.0
 11
1136.08
 21
139.001
 31
0.0
  0
LINE
  8
0
 62
     250
 10
1136.08
 20
139.001
 30
0.0
 11
1141.05
 21
141.307
 31
0.0
  0
LINE
  8
0
 62
     250
 10
1141.05
 20
141.307
 30
0.0
 11
1144.86
 21
143.14
 31
0.0
  0
LINE
  8
0
 62
     250
 10
1144.86
 20
143.14
 30
0.0
 11
1146.6
 21
144.019
 31
0.0
  0
LINE
  8
0
 62
     250
 10
1146.6
 20
144.019
 30
0.0
 11
1147.17
 21
144.343
 31
0.0
  0
LINE
  8
0
 62
     250
 10
1147.17
 20
144.343
 30
0.0
 11
1147.62
 21
144.602
 31
0.0
  0
LINE
  8
0
 62
     250
 10
1147.62
 20
144.602
 30
0.0
 11
1148.97
 21
145.376
 31
0.0
  0
LINE
  8
0
 62
     250
 10
1148.97
 20
145.376
 30
0.0
 11
1151.32
 21
146.709
 31
0.0
  0
LINE
  8
0
 62
     250
 10
1151.32
 20
146.709
 30
0.0
 11
1153.96
 21
148.208
 31
0.0
  0
LINE
  8
0
 62
     250
 10
1153.96
 20
148.208
 30
0.0
 11
1156.66
 21
149.738
 31
0.0
  0
LINE
  8
0
 62
     250
 10
1156.66
 20
149.738
 30
0.0
 11
1159.19
 21
151.162
 31
0.0
  0
LINE
  8
0
 62
     250
 10
1159.19
 20
151.162
 30
0.0
 11
1161.29
 21
152.348
 31
0.0
  0
LINE
  8
0
 62
     250
 10
1161.29
 20
152.348
 30
0.0
 11
1162.72
 21
153.158
 31
0.0
  0
LINE
  8
0
 62
     250
 10
1162.72
 20
153.158
 30
0.0
 11
1163.26
 21
153.457
 31
0.0
  0
LINE
  8
0
 62
     250
 10
1163.26
 20
153.457
 30
0.0
 11
1163.26
 21
153.457
 31
0.0
  0
LINE
  8
0
 62
     250
 10
973.399
 20
145.831
 30
0.0
 11
973.399
 21
145.831
 31
0.0
  0
LINE
  8
0
 62
     250
 10
973.399
 20
145.831
 30
0.0
 11
973.092
 21
145.835
 31
0.0
  0
LINE
  8
0
 62
     250
 10
973.092
 20
145.835
 30
0.0
 11
972.203
 21
145.842
 31
0.0
  0
LINE
  8
0
 62
     250
 10
972.203
 20
145.842
 30
0.0
 11
970.774
 21
145.845
 31
0.0
  0
LINE
  8
0
 62
     250
 10
970.774
 20
145.845
 30
0.0
 11
968.848
 21
145.84
 31
0.0
  0
LINE
  8
0
 62
     250
 10
968.848
 20
145.84
 30
0.0
 11
966.467
 21
145.821
 31
0.0
  0
LINE
  8
0
 62
     250
 10
966.467
 20
145.821
 30
0.0
 11
963.676
 21
145.783
 31
0.0
  0
LINE
  8
0
 62
     250
 10
963.676
 20
145.783
 30
0.0
 11
960.522
 21
145.718
 31
0.0
  0
LINE
  8
0
 62
     250
 10
960.522
 20
145.718
 30
0.0
 11
957.044
 21
145.623
 31
0.0
  0
LINE
  8
0
 62
     250
 10
957.044
 20
145.623
 30
0.0
 11
953.287
 21
145.489
 31
0.0
  0
LINE
  8
0
 62
     250
 10
953.287
 20
145.489
 30
0.0
 11
949.293
 21
145.314
 31
0.0
  0
LINE
  8
0
 62
     250
 10
949.293
 20
145.314
 30
0.0
 11
945.106
 21
145.089
 31
0.0
  0
LINE
  8
0
 62
     250
 10
945.106
 20
145.089
 30
0.0
 11
940.77
 21
144.811
 31
0.0
  0
LINE
  8
0
 62
     250
 10
940.77
 20
144.811
 30
0.0
 11
936.329
 21
144.473
 31
0.0
  0
LINE
  8
0
 62
     250
 10
936.329
 20
144.473
 30
0.0
 11
931.827
 21
144.068
 31
0.0
  0
LINE
  8
0
 62
     250
 10
931.827
 20
144.068
 30
0.0
 11
927.305
 21
143.593
 31
0.0
  0
LINE
  8
0
 62
     250
 10
927.305
 20
143.593
 30
0.0
 11
923.932
 21
143.189
 31
0.0
  0
LINE
  8
0
 62
     250
 10
923.932
 20
143.189
 30
0.0
 11
922.81
 21
143.04
 31
0.0
  0
LINE
  8
0
 62
     250
 10
922.81
 20
143.04
 30
0.0
 11
920.641
 21
142.754
 31
0.0
  0
LINE
  8
0
 62
     250
 10
920.641
 20
142.754
 30
0.0
 11
914.146
 21
141.807
 31
0.0
  0
LINE
  8
0
 62
     250
 10
914.146
 20
141.807
 30
0.0
 11
906.11
 21
140.488
 31
0.0
  0
LINE
  8
0
 62
     250
 10
906.11
 20
140.488
 30
0.0
 11
898.79
 21
139.11
 31
0.0
  0
LINE
  8
0
 62
     250
 10
898.79
 20
139.11
 30
0.0
 11
892.281
 21
137.692
 31
0.0
  0
LINE
  8
0
 62
     250
 10
892.281
 20
137.692
 30
0.0
 11
886.682
 21
136.258
 31
0.0
  0
LINE
  8
0
 62
     250
 10
886.682
 20
136.258
 30
0.0
 11
882.086
 21
134.827
 31
0.0
  0
LINE
  8
0
 62
     250
 10
882.086
 20
134.827
 30
0.0
 11
878.59
 21
133.423
 31
0.0
  0
LINE
  8
0
 62
     250
 10
878.59
 20
133.423
 30
0.0
 11
876.808
 21
132.476
 31
0.0
  0
LINE
  8
0
 62
     250
 10
876.808
 20
132.476
 30
0.0
 11
876.289
 21
132.066
 31
0.0
  0
LINE
  8
0
 62
     250
 10
876.289
 20
132.066
 30
0.0
 11
875.453
 21
131.403
 31
0.0
  0
LINE
  8
0
 62
     250
 10
875.453
 20
131.403
 30
0.0
 11
872.998
 21
129.345
 31
0.0
  0
LINE
  8
0
 62
     250
 10
872.998
 20
129.345
 30
0.0
 11
870.013
 21
126.346
 31
0.0
  0
LINE
  8
0
 62
     250
 10
870.013
 20
126.346
 30
0.0
 11
867.65
 21
122.858
 31
0.0
  0
LINE
  8
0
 62
     250
 10
867.65
 20
122.858
 30
0.0
 11
866.415
 21
119.747
 31
0.0
  0
LINE
  8
0
 62
     250
 10
866.415
 20
119.747
 30
0.0
 11
866.211
 21
118.671
 31
0.0
  0
LINE
  8
0
 62
     250
 10
866.211
 20
118.671
 30
0.0
 11
866.073
 21
117.939
 31
0.0
  0
LINE
  8
0
 62
     250
 10
866.073
 20
117.939
 30
0.0
 11
865.65
 21
115.743
 31
0.0
  0
LINE
  8
0
 62
     250
 10
865.65
 20
115.743
 30
0.0
 11
864.891
 21
111.629
 31
0.0
  0
LINE
  8
0
 62
     250
 10
864.891
 20
111.629
 30
0.0
 11
864.002
 21
106.44
 31
0.0
  0
LINE
  8
0
 62
     250
 10
864.002
 20
106.44
 30
0.0
 11
863.06
 21
100.28
 31
0.0
  0
LINE
  8
0
 62
     250
 10
863.06
 20
100.28
 30
0.0
 11
862.136
 21
93.2561
 31
0.0
  0
LINE
  8
0
 62
     250
 10
862.136
 20
93.2561
 30
0.0
 11
861.303
 21
85.477
 31
0.0
  0
LINE
  8
0
 62
     250
 10
861.303
 20
85.477
 30
0.0
 11
860.633
 21
77.0474
 31
0.0
  0
LINE
  8
0
 62
     250
 10
860.633
 20
77.0474
 30
0.0
 11
860.273
 21
70.3185
 31
0.0
  0
LINE
  8
0
 62
     250
 10
860.273
 20
70.3185
 30
0.0
 11
860.203
 21
68.0738
 31
0.0
  0
LINE
  8
0
 62
     250
 10
860.203
 20
68.0738
 30
0.0
 11
860.132
 21
65.8936
 31
0.0
  0
LINE
  8
0
 62
     250
 10
860.132
 20
65.8936
 30
0.0
 11
860.03
 21
59.3453
 31
0.0
  0
LINE
  8
0
 62
     250
 10
860.03
 20
59.3453
 30
0.0
 11
860.108
 21
51.5303
 31
0.0
  0
LINE
  8
0
 62
     250
 10
860.108
 20
51.5303
 30
0.0
 11
860.443
 21
44.5714
 31
0.0
  0
LINE
  8
0
 62
     250
 10
860.443
 20
44.5714
 30
0.0
 11
861.049
 21
38.4044
 31
0.0
  0
LINE
  8
0
 62
     250
 10
861.049
 20
38.4044
 30
0.0
 11
861.938
 21
32.9709
 31
0.0
  0
LINE
  8
0
 62
     250
 10
861.938
 20
32.9709
 30
0.0
 11
863.117
 21
28.2084
 31
0.0
  0
LINE
  8
0
 62
     250
 10
863.117
 20
28.2084
 30
0.0
 11
864.602
 21
24.0564
 31
0.0
  0
LINE
  8
0
 62
     250
 10
864.602
 20
24.0564
 30
0.0
 11
865.897
 21
21.3196
 31
0.0
  0
LINE
  8
0
 62
     250
 10
865.897
 20
21.3196
 30
0.0
 11
866.405
 21
20.4529
 31
0.0
  0
LINE
  8
0
 62
     250
 10
866.405
 20
20.4529
 30
0.0
 11
866.881
 21
19.6412
 31
0.0
  0
LINE
  8
0
 62
     250
 10
866.881
 20
19.6412
 30
0.0
 11
868.595
 21
17.3743
 31
0.0
  0
LINE
  8
0
 62
     250
 10
868.595
 20
17.3743
 30
0.0
 11
871.178
 21
14.7974
 31
0.0
  0
LINE
  8
0
 62
     250
 10
871.178
 20
14.7974
 30
0.0
 11
874.049
 21
12.6642
 31
0.0
  0
LINE
  8
0
 62
     250
 10
874.049
 20
12.6642
 30
0.0
 11
877.111
 21
10.9196
 31
0.0
  0
LINE
  8
0
 62
     250
 10
877.111
 20
10.9196
 30
0.0
 11
880.269
 21
9.5057
 31
0.0
  0
LINE
  8
0
 62
     250
 10
880.269
 20
9.5057
 30
0.0
 11
883.412
 21
8.36747
 31
0.0
  0
LINE
  8
0
 62
     250
 10
883.412
 20
8.36747
 30
0.0
 11
886.449
 21
7.44693
 31
0.0
  0
LINE
  8
0
 62
     250
 10
886.449
 20
7.44693
 30
0.0
 11
888.57
 21
6.87229
 31
0.0
  0
LINE
  8
0
 62
     250
 10
888.57
 20
6.87229
 30
0.0
 11
889.279
 21
6.68761
 31
0.0
  0
LINE
  8
0
 62
     250
 10
889.279
 20
6.68761
 30
0.0
 11
890.168
 21
6.45612
 31
0.0
  0
LINE
  8
0
 62
     250
 10
890.168
 20
6.45612
 30
0.0
 11
892.877
 21
5.87456
 31
0.0
  0
LINE
  8
0
 62
     250
 10
892.877
 20
5.87456
 30
0.0
 11
898.013
 21
4.88654
 31
0.0
  0
LINE
  8
0
 62
     250
 10
898.013
 20
4.88654
 30
0.0
 11
904.265
 21
3.81028
 31
0.0
  0
LINE
  8
0
 62
     250
 10
904.265
 20
3.81028
 30
0.0
 11
911.204
 21
2.73541
 31
0.0
  0
LINE
  8
0
 62
     250
 10
911.204
 20
2.73541
 30
0.0
 11
918.404
 21
1.74735
 31
0.0
  0
LINE
  8
0
 62
     250
 10
918.404
 20
1.74735
 30
0.0
 11
925.445
 21
0.932931
 31
0.0
  0
LINE
  8
0
 62
     250
 10
925.445
 20
0.932931
 30
0.0
 11
931.901
 21
0.38034
 31
0.0
  0
LINE
  8
0
 62
     250
 10
931.901
 20
0.38034
 30
0.0
 11
935.983
 21
0.176389
 31
0.0
  0
LINE
  8
0
 62
     250
 10
935.983
 20
0.176389
 30
0.0
 11
937.345
 21
0.176389
 31
0.0
  0
LINE
  8
0
 62
     250
 10
937.345
 20
0.176389
 30
0.0
 11
938.668
 21
0.176389
 31
0.0
  0
LINE
  8
0
 62
     250
 10
938.668
 20
0.176389
 30
0.0
 11
942.64
 21
0.268718
 31
0.0
  0
LINE
  8
0
 62
     250
 10
942.64
 20
0.268718
 30
0.0
 11
948.746
 21
0.523656
 31
0.0
  0
LINE
  8
0
 62
     250
 10
948.746
 20
0.523656
 30
0.0
 11
955.375
 21
0.912262
 31
0.0
  0
LINE
  8
0
 62
     250
 10
955.375
 20
0.912262
 30
0.0
 11
962.254
 21
1.40973
 31
0.0
  0
LINE
  8
0
 62
     250
 10
962.254
 20
1.40973
 30
0.0
 11
969.095
 21
1.98438
 31
0.0
  0
LINE
  8
0
 62
     250
 10
969.095
 20
1.98438
 30
0.0
 11
975.614
 21
2.61001
 31
0.0
  0
LINE
  8
0
 62
     250
 10
975.614
 20
2.61001
 30
0.0
 11
981.537
 21
3.25768
 31
0.0
  0
LINE
  8
0
 62
     250
 10
981.537
 20
3.25768
 30
0.0
 11
985.322
 21
3.72209
 31
0.0
  0
LINE
  8
0
 62
     250
 10
985.322
 20
3.72209
 30
0.0
 11
986.578
 21
3.8971
 31
0.0
  0
LINE
  8
0
 62
     250
 10
986.578
 20
3.8971
 30
0.0
 11
987.242
 21
3.9908
 31
0.0
  0
LINE
  8
0
 62
     250
 10
987.242
 20
3.9908
 30
0.0
 11
989.238
 21
4.26642
 31
0.0
  0
LINE
  8
0
 62
     250
 10
989.238
 20
4.26642
 30
0.0
 11
992.657
 21
4.7377
 31
0.0
  0
LINE
  8
0
 62
     250
 10
992.657
 20
4.7377
 30
0.0
 11
996.731
 21
5.3013
 31
0.0
  0
LINE
  8
0
 62
     250
 10
996.731
 20
5.3013
 30
0.0
 11
1001.37
 21
5.94625
 31
0.0
  0
LINE
  8
0
 62
     250
 10
1001.37
 20
5.94625
 30
0.0
 11
1006.48
 21
6.66281
 31
0.0
  0
LINE
  8
0
 62
     250
 10
1006.48
 20
6.66281
 30
0.0
 11
1011.96
 21
7.43864
 31
0.0
  0
LINE
  8
0
 62
     250
 10
1011.96
 20
7.43864
 30
0.0
 11
1017.71
 21
8.2641
 31
0.0
  0
LINE
  8
0
 62
     250
 10
1017.71
 20
8.2641
 30
0.0
 11
1023.65
 21
9.1295
 31
0.0
  0
LINE
  8
0
 62
     250
 10
1023.65
 20
9.1295
 30
0.0
 11
1029.67
 21
10.0225
 31
0.0
  0
LINE
  8
0
 62
     250
 10
1029.67
 20
10.0225
 30
0.0
 11
1035.69
 21
10.9334
 31
0.0
  0
LINE
  8
0
 62
     250
 10
1035.69
 20
10.9334
 30
0.0
 11
1041.6
 21
11.8511
 31
0.0
  0
LINE
  8
0
 62
     250
 10
1041.6
 20
11.8511
 30
0.0
 11
1047.31
 21
12.7648
 31
0.0
  0
LINE
  8
0
 62
     250
 10
1047.31
 20
12.7648
 30
0.0
 11
1052.72
 21
13.666
 31
0.0
  0
LINE
  8
0
 62
     250
 10
1052.72
 20
13.666
 30
0.0
 11
1057.75
 21
14.5411
 31
0.0
  0
LINE
  8
0
 62
     250
 10
1057.75
 20
14.5411
 30
0.0
 11
1062.28
 21
15.3803
 31
0.0
  0
LINE
  8
0
 62
     250
 10
1062.28
 20
15.3803
 30
0.0
 11
1065.25
 21
15.9659
 31
0.0
  0
LINE
  8
0
 62
     250
 10
1065.25
 20
15.9659
 30
0.0
 11
1066.24
 21
16.174
 31
0.0
  0
LINE
  8
0
 62
     250
 10
1066.24
 20
16.174
 30
0.0
 11
1068.12
 21
16.5695
 31
0.0
  0
LINE
  8
0
 62
     250
 10
1068.12
 20
16.5695
 30
0.0
 11
1073.72
 21
17.8139
 31
0.0
  0
LINE
  8
0
 62
     250
 10
1073.72
 20
17.8139
 30
0.0
 11
1081.59
 21
19.6949
 31
0.0
  0
LINE
  8
0
 62
     250
 10
1081.59
 20
19.6949
 30
0.0
 11
1089.77
 21
21.8681
 31
0.0
  0
LINE
  8
0
 62
     250
 10
1089.77
 20
21.8681
 30
0.0
 11
1098.18
 21
24.383
 31
0.0
  0
LINE
  8
0
 62
     250
 10
1098.18
 20
24.383
 30
0.0
 11
1106.75
 21
27.2907
 31
0.0
  0
LINE
  8
0
 62
     250
 10
1106.75
 20
27.2907
 30
0.0
 11
1115.41
 21
30.6407
 31
0.0
  0
LINE
  8
0
 62
     250
 10
1115.41
 20
30.6407
 30
0.0
 11
1124.1
 21
34.484
 31
0.0
  0
LINE
  8
0
 62
     250
 10
1124.1
 20
34.484
 30
0.0
 11
1130.6
 21
37.7127
 31
0.0
  0
LINE
  8
0
 62
     250
 10
1130.6
 20
37.7127
 30
0.0
 11
1132.73
 21
38.8691
 31
0.0
  0
LINE
  8
0
 62
     250
 10
1132.73
 20
38.8691
 30
0.0
 11
1134.86
 21
40.0346
 31
0.0
  0
LINE
  8
0
 62
     250
 10
1134.86
 20
40.0346
 30
0.0
 11
1141.14
 21
43.7928
 31
0.0
  0
LINE
  8
0
 62
     250
 10
1141.14
 20
43.7928
 30
0.0
 11
1149.2
 21
49.203
 31
0.0
  0
LINE
  8
0
 62
     250
 10
1149.2
 20
49.203
 30
0.0
 11
1156.89
 21
55.0788
 31
0.0
  0
LINE
  8
0
 62
     250
 10
1156.89
 20
55.0788
 30
0.0
 11
1164.2
 21
61.4013
 31
0.0
  0
LINE
  8
0
 62
     250
 10
1164.2
 20
61.4013
 30
0.0
 11
1171.1
 21
68.151
 31
0.0
  0
LINE
  8
0
 62
     250
 10
1171.1
 20
68.151
 30
0.0
 11
1177.57
 21
75.3085
 31
0.0
  0
LINE
  8
0
 62
     250
 10
1177.57
 20
75.3085
 30
0.0
 11
1183.58
 21
82.8544
 31
0.0
  0
LINE
  8
0
 62
     250
 10
1183.58
 20
82.8544
 30
0.0
 11
1187.81
 21
88.7497
 31
0.0
  0
LINE
  8
0
 62
     250
 10
1187.81
 20
88.7497
 30
0.0
 11
1189.13
 21
90.7687
 31
0.0
  0
LINE
  8
0
 62
     250
 10
1189.13
 20
90.7687
 30
0.0
 11
1190.48
 21
92.8247
 31
0.0
  0
LINE
  8
0
 62
     250
 10
1190.48
 20
92.8247
 30
0.0
 11
1194.09
 21
99.2752
 31
0.0
  0
LINE
  8
0
 62
     250
 10
1194.09
 20
99.2752
 30
0.0
 11
1198.39
 21
108.52
 31
0.0
  0
LINE
  8
0
 62
     250
 10
1198.39
 20
108.52
 30
0.0
 11
1202.07
 21
118.371
 31
0.0
  0
LINE
  8
0
 62
     250
 10
1202.07
 20
118.371
 30
0.0
 11
1205.17
 21
128.694
 31
0.0
  0
LINE
  8
0
 62
     250
 10
1205.17
 20
128.694
 30
0.0
 11
1207.75
 21
139.358
 31
0.0
  0
LINE
  8
0
 62
     250
 10
1207.75
 20
139.358
 30
0.0
 11
1209.84
 21
150.228
 31
0.0
  0
LINE
  8
0
 62
     250
 10
1209.84
 20
150.228
 30
0.0
 11
1211.51
 21
161.174
 31
0.0
  0
LINE
  8
0
 62
     250
 10
1211.51
 20
161.174
 30
0.0
 11
1212.5
 21
169.335
 31
0.0
  0
LINE
  8
0
 62
     250
 10
1212.5
 20
169.335
 30
0.0
 11
1212.78
 21
172.059
 31
0.0
  0
LINE
  8
0
 62
     250
 10
1212.78
 20
172.059
 30
0.0
 11
1212.85
 21
172.82
 31
0.0
  0
LINE
  8
0
 62
     250
 10
1212.85
 20
172.82
 30
0.0
 11
1213.05
 21
175.104
 31
0.0
  0
LINE
  8
0
 62
     250
 10
1213.05
 20
175.104
 30
0.0
 11
1213.33
 21
178.799
 31
0.0
  0
LINE
  8
0
 62
     250
 10
1213.33
 20
178.799
 30
0.0
 11
1213.61
 21
183.097
 31
0.0
  0
LINE
  8
0
 62
     250
 10
1213.61
 20
183.097
 30
0.0
 11
1213.89
 21
187.95
 31
0.0
  0
LINE
  8
0
 62
     250
 10
1213.89
 20
187.95
 30
0.0
 11
1214.18
 21
193.31
 31
0.0
  0
LINE
  8
0
 62
     250
 10
1214.18
 20
193.31
 30
0.0
 11
1214.47
 21
199.129
 31
0.0
  0
LINE
  8
0
 62
     250
 10
1214.47
 20
199.129
 30
0.0
 11
1214.75
 21
205.359
 31
0.0
  0
LINE
  8
0
 62
     250
 10
1214.75
 20
205.359
 30
0.0
 11
1215.03
 21
211.952
 31
0.0
  0
LINE
  8
0
 62
     250
 10
1215.03
 20
211.952
 30
0.0
 11
1215.32
 21
218.862
 31
0.0
  0
LINE
  8
0
 62
     250
 10
1215.32
 20
218.862
 30
0.0
 11
1215.59
 21
226.037
 31
0.0
  0
LINE
  8
0
 62
     250
 10
1215.59
 20
226.037
 30
0.0
 11
1215.87
 21
233.431
 31
0.0
  0
LINE
  8
0
 62
     250
 10
1215.87
 20
233.431
 30
0.0
 11
1216.14
 21
240.998
 31
0.0
  0
LINE
  8
0
 62
     250
 10
1216.14
 20
240.998
 30
0.0
 11
1216.41
 21
248.689
 31
0.0
  0
LINE
  8
0
 62
     250
 10
1216.41
 20
248.689
 30
0.0
 11
1216.67
 21
256.456
 31
0.0
  0
LINE
  8
0
 62
     250
 10
1216.67
 20
256.456
 30
0.0
 11
1216.92
 21
264.249
 31
0.0
  0
LINE
  8
0
 62
     250
 10
1216.92
 20
264.249
 30
0.0
 11
1217.16
 21
272.022
 31
0.0
  0
LINE
  8
0
 62
     250
 10
1217.16
 20
272.022
 30
0.0
 11
1217.4
 21
279.728
 31
0.0
  0
LINE
  8
0
 62
     250
 10
1217.4
 20
279.728
 30
0.0
 11
1217.63
 21
287.317
 31
0.0
  0
LINE
  8
0
 62
     250
 10
1217.63
 20
287.317
 30
0.0
 11
1217.85
 21
294.743
 31
0.0
  0
LINE
  8
0
 62
     250
 10
1217.85
 20
294.743
 30
0.0
 11
1218.05
 21
301.956
 31
0.0
  0
LINE
  8
0
 62
     250
 10
1218.05
 20
301.956
 30
0.0
 11
1218.24
 21
308.911
 31
0.0
  0
LINE
  8
0
 62
     250
 10
1218.24
 20
308.911
 30
0.0
 11
1218.42
 21
315.555
 31
0.0
  0
LINE
  8
0
 62
     250
 10
1218.42
 20
315.555
 30
0.0
 11
1218.59
 21
321.846
 31
0.0
  0
LINE
  8
0
 62
     250
 10
1218.59
 20
321.846
 30
0.0
 11
1218.75
 21
327.733
 31
0.0
  0
LINE
  8
0
 62
     250
 10
1218.75
 20
327.733
 30
0.0
 11
1218.89
 21
333.168
 31
0.0
  0
LINE
  8
0
 62
     250
 10
1218.89
 20
333.168
 30
0.0
 11
1219.01
 21
338.104
 31
0.0
  0
LINE
  8
0
 62
     250
 10
1219.01
 20
338.104
 30
0.0
 11
1219.12
 21
342.492
 31
0.0
  0
LINE
  8
0
 62
     250
 10
1219.12
 20
342.492
 30
0.0
 11
1219.21
 21
346.286
 31
0.0
  0
LINE
  8
0
 62
     250
 10
1219.21
 20
346.286
 30
0.0
 11
1219.27
 21
349.436
 31
0.0
  0
LINE
  8
0
 62
     250
 10
1219.27
 20
349.436
 30
0.0
 11
1219.33
 21
351.894
 31
0.0
  0
LINE
  8
0
 62
     250
 10
1219.33
 20
351.894
 30
0.0
 11
1219.36
 21
353.614
 31
0.0
  0
LINE
  8
0
 62
     250
 10
1219.36
 20
353.614
 30
0.0
 11
1219.37
 21
354.312
 31
0.0
  0
LINE
  8
0
 62
     250
 10
1219.37
 20
354.312
 30
0.0
 11
1219.37
 21
354.545
 31
0.0
  0
LINE
  8
0
 62
     250
 10
868.44
 20
123.996
 30
0.0
 11
868.44
 21
123.996
 31
0.0
  0
LINE
  8
0
 62
     250
 10
868.44
 20
123.996
 30
0.0
 11
868.472
 21
123.793
 31
0.0
  0
LINE
  8
0
 62
     250
 10
868.472
 20
123.793
 30
0.0
 11
868.595
 21
123.234
 31
0.0
  0
LINE
  8
0
 62
     250
 10
868.595
 20
123.234
 30
0.0
 11
868.842
 21
122.393
 31
0.0
  0
LINE
  8
0
 62
     250
 10
868.842
 20
122.393
 30
0.0
 11
869.248
 21
121.346
 31
0.0
  0
LINE
  8
0
 62
     250
 10
869.248
 20
121.346
 30
0.0
 11
869.848
 21
120.168
 31
0.0
  0
LINE
  8
0
 62
     250
 10
869.848
 20
120.168
 30
0.0
 11
870.677
 21
118.934
 31
0.0
  0
LINE
  8
0
 62
     250
 10
870.677
 20
118.934
 30
0.0
 11
871.77
 21
117.72
 31
0.0
  0
LINE
  8
0
 62
     250
 10
871.77
 20
117.72
 30
0.0
 11
872.797
 21
116.851
 31
0.0
  0
LINE
  8
0
 62
     250
 10
872.797
 20
116.851
 30
0.0
 11
873.164
 21
116.601
 31
0.0
  0
LINE
  8
0
 62
     250
 10
873.164
 20
116.601
 30
0.0
 11
873.675
 21
116.257
 31
0.0
  0
LINE
  8
0
 62
     250
 10
873.675
 20
116.257
 30
0.0
 11
875.372
 21
115.459
 31
0.0
  0
LINE
  8
0
 62
     250
 10
875.372
 20
115.459
 30
0.0
 11
878.812
 21
114.168
 31
0.0
  0
LINE
  8
0
 62
     250
 10
878.812
 20
114.168
 30
0.0
 11
883.38
 21
112.794
 31
0.0
  0
LINE
  8
0
 62
     250
 10
883.38
 20
112.794
 30
0.0
 11
888.965
 21
111.406
 31
0.0
  0
LINE
  8
0
 62
     250
 10
888.965
 20
111.406
 30
0.0
 11
895.459
 21
110.069
 31
0.0
  0
LINE
  8
0
 62
     250
 10
895.459
 20
110.069
 30
0.0
 11
902.755
 21
108.853
 31
0.0
  0
LINE
  8
0
 62
     250
 10
902.755
 20
108.853
 30
0.0
 11
910.745
 21
107.822
 31
0.0
  0
LINE
  8
0
 62
     250
 10
910.745
 20
107.822
 30
0.0
 11
917.173
 21
107.198
 31
0.0
  0
LINE
  8
0
 62
     250
 10
917.173
 20
107.198
 30
0.0
 11
919.321
 21
107.045
 31
0.0
  0
LINE
  8
0
 62
     250
 10
919.321
 20
107.045
 30
0.0
 11
921.473
 21
106.892
 31
0.0
  0
LINE
  8
0
 62
     250
 10
921.473
 20
106.892
 30
0.0
 11
927.947
 21
106.443
 31
0.0
  0
LINE
  8
0
 62
     250
 10
927.947
 20
106.443
 30
0.0
 11
936.191
 21
105.942
 31
0.0
  0
LINE
  8
0
 62
     250
 10
936.191
 20
105.942
 30
0.0
 11
944.09
 21
105.618
 31
0.0
  0
LINE
  8
0
 62
     250
 10
944.09
 20
105.618
 30
0.0
 11
951.682
 21
105.545
 31
0.0
  0
LINE
  8
0
 62
     250
 10
951.682
 20
105.545
 30
0.0
 11
959.012
 21
105.8
 31
0.0
  0
LINE
  8
0
 62
     250
 10
959.012
 20
105.8
 30
0.0
 11
966.114
 21
106.458
 31
0.0
  0
LINE
  8
0
 62
     250
 10
966.114
 20
106.458
 30
0.0
 11
973.028
 21
107.592
 31
0.0
  0
LINE
  8
0
 62
     250
 10
973.028
 20
107.592
 30
0.0
 11
978.126
 21
108.782
 31
0.0
  0
LINE
  8
0
 62
     250
 10
978.126
 20
108.782
 30
0.0
 11
979.794
 21
109.277
 31
0.0
  0
LINE
  8
0
 62
     250
 10
979.794
 20
109.277
 30
0.0
 11
980.648
 21
109.53
 31
0.0
  0
LINE
  8
0
 62
     250
 10
980.648
 20
109.53
 30
0.0
 11
983.17
 21
110.406
 31
0.0
  0
LINE
  8
0
 62
     250
 10
983.17
 20
110.406
 30
0.0
 11
986.571
 21
111.771
 31
0.0
  0
LINE
  8
0
 62
     250
 10
986.571
 20
111.771
 30
0.0
 11
989.961
 21
113.333
 31
0.0
  0
LINE
  8
0
 62
     250
 10
989.961
 20
113.333
 30
0.0
 11
993.313
 21
115.045
 31
0.0
  0
LINE
  8
0
 62
     250
 10
993.313
 20
115.045
 30
0.0
 11
996.583
 21
116.869
 31
0.0
  0
LINE
  8
0
 62
     250
 10
996.583
 20
116.869
 30
0.0
 11
999.751
 21
118.758
 31
0.0
  0
LINE
  8
0
 62
     250
 10
999.751
 20
118.758
 30
0.0
 11
1002.77
 21
120.672
 31
0.0
  0
LINE
  8
0
 62
     250
 10
1002.77
 20
120.672
 30
0.0
 11
1005.62
 21
122.567
 31
0.0
  0
LINE
  8
0
 62
     250
 10
1005.62
 20
122.567
 30
0.0
 11
1008.25
 21
124.398
 31
0.0
  0
LINE
  8
0
 62
     250
 10
1008.25
 20
124.398
 30
0.0
 11
1010.64
 21
126.125
 31
0.0
  0
LINE
  8
0
 62
     250
 10
1010.64
 20
126.125
 30
0.0
 11
1012.76
 21
127.704
 31
0.0
  0
LINE
  8
0
 62
     250
 10
1012.76
 20
127.704
 30
0.0
 11
1014.57
 21
129.093
 31
0.0
  0
LINE
  8
0
 62
     250
 10
1014.57
 20
129.093
 30
0.0
 11
1016.03
 21
130.248
 31
0.0
  0
LINE
  8
0
 62
     250
 10
1016.03
 20
130.248
 30
0.0
 11
1017.12
 21
131.126
 31
0.0
  0
LINE
  8
0
 62
     250
 10
1017.12
 20
131.126
 30
0.0
 11
1017.8
 21
131.684
 31
0.0
  0
LINE
  8
0
 62
     250
 10
1017.8
 20
131.684
 30
0.0
 11
1018.03
 21
131.878
 31
0.0
  0
LINE
  8
0
 62
     250
 10
1018.03
 20
131.878
 30
0.0
 11
1018.03
 21
131.878
 31
0.0
  0
LINE
  8
0
 62
     250
 10
1018.03
 20
131.878
 30
0.0
 11
1018.03
 21
131.878
 31
0.0
  0
LINE
  8
0
 62
     250
 10
1018.03
 20
131.878
 30
0.0
 11
1018.18
 21
132.79
 31
0.0
  0
LINE
  8
0
 62
     250
 10
1018.18
 20
132.79
 30
0.0
 11
1018.63
 21
134.983
 31
0.0
  0
LINE
  8
0
 62
     250
 10
1018.63
 20
134.983
 30
0.0
 11
1019.32
 21
137.647
 31
0.0
  0
LINE
  8
0
 62
     250
 10
1019.32
 20
137.647
 30
0.0
 11
1019.92
 21
139.423
 31
0.0
  0
LINE
  8
0
 62
     250
 10
1019.92
 20
139.423
 30
0.0
 11
1020.21
 21
139.97
 31
0.0
  0
LINE
  8
0
 62
     250
 10
1020.21
 20
139.97
 30
0.0
 11
1020.4
 21
140.334
 31
0.0
  0
LINE
  8
0
 62
     250
 10
1020.4
 20
140.334
 30
0.0
 11
1020.92
 21
141.444
 31
0.0
  0
LINE
  8
0
 62
     250
 10
1020.92
 20
141.444
 30
0.0
 11
1022.04
 21
143.917
 31
0.0
  0
LINE
  8
0
 62
     250
 10
1022.04
 20
143.917
 30
0.0
 11
1023.51
 21
147.285
 31
0.0
  0
LINE
  8
0
 62
     250
 10
1023.51
 20
147.285
 30
0.0
 11
1025.28
 21
151.446
 31
0.0
  0
LINE
  8
0
 62
     250
 10
1025.28
 20
151.446
 30
0.0
 11
1027.28
 21
156.301
 31
0.0
  0
LINE
  8
0
 62
     250
 10
1027.28
 20
156.301
 30
0.0
 11
1029.47
 21
161.749
 31
0.0
  0
LINE
  8
0
 62
     250
 10
1029.47
 20
161.749
 30
0.0
 11
1031.78
 21
167.685
 31
0.0
  0
LINE
  8
0
 62
     250
 10
1031.78
 20
167.685
 30
0.0
 11
1033.58
 21
172.427
 31
0.0
  0
LINE
  8
0
 62
     250
 10
1033.58
 20
172.427
 30
0.0
 11
1034.16
 21
174.012
 31
0.0
  0
LINE
  8
0
 62
     250
 10
1034.16
 20
174.012
 30
0.0
 11
1034.81
 21
175.773
 31
0.0
  0
LINE
  8
0
 62
     250
 10
1034.81
 20
175.773
 30
0.0
 11
1036.57
 21
181.13
 31
0.0
  0
LINE
  8
0
 62
     250
 10
1036.57
 20
181.13
 30
0.0
 11
1038.97
 21
189.32
 31
0.0
  0
LINE
  8
0
 62
     250
 10
1038.97
 20
189.32
 30
0.0
 11
1041.3
 21
198.318
 31
0.0
  0
LINE
  8
0
 62
     250
 10
1041.3
 20
198.318
 30
0.0
 11
1043.52
 21
207.845
 31
0.0
  0
LINE
  8
0
 62
     250
 10
1043.52
 20
207.845
 30
0.0
 11
1045.57
 21
217.636
 31
0.0
  0
LINE
  8
0
 62
     250
 10
1045.57
 20
217.636
 30
0.0
 11
1047.39
 21
227.417
 31
0.0
  0
LINE
  8
0
 62
     250
 10
1047.39
 20
227.417
 30
0.0
 11
1048.94
 21
236.916
 31
0.0
  0
LINE
  8
0
 62
     250
 10
1048.94
 20
236.916
 30
0.0
 11
1049.88
 21
243.623
 31
0.0
  0
LINE
  8
0
 62
     250
 10
1049.88
 20
243.623
 30
0.0
 11
1050.16
 21
245.863
 31
0.0
  0
LINE
  8
0
 62
     250
 10
1050.16
 20
245.863
 30
0.0
 11
1050.3
 21
247.069
 31
0.0
  0
LINE
  8
0
 62
     250
 10
1050.3
 20
247.069
 30
0.0
 11
1050.67
 21
250.693
 31
0.0
  0
LINE
  8
0
 62
     250
 10
1050.67
 20
250.693
 30
0.0
 11
1051.19
 21
256.496
 31
0.0
  0
LINE
  8
0
 62
     250
 10
1051.19
 20
256.496
 30
0.0
 11
1051.7
 21
263.122
 31
0.0
  0
LINE
  8
0
 62
     250
 10
1051.7
 20
263.122
 30
0.0
 11
1052.21
 21
270.418
 31
0.0
  0
LINE
  8
0
 62
     250
 10
1052.21
 20
270.418
 30
0.0
 11
1052.7
 21
278.232
 31
0.0
  0
LINE
  8
0
 62
     250
 10
1052.7
 20
278.232
 30
0.0
 11
1053.16
 21
286.407
 31
0.0
  0
LINE
  8
0
 62
     250
 10
1053.16
 20
286.407
 30
0.0
 11
1053.61
 21
294.794
 31
0.0
  0
LINE
  8
0
 62
     250
 10
1053.61
 20
294.794
 30
0.0
 11
1054.03
 21
303.239
 31
0.0
  0
LINE
  8
0
 62
     250
 10
1054.03
 20
303.239
 30
0.0
 11
1054.41
 21
311.59
 31
0.0
  0
LINE
  8
0
 62
     250
 10
1054.41
 20
311.59
 30
0.0
 11
1054.76
 21
319.693
 31
0.0
  0
LINE
  8
0
 62
     250
 10
1054.76
 20
319.693
 30
0.0
 11
1055.07
 21
327.394
 31
0.0
  0
LINE
  8
0
 62
     250
 10
1055.07
 20
327.394
 30
0.0
 11
1055.33
 21
334.544
 31
0.0
  0
LINE
  8
0
 62
     250
 10
1055.33
 20
334.544
 30
0.0
 11
1055.54
 21
340.986
 31
0.0
  0
LINE
  8
0
 62
     250
 10
1055.54
 20
340.986
 30
0.0
 11
1055.69
 21
346.568
 31
0.0
  0
LINE
  8
0
 62
     250
 10
1055.69
 20
346.568
 30
0.0
 11
1055.79
 21
351.141
 31
0.0
  0
LINE
  8
0
 62
     250
 10
1055.79
 20
351.141
 30
0.0
 11
1055.83
 21
353.695
 31
0.0
  0
LINE
  8
0
 62
     250
 10
1055.83
 20
353.695
 30
0.0
 11
1055.83
 21
354.545
 31
0.0
  0
LINE
  8
0
 62
     250
 10
884.043
 20
8.17591
 30
0.0
 11
884.043
 21
8.17591
 31
0.0
  0
LINE
  8
0
 62
     250
 10
884.043
 20
8.17591
 30
0.0
 11
884.372
 21
8.14836
 31
0.0
  0
LINE
  8
0
 62
     250
 10
884.372
 20
8.14836
 30
0.0
 11
885.321
 21
8.06979
 31
0.0
  0
LINE
  8
0
 62
     250
 10
885.321
 20
8.06979
 30
0.0
 11
886.834
 21
7.94713
 31
0.0
  0
LINE
  8
0
 62
     250
 10
886.834
 20
7.94713
 30
0.0
 11
888.859
 21
7.78866
 31
0.0
  0
LINE
  8
0
 62
     250
 10
888.859
 20
7.78866
 30
0.0
 11
891.339
 21
7.60264
 31
0.0
  0
LINE
  8
0
 62
     250
 10
891.339
 20
7.60264
 30
0.0
 11
894.221
 21
7.39592
 31
0.0
  0
LINE
  8
0
 62
     250
 10
894.221
 20
7.39592
 30
0.0
 11
897.453
 21
7.17822
 31
0.0
  0
LINE
  8
0
 62
     250
 10
897.453
 20
7.17822
 30
0.0
 11
900.977
 21
6.95494
 31
0.0
  0
LINE
  8
0
 62
     250
 10
900.977
 20
6.95494
 30
0.0
 11
904.741
 21
6.73587
 31
0.0
  0
LINE
  8
0
 62
     250
 10
904.741
 20
6.73587
 30
0.0
 11
908.685
 21
6.52776
 31
0.0
  0
LINE
  8
0
 62
     250
 10
908.685
 20
6.52776
 30
0.0
 11
912.763
 21
6.33758
 31
0.0
  0
LINE
  8
0
 62
     250
 10
912.763
 20
6.33758
 30
0.0
 11
916.915
 21
6.17499
 31
0.0
  0
LINE
  8
0
 62
     250
 10
916.915
 20
6.17499
 30
0.0
 11
921.085
 21
6.04682
 31
0.0
  0
LINE
  8
0
 62
     250
 10
921.085
 20
6.04682
 30
0.0
 11
925.223
 21
5.96
 31
0.0
  0
LINE
  8
0
 62
     250
 10
925.223
 20
5.96
 30
0.0
 11
929.273
 21
5.92282
 31
0.0
  0
LINE
  8
0
 62
     250
 10
929.273
 20
5.92282
 30
0.0
 11
932.201
 21
5.93108
 31
0.0
  0
LINE
  8
0
 62
     250
 10
932.201
 20
5.93108
 30
0.0
 11
933.178
 21
5.94349
 31
0.0
  0
LINE
  8
0
 62
     250
 10
933.178
 20
5.94349
 30
0.0
 11
935.122
 21
5.97105
 31
0.0
  0
LINE
  8
0
 62
     250
 10
935.122
 20
5.97105
 30
0.0
 11
940.954
 21
6.15019
 31
0.0
  0
LINE
  8
0
 62
     250
 10
940.954
 20
6.15019
 30
0.0
 11
948.948
 21
6.53464
 31
0.0
  0
LINE
  8
0
 62
     250
 10
948.948
 20
6.53464
 30
0.0
 11
957.051
 21
7.05693
 31
0.0
  0
LINE
  8
0
 62
     250
 10
957.051
 20
7.05693
 30
0.0
 11
965.147
 21
7.67567
 31
0.0
  0
LINE
  8
0
 62
     250
 10
965.147
 20
7.67567
 30
0.0
 11
973.13
 21
8.3523
 31
0.0
  0
LINE
  8
0
 62
     250
 10
973.13
 20
8.3523
 30
0.0
 11
980.892
 21
9.04406
 31
0.0
  0
LINE
  8
0
 62
     250
 10
980.892
 20
9.04406
 30
0.0
 11
988.321
 21
9.71102
 31
0.0
  0
LINE
  8
0
 62
     250
 10
988.321
 20
9.71102
 30
0.0
 11
993.556
 21
10.1699
 31
0.0
  0
LINE
  8
0
 62
     250
 10
993.556
 20
10.1699
 30
0.0
 11
995.303
 21
10.3146
 31
0.0
  0
LINE
  8
0
 62
     250
 10
995.303
 20
10.3146
 30
0.0
 11
997.084
 21
10.4635
 31
0.0
  0
LINE
  8
0
 62
     250
 10
997.084
 20
10.4635
 30
0.0
 11
1002.43
 21
10.9265
 31
0.0
  0
LINE
  8
0
 62
     250
 10
1002.43
 20
10.9265
 30
0.0
 11
1010.21
 21
11.6513
 31
0.0
  0
LINE
  8
0
 62
     250
 10
1010.21
 20
11.6513
 30
0.0
 11
1018.4
 21
12.4947
 31
0.0
  0
LINE
  8
0
 62
     250
 10
1018.4
 20
12.4947
 30
0.0
 11
1026.74
 21
13.4662
 31
0.0
  0
LINE
  8
0
 62
     250
 10
1026.74
 20
13.4662
 30
0.0
 11
1034.98
 21
14.5728
 31
0.0
  0
LINE
  8
0
 62
     250
 10
1034.98
 20
14.5728
 30
0.0
 11
1042.88
 21
15.8213
 31
0.0
  0
LINE
  8
0
 62
     250
 10
1042.88
 20
15.8213
 30
0.0
 11
1050.18
 21
17.2213
 31
0.0
  0
LINE
  8
0
 62
     250
 10
1050.18
 20
17.2213
 30
0.0
 11
1055.05
 21
18.3389
 31
0.0
  0
LINE
  8
0
 62
     250
 10
1055.05
 20
18.3389
 30
0.0
 11
1056.65
 21
18.7785
 31
0.0
  0
LINE
  8
0
 62
     250
 10
1056.65
 20
18.7785
 30
0.0
 11
1058.37
 21
19.2512
 31
0.0
  0
LINE
  8
0
 62
     250
 10
1058.37
 20
19.2512
 30
0.0
 11
1063.49
 21
20.7863
 31
0.0
  0
LINE
  8
0
 62
     250
 10
1063.49
 20
20.7863
 30
0.0
 11
1071.78
 21
23.4887
 31
0.0
  0
LINE
  8
0
 62
     250
 10
1071.78
 20
23.4887
 30
0.0
 11
1081.05
 21
26.8207
 31
0.0
  0
LINE
  8
0
 62
     250
 10
1081.05
 20
26.8207
 30
0.0
 11
1090.82
 21
30.7192
 31
0.0
  0
LINE
  8
0
 62
     250
 10
1090.82
 20
30.7192
 30
0.0
 11
1100.64
 21
35.1179
 31
0.0
  0
LINE
  8
0
 62
     250
 10
1100.64
 20
35.1179
 30
0.0
 11
1110.03
 21
39.9549
 31
0.0
  0
LINE
  8
0
 62
     250
 10
1110.03
 20
39.9549
 30
0.0
 11
1118.52
 21
45.1637
 31
0.0
  0
LINE
  8
0
 62
     250
 10
1118.52
 20
45.1637
 30
0.0
 11
1123.98
 21
49.1793
 31
0.0
  0
LINE
  8
0
 62
     250
 10
1123.98
 20
49.1793
 30
0.0
 11
1125.65
 21
50.6815
 31
0.0
  0
LINE
  8
0
 62
     250
 10
1125.65
 20
50.6815
 30
0.0
 11
1127.21
 21
52.0859
 31
0.0
  0
LINE
  8
0
 62
     250
 10
1127.21
 20
52.0859
 30
0.0
 11
1131.63
 21
56.599
 31
0.0
  0
LINE
  8
0
 62
     250
 10
1131.63
 20
56.599
 30
0.0
 11
1136.99
 21
62.9613
 31
0.0
  0
LINE
  8
0
 62
     250
 10
1136.99
 20
62.9613
 30
0.0
 11
1141.74
 21
69.639
 31
0.0
  0
LINE
  8
0
 62
     250
 10
1141.74
 20
69.639
 30
0.0
 11
1145.88
 21
76.503
 31
0.0
  0
LINE
  8
0
 62
     250
 10
1145.88
 20
76.503
 30
0.0
 11
1149.41
 21
83.4249
 31
0.0
  0
LINE
  8
0
 62
     250
 10
1149.41
 20
83.4249
 30
0.0
 11
1152.33
 21
90.2727
 31
0.0
  0
LINE
  8
0
 62
     250
 10
1152.33
 20
90.2727
 30
0.0
 11
1154.66
 21
96.9186
 31
0.0
  0
LINE
  8
0
 62
     250
 10
1154.66
 20
96.9186
 30
0.0
 11
1156
 21
101.64
 31
0.0
  0
LINE
  8
0
 62
     250
 10
1156
 20
101.64
 30
0.0
 11
1156.37
 21
103.232
 31
0.0
  0
LINE
  8
0
 62
     250
 10
1156.37
 20
103.232
 30
0.0
 11
1156.79
 21
105.015
 31
0.0
  0
LINE
  8
0
 62
     250
 10
1156.79
 20
105.015
 30
0.0
 11
1157.81
 21
110.412
 31
0.0
  0
LINE
  8
0
 62
     250
 10
1157.81
 20
110.412
 30
0.0
 11
1159.26
 21
119.446
 31
0.0
  0
LINE
  8
0
 62
     250
 10
1159.26
 20
119.446
 30
0.0
 11
1160.7
 21
129.883
 31
0.0
  0
LINE
  8
0
 62
     250
 10
1160.7
 20
129.883
 30
0.0
 11
1162.1
 21
141.274
 31
0.0
  0
LINE
  8
0
 62
     250
 10
1162.1
 20
141.274
 30
0.0
 11
1163.44
 21
153.172
 31
0.0
  0
LINE
  8
0
 62
     250
 10
1163.44
 20
153.172
 30
0.0
 11
1164.67
 21
165.125
 31
0.0
  0
LINE
  8
0
 62
     250
 10
1164.67
 20
165.125
 30
0.0
 11
1165.79
 21
176.687
 31
0.0
  0
LINE
  8
0
 62
     250
 10
1165.79
 20
176.687
 30
0.0
 11
1166.52
 21
184.726
 31
0.0
  0
LINE
  8
0
 62
     250
 10
1166.52
 20
184.726
 30
0.0
 11
1166.75
 21
187.406
 31
0.0
  0
LINE
  8
0
 62
     250
 10
1166.75
 20
187.406
 30
0.0
 11
1166.87
 21
188.893
 31
0.0
  0
LINE
  8
0
 62
     250
 10
1166.87
 20
188.893
 30
0.0
 11
1167.18
 21
193.361
 31
0.0
  0
LINE
  8
0
 62
     250
 10
1167.18
 20
193.361
 30
0.0
 11
1167.62
 21
200.929
 31
0.0
  0
LINE
  8
0
 62
     250
 10
1167.62
 20
200.929
 30
0.0
 11
1168.06
 21
209.893
 31
0.0
  0
LINE
  8
0
 62
     250
 10
1168.06
 20
209.893
 30
0.0
 11
1168.5
 21
220.036
 31
0.0
  0
LINE
  8
0
 62
     250
 10
1168.5
 20
220.036
 30
0.0
 11
1168.92
 21
231.14
 31
0.0
  0
LINE
  8
0
 62
     250
 10
1168.92
 20
231.14
 30
0.0
 11
1169.33
 21
242.988
 31
0.0
  0
LINE
  8
0
 62
     250
 10
1169.33
 20
242.988
 30
0.0
 11
1169.72
 21
255.363
 31
0.0
  0
LINE
  8
0
 62
     250
 10
1169.72
 20
255.363
 30
0.0
 11
1170.09
 21
268.046
 31
0.0
  0
LINE
  8
0
 62
     250
 10
1170.09
 20
268.046
 30
0.0
 11
1170.43
 21
280.822
 31
0.0
  0
LINE
  8
0
 62
     250
 10
1170.43
 20
280.822
 30
0.0
 11
1170.74
 21
293.471
 31
0.0
  0
LINE
  8
0
 62
     250
 10
1170.74
 20
293.471
 30
0.0
 11
1171.01
 21
305.777
 31
0.0
  0
LINE
  8
0
 62
     250
 10
1171.01
 20
305.777
 30
0.0
 11
1171.24
 21
317.522
 31
0.0
  0
LINE
  8
0
 62
     250
 10
1171.24
 20
317.522
 30
0.0
 11
1171.43
 21
328.49
 31
0.0
  0
LINE
  8
0
 62
     250
 10
1171.43
 20
328.49
 30
0.0
 11
1171.57
 21
338.46
 31
0.0
  0
LINE
  8
0
 62
     250
 10
1171.57
 20
338.46
 30
0.0
 11
1171.66
 21
347.219
 31
0.0
  0
LINE
  8
0
 62
     250
 10
1171.66
 20
347.219
 30
0.0
 11
1171.69
 21
352.714
 31
0.0
  0
LINE
  8
0
 62
     250
 10
1171.69
 20
352.714
 30
0.0
 11
1171.69
 21
354.545
 31
0.0
  0
LINE
  8
0
 62
     250
 10
533.209
 20
354.545
 30
0.0
 11
533.209
 21
353.152
 31
0.0
  0
LINE
  8
0
 62
     250
 10
533.209
 20
353.152
 30
0.0
 11
533.234
 21
348.966
 31
0.0
  0
LINE
  8
0
 62
     250
 10
533.234
 20
348.966
 30
0.0
 11
533.305
 21
342.171
 31
0.0
  0
LINE
  8
0
 62
     250
 10
533.305
 20
342.171
 30
0.0
 11
533.421
 21
334.33
 31
0.0
  0
LINE
  8
0
 62
     250
 10
533.421
 20
334.33
 30
0.0
 11
533.583
 21
325.611
 31
0.0
  0
LINE
  8
0
 62
     250
 10
533.583
 20
325.611
 30
0.0
 11
533.781
 21
316.183
 31
0.0
  0
LINE
  8
0
 62
     250
 10
533.781
 20
316.183
 30
0.0
 11
534.017
 21
306.214
 31
0.0
  0
LINE
  8
0
 62
     250
 10
534.017
 20
306.214
 30
0.0
 11
534.289
 21
295.872
 31
0.0
  0
LINE
  8
0
 62
     250
 10
534.289
 20
295.872
 30
0.0
 11
534.592
 21
285.323
 31
0.0
  0
LINE
  8
0
 62
     250
 10
534.592
 20
285.323
 30
0.0
 11
534.924
 21
274.738
 31
0.0
  0
LINE
  8
0
 62
     250
 10
534.924
 20
274.738
 30
0.0
 11
535.284
 21
264.284
 31
0.0
  0
LINE
  8
0
 62
     250
 10
535.284
 20
264.284
 30
0.0
 11
535.665
 21
254.129
 31
0.0
  0
LINE
  8
0
 62
     250
 10
535.665
 20
254.129
 30
0.0
 11
536.071
 21
244.442
 31
0.0
  0
LINE
  8
0
 62
     250
 10
536.071
 20
244.442
 30
0.0
 11
536.497
 21
235.391
 31
0.0
  0
LINE
  8
0
 62
     250
 10
536.497
 20
235.391
 30
0.0
 11
536.938
 21
227.142
 31
0.0
  0
LINE
  8
0
 62
     250
 10
536.938
 20
227.142
 30
0.0
 11
537.393
 21
219.866
 31
0.0
  0
LINE
  8
0
 62
     250
 10
537.393
 20
219.866
 30
0.0
 11
537.729
 21
215.262
 31
0.0
  0
LINE
  8
0
 62
     250
 10
537.729
 20
215.262
 30
0.0
 11
537.863
 21
213.728
 31
0.0
  0
LINE
  8
0
 62
     250
 10
537.863
 20
213.728
 30
0.0
 11
537.986
 21
212.291
 31
0.0
  0
LINE
  8
0
 62
     250
 10
537.986
 20
212.291
 30
0.0
 11
538.406
 21
207.982
 31
0.0
  0
LINE
  8
0
 62
     250
 10
538.406
 20
207.982
 30
0.0
 11
539.09
 21
201.821
 31
0.0
  0
LINE
  8
0
 62
     250
 10
539.09
 20
201.821
 30
0.0
 11
539.898
 21
195.331
 31
0.0
  0
LINE
  8
0
 62
     250
 10
539.898
 20
195.331
 30
0.0
 11
540.822
 21
188.601
 31
0.0
  0
LINE
  8
0
 62
     250
 10
540.822
 20
188.601
 30
0.0
 11
541.842
 21
181.718
 31
0.0
  0
LINE
  8
0
 62
     250
 10
541.842
 20
181.718
 30
0.0
 11
542.957
 21
174.767
 31
0.0
  0
LINE
  8
0
 62
     250
 10
542.957
 20
174.767
 30
0.0
 11
544.146
 21
167.838
 31
0.0
  0
LINE
  8
0
 62
     250
 10
544.146
 20
167.838
 30
0.0
 11
545.398
 21
161.014
 31
0.0
  0
LINE
  8
0
 62
     250
 10
545.398
 20
161.014
 30
0.0
 11
546.703
 21
154.386
 31
0.0
  0
LINE
  8
0
 62
     250
 10
546.703
 20
154.386
 30
0.0
 11
548.047
 21
148.039
 31
0.0
  0
LINE
  8
0
 62
     250
 10
548.047
 20
148.039
 30
0.0
 11
549.42
 21
142.058
 31
0.0
  0
LINE
  8
0
 62
     250
 10
549.42
 20
142.058
 30
0.0
 11
550.81
 21
136.533
 31
0.0
  0
LINE
  8
0
 62
     250
 10
550.81
 20
136.533
 30
0.0
 11
552.2
 21
131.549
 31
0.0
  0
LINE
  8
0
 62
     250
 10
552.2
 20
131.549
 30
0.0
 11
553.582
 21
127.194
 31
0.0
  0
LINE
  8
0
 62
     250
 10
553.582
 20
127.194
 30
0.0
 11
554.944
 21
123.555
 31
0.0
  0
LINE
  8
0
 62
     250
 10
554.944
 20
123.555
 30
0.0
 11
555.904
 21
121.405
 31
0.0
  0
LINE
  8
0
 62
     250
 10
555.904
 20
121.405
 30
0.0
 11
556.274
 21
120.717
 31
0.0
  0
LINE
  8
0
 62
     250
 10
556.274
 20
120.717
 30
0.0
 11
556.99
 21
119.404
 31
0.0
  0
LINE
  8
0
 62
     250
 10
556.99
 20
119.404
 30
0.0
 11
559.477
 21
115.652
 31
0.0
  0
LINE
  8
0
 62
     250
 10
559.477
 20
115.652
 30
0.0
 11
563.802
 21
110.18
 31
0.0
  0
LINE
  8
0
 62
     250
 10
563.802
 20
110.18
 30
0.0
 11
569.175
 21
104.454
 31
0.0
  0
LINE
  8
0
 62
     250
 10
569.175
 20
104.454
 30
0.0
 11
575.515
 21
98.6289
 31
0.0
  0
LINE
  8
0
 62
     250
 10
575.515
 20
98.6289
 30
0.0
 11
582.743
 21
92.855
 31
0.0
  0
LINE
  8
0
 62
     250
 10
582.743
 20
92.855
 30
0.0
 11
590.783
 21
87.2878
 31
0.0
  0
LINE
  8
0
 62
     250
 10
590.783
 20
87.2878
 30
0.0
 11
599.56
 21
82.0773
 31
0.0
  0
LINE
  8
0
 62
     250
 10
599.56
 20
82.0773
 30
0.0
 11
606.598
 21
78.4585
 31
0.0
  0
LINE
  8
0
 62
     250
 10
606.598
 20
78.4585
 30
0.0
 11
608.997
 21
77.3755
 31
0.0
  0
LINE
  8
0
 62
     250
 10
608.997
 20
77.3755
 30
0.0
 11
610.263
 21
76.805
 31
0.0
  0
LINE
  8
0
 62
     250
 10
610.263
 20
76.805
 30
0.0
 11
614.084
 21
75.1459
 31
0.0
  0
LINE
  8
0
 62
     250
 10
614.084
 20
75.1459
 30
0.0
 11
619.562
 21
72.868
 31
0.0
  0
LINE
  8
0
 62
     250
 10
619.562
 20
72.868
 30
0.0
 11
625.366
 21
70.5693
 31
0.0
  0
LINE
  8
0
 62
     250
 10
625.366
 20
70.5693
 30
0.0
 11
631.437
 21
68.2748
 31
0.0
  0
LINE
  8
0
 62
     250
 10
631.437
 20
68.2748
 30
0.0
 11
637.706
 21
66.0135
 31
0.0
  0
LINE
  8
0
 62
     250
 10
637.706
 20
66.0135
 30
0.0
 11
644.116
 21
63.8087
 31
0.0
  0
LINE
  8
0
 62
     250
 10
644.116
 20
63.8087
 30
0.0
 11
650.596
 21
61.6892
 31
0.0
  0
LINE
  8
0
 62
     250
 10
650.596
 20
61.6892
 30
0.0
 11
657.091
 21
59.6801
 31
0.0
  0
LINE
  8
0
 62
     250
 10
657.091
 20
59.6801
 30
0.0
 11
663.533
 21
57.8086
 31
0.0
  0
LINE
  8
0
 62
     250
 10
663.533
 20
57.8086
 30
0.0
 11
669.858
 21
56.1012
 31
0.0
  0
LINE
  8
0
 62
     250
 10
669.858
 20
56.1012
 30
0.0
 11
676.007
 21
54.5842
 31
0.0
  0
LINE
  8
0
 62
     250
 10
676.007
 20
54.5842
 30
0.0
 11
681.912
 21
53.2832
 31
0.0
  0
LINE
  8
0
 62
     250
 10
681.912
 20
53.2832
 30
0.0
 11
687.511
 21
52.2249
 31
0.0
  0
LINE
  8
0
 62
     250
 10
687.511
 20
52.2249
 30
0.0
 11
692.743
 21
51.4368
 31
0.0
  0
LINE
  8
0
 62
     250
 10
692.743
 20
51.4368
 30
0.0
 11
697.54
 21
50.9446
 31
0.0
  0
LINE
  8
0
 62
     250
 10
697.54
 20
50.9446
 30
0.0
 11
700.768
 21
50.7739
 31
0.0
  0
LINE
  8
0
 62
     250
 10
700.768
 20
50.7739
 30
0.0
 11
701.844
 21
50.7739
 31
0.0
  0
LINE
  8
0
 62
     250
 10
701.844
 20
50.7739
 30
0.0
 11
703.876
 21
50.7739
 31
0.0
  0
LINE
  8
0
 62
     250
 10
703.876
 20
50.7739
 30
0.0
 11
709.979
 21
51.0632
 31
0.0
  0
LINE
  8
0
 62
     250
 10
709.979
 20
51.0632
 30
0.0
 11
718.146
 21
51.864
 31
0.0
  0
LINE
  8
0
 62
     250
 10
718.146
 20
51.864
 30
0.0
 11
726.158
 21
53.0793
 31
0.0
  0
LINE
  8
0
 62
     250
 10
726.158
 20
53.0793
 30
0.0
 11
733.848
 21
54.6118
 31
0.0
  0
LINE
  8
0
 62
     250
 10
733.848
 20
54.6118
 30
0.0
 11
741.038
 21
56.3605
 31
0.0
  0
LINE
  8
0
 62
     250
 10
741.038
 20
56.3605
 30
0.0
 11
747.554
 21
58.2306
 31
0.0
  0
LINE
  8
0
 62
     250
 10
747.554
 20
58.2306
 30
0.0
 11
753.219
 21
60.1211
 31
0.0
  0
LINE
  8
0
 62
     250
 10
753.219
 20
60.1211
 30
0.0
 11
756.715
 21
61.4454
 31
0.0
  0
LINE
  8
0
 62
     250
 10
756.715
 20
61.4454
 30
0.0
 11
757.858
 21
61.9347
 31
0.0
  0
LINE
  8
0
 62
     250
 10
757.858
 20
61.9347
 30
0.0
 11
758.938
 21
62.3976
 31
0.0
  0
LINE
  8
0
 62
     250
 10
758.938
 20
62.3976
 30
0.0
 11
762.018
 21
64.1586
 31
0.0
  0
LINE
  8
0
 62
     250
 10
762.018
 20
64.1586
 30
0.0
 11
766.307
 21
67.2402
 31
0.0
  0
LINE
  8
0
 62
     250
 10
766.307
 20
67.2402
 30
0.0
 11
770.661
 21
71.0226
 31
0.0
  0
LINE
  8
0
 62
     250
 10
770.661
 20
71.0226
 30
0.0
 11
775.014
 21
75.3526
 31
0.0
  0
LINE
  8
0
 62
     250
 10
775.014
 20
75.3526
 30
0.0
 11
779.29
 21
80.0735
 31
0.0
  0
LINE
  8
0
 62
     250
 10
779.29
 20
80.0735
 30
0.0
 11
783.424
 21
85.0332
 31
0.0
  0
LINE
  8
0
 62
     250
 10
783.424
 20
85.0332
 30
0.0
 11
787.354
 21
90.0769
 31
0.0
  0
LINE
  8
0
 62
     250
 10
787.354
 20
90.0769
 30
0.0
 11
790.109
 21
93.792
 31
0.0
  0
LINE
  8
0
 62
     250
 10
790.109
 20
93.792
 30
0.0
 11
791.005
 21
95.0461
 31
0.0
  0
LINE
  8
0
 62
     250
 10
791.005
 20
95.0461
 30
0.0
 11
792.674
 21
97.3847
 31
0.0
  0
LINE
  8
0
 62
     250
 10
792.674
 20
97.3847
 30
0.0
 11
797.832
 21
104.296
 31
0.0
  0
LINE
  8
0
 62
     250
 10
797.832
 20
104.296
 30
0.0
 11
804.499
 21
112.533
 31
0.0
  0
LINE
  8
0
 62
     250
 10
804.499
 20
112.533
 30
0.0
 11
811.202
 21
119.794
 31
0.0
  0
LINE
  8
0
 62
     250
 10
811.202
 20
119.794
 30
0.0
 11
816.331
 21
124.624
 31
0.0
  0
LINE
  8
0
 62
     250
 10
816.331
 20
124.624
 30
0.0
 11
818.141
 21
126.112
 31
0.0
  0
LINE
  8
0
 62
     250
 10
818.141
 20
126.112
 30
0.0
 11
819.048
 21
126.858
 31
0.0
  0
LINE
  8
0
 62
     250
 10
819.048
 20
126.858
 30
0.0
 11
821.979
 21
128.833
 31
0.0
  0
LINE
  8
0
 62
     250
 10
821.979
 20
128.833
 30
0.0
 11
826.414
 21
131.167
 31
0.0
  0
LINE
  8
0
 62
     250
 10
826.414
 20
131.167
 30
0.0
 11
831.522
 21
133.165
 31
0.0
  0
LINE
  8
0
 62
     250
 10
831.522
 20
133.165
 30
0.0
 11
837.378
 21
134.878
 31
0.0
  0
LINE
  8
0
 62
     250
 10
837.378
 20
134.878
 30
0.0
 11
844.049
 21
136.357
 31
0.0
  0
LINE
  8
0
 62
     250
 10
844.049
 20
136.357
 30
0.0
 11
851.613
 21
137.65
 31
0.0
  0
LINE
  8
0
 62
     250
 10
851.613
 20
137.65
 30
0.0
 11
860.136
 21
138.806
 31
0.0
  0
LINE
  8
0
 62
     250
 10
860.136
 20
138.806
 30
0.0
 11
867.304
 21
139.631
 31
0.0
  0
LINE
  8
0
 62
     250
 10
867.304
 20
139.631
 30
0.0
 11
869.7
 21
139.878
 31
0.0
  0
LINE
  8
0
 62
     250
 10
869.7
 20
139.878
 30
0.0
 11
872.24
 21
140.141
 31
0.0
  0
LINE
  8
0
 62
     250
 10
872.24
 20
140.141
 30
0.0
 11
879.874
 21
140.873
 31
0.0
  0
LINE
  8
0
 62
     250
 10
879.874
 20
140.873
 30
0.0
 11
890.044
 21
141.762
 31
0.0
  0
LINE
  8
0
 62
     250
 10
890.044
 20
141.762
 30
0.0
 11
899.989
 21
142.547
 31
0.0
  0
LINE
  8
0
 62
     250
 10
899.989
 20
142.547
 30
0.0
 11
909.482
 21
143.226
 31
0.0
  0
LINE
  8
0
 62
     250
 10
909.482
 20
143.226
 30
0.0
 11
918.305
 21
143.802
 31
0.0
  0
LINE
  8
0
 62
     250
 10
918.305
 20
143.802
 30
0.0
 11
926.232
 21
144.274
 31
0.0
  0
LINE
  8
0
 62
     250
 10
926.232
 20
144.274
 30
0.0
 11
933.041
 21
144.64
 31
0.0
  0
LINE
  8
0
 62
     250
 10
933.041
 20
144.64
 30
0.0
 11
937.14
 21
144.841
 31
0.0
  0
LINE
  8
0
 62
     250
 10
937.14
 20
144.841
 30
0.0
 11
938.509
 21
144.901
 31
0.0
  0
LINE
  8
0
 62
     250
 10
938.509
 20
144.901
 30
0.0
 11
939.796
 21
144.959
 31
0.0
  0
LINE
  8
0
 62
     250
 10
939.796
 20
144.959
 30
0.0
 11
943.649
 21
145.302
 31
0.0
  0
LINE
  8
0
 62
     250
 10
943.649
 20
145.302
 30
0.0
 11
949.367
 21
146.009
 31
0.0
  0
LINE
  8
0
 62
     250
 10
949.367
 20
146.009
 30
0.0
 11
955.269
 21
146.913
 31
0.0
  0
LINE
  8
0
 62
     250
 10
955.269
 20
146.913
 30
0.0
 11
960.967
 21
147.901
 31
0.0
  0
LINE
  8
0
 62
     250
 10
960.967
 20
147.901
 30
0.0
 11
966.078
 21
148.863
 31
0.0
  0
LINE
  8
0
 62
     250
 10
966.078
 20
148.863
 30
0.0
 11
970.209
 21
149.688
 31
0.0
  0
LINE
  8
0
 62
     250
 10
970.209
 20
149.688
 30
0.0
 11
972.972
 21
150.264
 31
0.0
  0
LINE
  8
0
 62
     250
 10
972.972
 20
150.264
 30
0.0
 11
973.981
 21
150.481
 31
0.0
  0
LINE
  8
0
 62
     250
 10
973.981
 20
150.481
 30
0.0
 11
973.981
 21
150.481
 31
0.0
  0
LINE
  8
0
 62
     250
 10
818.141
 20
126.112
 30
0.0
 11
818.141
 21
126.112
 31
0.0
  0
LINE
  8
0
 62
     250
 10
818.141
 20
126.112
 30
0.0
 11
817.291
 21
126.49
 31
0.0
  0
LINE
  8
0
 62
     250
 10
817.291
 20
126.49
 30
0.0
 11
814.913
 21
127.598
 31
0.0
  0
LINE
  8
0
 62
     250
 10
814.913
 20
127.598
 30
0.0
 11
811.262
 21
129.409
 31
0.0
  0
LINE
  8
0
 62
     250
 10
811.262
 20
129.409
 30
0.0
 11
806.602
 21
131.892
 31
0.0
  0
LINE
  8
0
 62
     250
 10
806.602
 20
131.892
 30
0.0
 11
801.183
 21
135.015
 31
0.0
  0
LINE
  8
0
 62
     250
 10
801.183
 20
135.015
 30
0.0
 11
795.263
 21
138.748
 31
0.0
  0
LINE
  8
0
 62
     250
 10
795.263
 20
138.748
 30
0.0
 11
789.104
 21
143.061
 31
0.0
  0
LINE
  8
0
 62
     250
 10
789.104
 20
143.061
 30
0.0
 11
784.454
 21
146.658
 31
0.0
  0
LINE
  8
0
 62
     250
 10
784.454
 20
146.658
 30
0.0
 11
782.962
 21
147.923
 31
0.0
  0
LINE
  8
0
 62
     250
 10
782.962
 20
147.923
 30
0.0
 11
781.491
 21
149.167
 31
0.0
  0
LINE
  8
0
 62
     250
 10
781.491
 20
149.167
 30
0.0
 11
777.215
 21
153.049
 31
0.0
  0
LINE
  8
0
 62
     250
 10
777.215
 20
153.049
 30
0.0
 11
772.04
 21
158.243
 31
0.0
  0
LINE
  8
0
 62
     250
 10
772.04
 20
158.243
 30
0.0
 11
767.39
 21
163.614
 31
0.0
  0
LINE
  8
0
 62
     250
 10
767.39
 20
163.614
 30
0.0
 11
763.206
 21
169.27
 31
0.0
  0
LINE
  8
0
 62
     250
 10
763.206
 20
169.27
 30
0.0
 11
759.442
 21
175.317
 31
0.0
  0
LINE
  8
0
 62
     250
 10
759.442
 20
175.317
 30
0.0
 11
756.035
 21
181.865
 31
0.0
  0
LINE
  8
0
 62
     250
 10
756.035
 20
181.865
 30
0.0
 11
752.941
 21
189.022
 31
0.0
  0
LINE
  8
0
 62
     250
 10
752.941
 20
189.022
 30
0.0
 11
750.76
 21
194.908
 31
0.0
  0
LINE
  8
0
 62
     250
 10
750.76
 20
194.908
 30
0.0
 11
750.108
 21
196.893
 31
0.0
  0
LINE
  8
0
 62
     250
 10
750.108
 20
196.893
 30
0.0
 11
749.745
 21
197.987
 31
0.0
  0
LINE
  8
0
 62
     250
 10
749.745
 20
197.987
 30
0.0
 11
748.753
 21
201.297
 31
0.0
  0
LINE
  8
0
 62
     250
 10
748.753
 20
201.297
 30
0.0
 11
747.427
 21
206.192
 31
0.0
  0
LINE
  8
0
 62
     250
 10
747.427
 20
206.192
 30
0.0
 11
746.132
 21
211.503
 31
0.0
  0
LINE
  8
0
 62
     250
 10
746.132
 20
211.503
 30
0.0
 11
744.876
 21
217.156
 31
0.0
  0
LINE
  8
0
 62
     250
 10
744.876
 20
217.156
 30
0.0
 11
743.663
 21
223.077
 31
0.0
  0
LINE
  8
0
 62
     250
 10
743.663
 20
223.077
 30
0.0
 11
742.495
 21
229.19
 31
0.0
  0
LINE
  8
0
 62
     250
 10
742.495
 20
229.19
 30
0.0
 11
741.384
 21
235.421
 31
0.0
  0
LINE
  8
0
 62
     250
 10
741.384
 20
235.421
 30
0.0
 11
740.329
 21
241.695
 31
0.0
  0
LINE
  8
0
 62
     250
 10
740.329
 20
241.695
 30
0.0
 11
739.341
 21
247.939
 31
0.0
  0
LINE
  8
0
 62
     250
 10
739.341
 20
247.939
 30
0.0
 11
738.42
 21
254.077
 31
0.0
  0
LINE
  8
0
 62
     250
 10
738.42
 20
254.077
 30
0.0
 11
737.577
 21
260.034
 31
0.0
  0
LINE
  8
0
 62
     250
 10
737.577
 20
260.034
 30
0.0
 11
736.819
 21
265.738
 31
0.0
  0
LINE
  8
0
 62
     250
 10
736.819
 20
265.738
 30
0.0
 11
736.145
 21
271.111
 31
0.0
  0
LINE
  8
0
 62
     250
 10
736.145
 20
271.111
 30
0.0
 11
735.559
 21
276.08
 31
0.0
  0
LINE
  8
0
 62
     250
 10
735.559
 20
276.08
 30
0.0
 11
735.076
 21
280.571
 31
0.0
  0
LINE
  8
0
 62
     250
 10
735.076
 20
280.571
 30
0.0
 11
734.787
 21
283.524
 31
0.0
  0
LINE
  8
0
 62
     250
 10
734.787
 20
283.524
 30
0.0
 11
734.699
 21
284.508
 31
0.0
  0
LINE
  8
0
 62
     250
 10
734.699
 20
284.508
 30
0.0
 11
734.515
 21
286.538
 31
0.0
  0
LINE
  8
0
 62
     250
 10
734.515
 20
286.538
 30
0.0
 11
734.081
 21
292.635
 31
0.0
  0
LINE
  8
0
 62
     250
 10
734.081
 20
292.635
 30
0.0
 11
733.552
 21
302.084
 31
0.0
  0
LINE
  8
0
 62
     250
 10
733.552
 20
302.084
 30
0.0
 11
733.1
 21
312.286
 31
0.0
  0
LINE
  8
0
 62
     250
 10
733.1
 20
312.286
 30
0.0
 11
732.734
 21
322.666
 31
0.0
  0
LINE
  8
0
 62
     250
 10
732.734
 20
322.666
 30
0.0
 11
732.448
 21
332.656
 31
0.0
  0
LINE
  8
0
 62
     250
 10
732.448
 20
332.656
 30
0.0
 11
732.243
 21
341.68
 31
0.0
  0
LINE
  8
0
 62
     250
 10
732.243
 20
341.68
 30
0.0
 11
732.12
 21
349.167
 31
0.0
  0
LINE
  8
0
 62
     250
 10
732.12
 20
349.167
 30
0.0
 11
732.081
 21
353.201
 31
0.0
  0
LINE
  8
0
 62
     250
 10
732.081
 20
353.201
 30
0.0
 11
732.081
 21
354.545
 31
0.0
  0
LINE
  8
0
 62
     250
 10
554.288
 20
124.485
 30
0.0
 11
554.288
 21
124.485
 31
0.0
  0
LINE
  8
0
 62
     250
 10
554.288
 20
124.485
 30
0.0
 11
553.805
 21
124.316
 31
0.0
  0
LINE
  8
0
 62
     250
 10
553.805
 20
124.316
 30
0.0
 11
552.408
 21
123.862
 31
0.0
  0
LINE
  8
0
 62
     250
 10
552.408
 20
123.862
 30
0.0
 11
550.182
 21
123.205
 31
0.0
  0
LINE
  8
0
 62
     250
 10
550.182
 20
123.205
 30
0.0
 11
547.204
 21
122.428
 31
0.0
  0
LINE
  8
0
 62
     250
 10
547.204
 20
122.428
 30
0.0
 11
543.556
 21
121.611
 31
0.0
  0
LINE
  8
0
 62
     250
 10
543.556
 20
121.611
 30
0.0
 11
539.323
 21
120.836
 31
0.0
  0
LINE
  8
0
 62
     250
 10
539.323
 20
120.836
 30
0.0
 11
534.589
 21
120.186
 31
0.0
  0
LINE
  8
0
 62
     250
 10
534.589
 20
120.186
 30
0.0
 11
530.722
 21
119.816
 31
0.0
  0
LINE
  8
0
 62
     250
 10
530.722
 20
119.816
 30
0.0
 11
529.431
 21
119.741
 31
0.0
  0
LINE
  8
0
 62
     250
 10
529.431
 20
119.741
 30
0.0
 11
528.08
 21
119.662
 31
0.0
  0
LINE
  8
0
 62
     250
 10
528.08
 20
119.662
 30
0.0
 11
523.998
 21
119.983
 31
0.0
  0
LINE
  8
0
 62
     250
 10
523.998
 20
119.983
 30
0.0
 11
518.485
 21
121.23
 31
0.0
  0
LINE
  8
0
 62
     250
 10
518.485
 20
121.23
 30
0.0
 11
513.041
 21
123.325
 31
0.0
  0
LINE
  8
0
 62
     250
 10
513.041
 20
123.325
 30
0.0
 11
507.824
 21
126.107
 31
0.0
  0
LINE
  8
0
 62
     250
 10
507.824
 20
126.107
 30
0.0
 11
502.98
 21
129.42
 31
0.0
  0
LINE
  8
0
 62
     250
 10
502.98
 20
129.42
 30
0.0
 11
498.666
 21
133.102
 31
0.0
  0
LINE
  8
0
 62
     250
 10
498.666
 20
133.102
 30
0.0
 11
495.025
 21
136.998
 31
0.0
  0
LINE
  8
0
 62
     250
 10
495.025
 20
136.998
 30
0.0
 11
492.834
 21
139.911
 31
0.0
  0
LINE
  8
0
 62
     250
 10
492.834
 20
139.911
 30
0.0
 11
492.217
 21
140.947
 31
0.0
  0
LINE
  8
0
 62
     250
 10
492.217
 20
140.947
 30
0.0
 11
491.628
 21
141.93
 31
0.0
  0
LINE
  8
0
 62
     250
 10
491.628
 20
141.93
 30
0.0
 11
489.994
 21
144.955
 31
0.0
  0
LINE
  8
0
 62
     250
 10
489.994
 20
144.955
 30
0.0
 11
488.033
 21
149.169
 31
0.0
  0
LINE
  8
0
 62
     250
 10
488.033
 20
149.169
 30
0.0
 11
486.339
 21
153.654
 31
0.0
  0
LINE
  8
0
 62
     250
 10
486.339
 20
153.654
 30
0.0
 11
484.928
 21
158.474
 31
0.0
  0
LINE
  8
0
 62
     250
 10
484.928
 20
158.474
 30
0.0
 11
483.81
 21
163.695
 31
0.0
  0
LINE
  8
0
 62
     250
 10
483.81
 20
163.695
 30
0.0
 11
482.995
 21
169.376
 31
0.0
  0
LINE
  8
0
 62
     250
 10
482.995
 20
169.376
 30
0.0
 11
482.498
 21
175.586
 31
0.0
  0
LINE
  8
0
 62
     250
 10
482.498
 20
175.586
 30
0.0
 11
482.328
 21
180.684
 31
0.0
  0
LINE
  8
0
 62
     250
 10
482.328
 20
180.684
 30
0.0
 11
482.328
 21
182.383
 31
0.0
  0
LINE
  8
0
 62
     250
 10
482.328
 20
182.383
 30
0.0
 11
482.328
 21
184.253
 31
0.0
  0
LINE
  8
0
 62
     250
 10
482.328
 20
184.253
 30
0.0
 11
482.815
 21
189.863
 31
0.0
  0
LINE
  8
0
 62
     250
 10
482.815
 20
189.863
 30
0.0
 11
484.131
 21
197.901
 31
0.0
  0
LINE
  8
0
 62
     250
 10
484.131
 20
197.901
 30
0.0
 11
486.054
 21
206.247
 31
0.0
  0
LINE
  8
0
 62
     250
 10
486.054
 20
206.247
 30
0.0
 11
488.364
 21
214.647
 31
0.0
  0
LINE
  8
0
 62
     250
 10
488.364
 20
214.647
 30
0.0
 11
490.834
 21
222.852
 31
0.0
  0
LINE
  8
0
 62
     250
 10
490.834
 20
222.852
 30
0.0
 11
493.247
 21
230.609
 31
0.0
  0
LINE
  8
0
 62
     250
 10
493.247
 20
230.609
 30
0.0
 11
495.381
 21
237.666
 31
0.0
  0
LINE
  8
0
 62
     250
 10
495.381
 20
237.666
 30
0.0
 11
496.651
 21
242.234
 31
0.0
  0
LINE
  8
0
 62
     250
 10
496.651
 20
242.234
 30
0.0
 11
497.014
 21
243.771
 31
0.0
  0
LINE
  8
0
 62
     250
 10
497.014
 20
243.771
 30
0.0
 11
497.205
 21
244.588
 31
0.0
  0
LINE
  8
0
 62
     250
 10
497.205
 20
244.588
 30
0.0
 11
497.646
 21
247.072
 31
0.0
  0
LINE
  8
0
 62
     250
 10
497.646
 20
247.072
 30
0.0
 11
498.239
 21
251.358
 31
0.0
  0
LINE
  8
0
 62
     250
 10
498.239
 20
251.358
 30
0.0
 11
498.789
 21
256.521
 31
0.0
  0
LINE
  8
0
 62
     250
 10
498.789
 20
256.521
 30
0.0
 11
499.3
 21
262.453
 31
0.0
  0
LINE
  8
0
 62
     250
 10
499.3
 20
262.453
 30
0.0
 11
499.773
 21
269.048
 31
0.0
  0
LINE
  8
0
 62
     250
 10
499.773
 20
269.048
 30
0.0
 11
500.2
 21
276.197
 31
0.0
  0
LINE
  8
0
 62
     250
 10
500.2
 20
276.197
 30
0.0
 11
500.588
 21
283.793
 31
0.0
  0
LINE
  8
0
 62
     250
 10
500.588
 20
283.793
 30
0.0
 11
500.937
 21
291.729
 31
0.0
  0
LINE
  8
0
 62
     250
 10
500.937
 20
291.729
 30
0.0
 11
501.244
 21
299.898
 31
0.0
  0
LINE
  8
0
 62
     250
 10
501.244
 20
299.898
 30
0.0
 11
501.509
 21
308.191
 31
0.0
  0
LINE
  8
0
 62
     250
 10
501.509
 20
308.191
 30
0.0
 11
501.735
 21
316.501
 31
0.0
  0
LINE
  8
0
 62
     250
 10
501.735
 20
316.501
 30
0.0
 11
501.918
 21
324.721
 31
0.0
  0
LINE
  8
0
 62
     250
 10
501.918
 20
324.721
 30
0.0
 11
502.059
 21
332.742
 31
0.0
  0
LINE
  8
0
 62
     250
 10
502.059
 20
332.742
 30
0.0
 11
502.162
 21
340.459
 31
0.0
  0
LINE
  8
0
 62
     250
 10
502.162
 20
340.459
 30
0.0
 11
502.225
 21
347.763
 31
0.0
  0
LINE
  8
0
 62
     250
 10
502.225
 20
347.763
 30
0.0
 11
502.246
 21
352.852
 31
0.0
  0
LINE
  8
0
 62
     250
 10
502.246
 20
352.852
 30
0.0
 11
502.246
 21
354.545
 31
0.0
  0
LINE
  8
0
 62
     250
 10
900.617
 20
139.49
 30
0.0
 11
866.066
 21
139.49
 31
0.0
  0
LINE
  8
0
 62
     250
 10
987.647
 20
354.545
 30
0.0
 11
987.647
 21
355.071
 31
0.0
  0
LINE
  8
0
 62
     250
 10
987.647
 20
355.071
 30
0.0
 11
987.626
 21
356.641
 31
0.0
  0
LINE
  8
0
 62
     250
 10
987.626
 20
356.641
 30
0.0
 11
987.57
 21
359.759
 31
0.0
  0
LINE
  8
0
 62
     250
 10
987.57
 20
359.759
 30
0.0
 11
987.481
 21
363.802
 31
0.0
  0
LINE
  8
0
 62
     250
 10
987.481
 20
363.802
 30
0.0
 11
987.362
 21
368.653
 31
0.0
  0
LINE
  8
0
 62
     250
 10
987.362
 20
368.653
 30
0.0
 11
987.21
 21
374.209
 31
0.0
  0
LINE
  8
0
 62
     250
 10
987.21
 20
374.209
 30
0.0
 11
987.03
 21
380.365
 31
0.0
  0
LINE
  8
0
 62
     250
 10
987.03
 20
380.365
 30
0.0
 11
986.829
 21
387.004
 31
0.0
  0
LINE
  8
0
 62
     250
 10
986.829
 20
387.004
 30
0.0
 11
986.603
 21
394.021
 31
0.0
  0
LINE
  8
0
 62
     250
 10
986.603
 20
394.021
 30
0.0
 11
986.356
 21
401.316
 31
0.0
  0
LINE
  8
0
 62
     250
 10
986.356
 20
401.316
 30
0.0
 11
986.091
 21
408.771
 31
0.0
  0
LINE
  8
0
 62
     250
 10
986.091
 20
408.771
 30
0.0
 11
985.813
 21
416.285
 31
0.0
  0
LINE
  8
0
 62
     250
 10
985.813
 20
416.285
 30
0.0
 11
985.517
 21
423.743
 31
0.0
  0
LINE
  8
0
 62
     250
 10
985.517
 20
423.743
 30
0.0
 11
985.213
 21
431.045
 31
0.0
  0
LINE
  8
0
 62
     250
 10
985.213
 20
431.045
 30
0.0
 11
984.899
 21
438.076
 31
0.0
  0
LINE
  8
0
 62
     250
 10
984.899
 20
438.076
 30
0.0
 11
984.578
 21
444.733
 31
0.0
  0
LINE
  8
0
 62
     250
 10
984.578
 20
444.733
 30
0.0
 11
984.338
 21
449.361
 31
0.0
  0
LINE
  8
0
 62
     250
 10
984.338
 20
449.361
 30
0.0
 11
984.254
 21
450.903
 31
0.0
  0
LINE
  8
0
 62
     250
 10
984.254
 20
450.903
 30
0.0
 11
984.088
 21
453.873
 31
0.0
  0
LINE
  8
0
 62
     250
 10
984.088
 20
453.873
 30
0.0
 11
983.516
 21
462.781
 31
0.0
  0
LINE
  8
0
 62
     250
 10
983.516
 20
462.781
 30
0.0
 11
982.648
 21
474.652
 31
0.0
  0
LINE
  8
0
 62
     250
 10
982.648
 20
474.652
 30
0.0
 11
981.706
 21
486.251
 31
0.0
  0
LINE
  8
0
 62
     250
 10
981.706
 20
486.251
 30
0.0
 11
980.74
 21
497.314
 31
0.0
  0
LINE
  8
0
 62
     250
 10
980.74
 20
497.314
 30
0.0
 11
979.798
 21
507.577
 31
0.0
  0
LINE
  8
0
 62
     250
 10
979.798
 20
507.577
 30
0.0
 11
978.937
 21
516.774
 31
0.0
  0
LINE
  8
0
 62
     250
 10
978.937
 20
516.774
 30
0.0
 11
978.207
 21
524.633
 31
0.0
  0
LINE
  8
0
 62
     250
 10
978.207
 20
524.633
 30
0.0
 11
977.791
 21
529.325
 31
0.0
  0
LINE
  8
0
 62
     250
 10
977.791
 20
529.325
 30
0.0
 11
977.664
 21
530.892
 31
0.0
  0
LINE
  8
0
 62
     250
 10
977.664
 20
530.892
 30
0.0
 11
977.544
 21
532.342
 31
0.0
  0
LINE
  8
0
 62
     250
 10
977.544
 20
532.342
 30
0.0
 11
977.12
 21
536.684
 31
0.0
  0
LINE
  8
0
 62
     250
 10
977.12
 20
536.684
 30
0.0
 11
976.415
 21
543.038
 31
0.0
  0
LINE
  8
0
 62
     250
 10
976.415
 20
543.038
 30
0.0
 11
975.618
 21
549.547
 31
0.0
  0
LINE
  8
0
 62
     250
 10
975.618
 20
549.547
 30
0.0
 11
974.803
 21
555.798
 31
0.0
  0
LINE
  8
0
 62
     250
 10
974.803
 20
555.798
 30
0.0
 11
974.044
 21
561.375
 31
0.0
  0
LINE
  8
0
 62
     250
 10
974.044
 20
561.375
 30
0.0
 11
973.409
 21
565.87
 31
0.0
  0
LINE
  8
0
 62
     250
 10
973.409
 20
565.87
 30
0.0
 11
972.979
 21
568.868
 31
0.0
  0
LINE
  8
0
 62
     250
 10
972.979
 20
568.868
 30
0.0
 11
972.817
 21
569.958
 31
0.0
  0
LINE
  8
0
 62
     250
 10
972.817
 20
569.958
 30
0.0
 11
972.817
 21
569.958
 31
0.0
  0
LINE
  8
0
 62
     250
 10
972.817
 20
569.958
 30
0.0
 11
972.817
 21
569.958
 31
0.0
  0
LINE
  8
0
 62
     250
 10
972.817
 20
569.958
 30
0.0
 11
973.857
 21
570.114
 31
0.0
  0
LINE
  8
0
 62
     250
 10
973.857
 20
570.114
 30
0.0
 11
976.658
 21
570.537
 31
0.0
  0
LINE
  8
0
 62
     250
 10
976.658
 20
570.537
 30
0.0
 11
980.733
 21
571.154
 31
0.0
  0
LINE
  8
0
 62
     250
 10
980.733
 20
571.154
 30
0.0
 11
985.598
 21
571.888
 31
0.0
  0
LINE
  8
0
 62
     250
 10
985.598
 20
571.888
 30
0.0
 11
990.766
 21
572.664
 31
0.0
  0
LINE
  8
0
 62
     250
 10
990.766
 20
572.664
 30
0.0
 11
995.754
 21
573.412
 31
0.0
  0
LINE
  8
0
 62
     250
 10
995.754
 20
573.412
 30
0.0
 11
1000.08
 21
574.054
 31
0.0
  0
LINE
  8
0
 62
     250
 10
1000.08
 20
574.054
 30
0.0
 11
1002.46
 21
574.403
 31
0.0
  0
LINE
  8
0
 62
     250
 10
1002.46
 20
574.403
 30
0.0
 11
1003.25
 21
574.516
 31
0.0
  0
LINE
  8
0
 62
     250
 10
1003.25
 20
574.516
 30
0.0
 11
1003.87
 21
574.604
 31
0.0
  0
LINE
  8
0
 62
     250
 10
1003.87
 20
574.604
 30
0.0
 11
1005.75
 21
574.897
 31
0.0
  0
LINE
  8
0
 62
     250
 10
1005.75
 20
574.897
 30
0.0
 11
1008.3
 21
575.331
 31
0.0
  0
LINE
  8
0
 62
     250
 10
1008.3
 20
575.331
 30
0.0
 11
1010.78
 21
575.779
 31
0.0
  0
LINE
  8
0
 62
     250
 10
1010.78
 20
575.779
 30
0.0
 11
1013.07
 21
576.213
 31
0.0
  0
LINE
  8
0
 62
     250
 10
1013.07
 20
576.213
 30
0.0
 11
1015.06
 21
576.605
 31
0.0
  0
LINE
  8
0
 62
     250
 10
1015.06
 20
576.605
 30
0.0
 11
1016.63
 21
576.922
 31
0.0
  0
LINE
  8
0
 62
     250
 10
1016.63
 20
576.922
 30
0.0
 11
1017.66
 21
577.134
 31
0.0
  0
LINE
  8
0
 62
     250
 10
1017.66
 20
577.134
 30
0.0
 11
1018.03
 21
577.211
 31
0.0
  0
LINE
  8
0
 62
     250
 10
1018.03
 20
577.211
 30
0.0
 11
1018.03
 21
577.211
 31
0.0
  0
LINE
  8
0
 62
     250
 10
1018.03
 20
577.211
 30
0.0
 11
1018.03
 21
577.211
 31
0.0
  0
LINE
  8
0
 62
     250
 10
1018.03
 20
577.211
 30
0.0
 11
1018.56
 21
577.413
 31
0.0
  0
LINE
  8
0
 62
     250
 10
1018.56
 20
577.413
 30
0.0
 11
1020.06
 21
577.97
 31
0.0
  0
LINE
  8
0
 62
     250
 10
1020.06
 20
577.97
 30
0.0
 11
1022.36
 21
578.82
 31
0.0
  0
LINE
  8
0
 62
     250
 10
1022.36
 20
578.82
 30
0.0
 11
1025.3
 21
579.91
 31
0.0
  0
LINE
  8
0
 62
     250
 10
1025.3
 20
579.91
 30
0.0
 11
1028.72
 21
581.173
 31
0.0
  0
LINE
  8
0
 62
     250
 10
1028.72
 20
581.173
 30
0.0
 11
1032.46
 21
582.549
 31
0.0
  0
LINE
  8
0
 62
     250
 10
1032.46
 20
582.549
 30
0.0
 11
1036.37
 21
583.978
 31
0.0
  0
LINE
  8
0
 62
     250
 10
1036.37
 20
583.978
 30
0.0
 11
1039.29
 21
585.043
 31
0.0
  0
LINE
  8
0
 62
     250
 10
1039.29
 20
585.043
 30
0.0
 11
1040.27
 21
585.396
 31
0.0
  0
LINE
  8
0
 62
     250
 10
1040.27
 20
585.396
 30
0.0
 11
1042.26
 21
586.119
 31
0.0
  0
LINE
  8
0
 62
     250
 10
1042.26
 20
586.119
 30
0.0
 11
1048.41
 21
587.809
 31
0.0
  0
LINE
  8
0
 62
     250
 10
1048.41
 20
587.809
 30
0.0
 11
1056.89
 21
589.478
 31
0.0
  0
LINE
  8
0
 62
     250
 10
1056.89
 20
589.478
 30
0.0
 11
1064.94
 21
590.434
 31
0.0
  0
LINE
  8
0
 62
     250
 10
1064.94
 20
590.434
 30
0.0
 11
1070.06
 21
590.719
 31
0.0
  0
LINE
  8
0
 62
     250
 10
1070.06
 20
590.719
 30
0.0
 11
1071.77
 21
590.698
 31
0.0
  0
LINE
  8
0
 62
     250
 10
1071.77
 20
590.698
 30
0.0
 11
1072.54
 21
590.691
 31
0.0
  0
LINE
  8
0
 62
     250
 10
1072.54
 20
590.691
 30
0.0
 11
1074.85
 21
590.585
 31
0.0
  0
LINE
  8
0
 62
     250
 10
1074.85
 20
590.585
 30
0.0
 11
1078.17
 21
590.296
 31
0.0
  0
LINE
  8
0
 62
     250
 10
1078.17
 20
590.296
 30
0.0
 11
1081.76
 21
589.802
 31
0.0
  0
LINE
  8
0
 62
     250
 10
1081.76
 20
589.802
 30
0.0
 11
1085.65
 21
589.072
 31
0.0
  0
LINE
  8
0
 62
     250
 10
1085.65
 20
589.072
 30
0.0
 11
1089.88
 21
588.081
 31
0.0
  0
LINE
  8
0
 62
     250
 10
1089.88
 20
588.081
 30
0.0
 11
1094.47
 21
586.804
 31
0.0
  0
LINE
  8
0
 62
     250
 10
1094.47
 20
586.804
 30
0.0
 11
1099.47
 21
585.202
 31
0.0
  0
LINE
  8
0
 62
     250
 10
1099.47
 20
585.202
 30
0.0
 11
1103.56
 21
583.766
 31
0.0
  0
LINE
  8
0
 62
     250
 10
1103.56
 20
583.766
 30
0.0
 11
1104.91
 21
583.258
 31
0.0
  0
LINE
  8
0
 62
     250
 10
1104.91
 20
583.258
 30
0.0
 11
1106.42
 21
582.694
 31
0.0
  0
LINE
  8
0
 62
     250
 10
1106.42
 20
582.694
 30
0.0
 11
1110.91
 21
580.926
 31
0.0
  0
LINE
  8
0
 62
     250
 10
1110.91
 20
580.926
 30
0.0
 11
1117.35
 21
578.287
 31
0.0
  0
LINE
  8
0
 62
     250
 10
1117.35
 20
578.287
 30
0.0
 11
1123.9
 21
575.497
 31
0.0
  0
LINE
  8
0
 62
     250
 10
1123.9
 20
575.497
 30
0.0
 11
1130.25
 21
572.714
 31
0.0
  0
LINE
  8
0
 62
     250
 10
1130.25
 20
572.714
 30
0.0
 11
1136.08
 21
570.089
 31
0.0
  0
LINE
  8
0
 62
     250
 10
1136.08
 20
570.089
 30
0.0
 11
1141.05
 21
567.785
 31
0.0
  0
LINE
  8
0
 62
     250
 10
1141.05
 20
567.785
 30
0.0
 11
1144.86
 21
565.954
 31
0.0
  0
LINE
  8
0
 62
     250
 10
1144.86
 20
565.954
 30
0.0
 11
1146.6
 21
565.076
 31
0.0
  0
LINE
  8
0
 62
     250
 10
1146.6
 20
565.076
 30
0.0
 11
1147.17
 21
564.748
 31
0.0
  0
LINE
  8
0
 62
     250
 10
1147.17
 20
564.748
 30
0.0
 11
1147.62
 21
564.49
 31
0.0
  0
LINE
  8
0
 62
     250
 10
1147.62
 20
564.49
 30
0.0
 11
1148.97
 21
563.718
 31
0.0
  0
LINE
  8
0
 62
     250
 10
1148.97
 20
563.718
 30
0.0
 11
1151.32
 21
562.384
 31
0.0
  0
LINE
  8
0
 62
     250
 10
1151.32
 20
562.384
 30
0.0
 11
1153.96
 21
560.885
 31
0.0
  0
LINE
  8
0
 62
     250
 10
1153.96
 20
560.885
 30
0.0
 11
1156.66
 21
559.354
 31
0.0
  0
LINE
  8
0
 62
     250
 10
1156.66
 20
559.354
 30
0.0
 11
1159.19
 21
557.929
 31
0.0
  0
LINE
  8
0
 62
     250
 10
1159.19
 20
557.929
 30
0.0
 11
1161.29
 21
556.743
 31
0.0
  0
LINE
  8
0
 62
     250
 10
1161.29
 20
556.743
 30
0.0
 11
1162.72
 21
555.935
 31
0.0
  0
LINE
  8
0
 62
     250
 10
1162.72
 20
555.935
 30
0.0
 11
1163.26
 21
555.632
 31
0.0
  0
LINE
  8
0
 62
     250
 10
1163.26
 20
555.632
 30
0.0
 11
1163.26
 21
555.632
 31
0.0
  0
LINE
  8
0
 62
     250
 10
973.399
 20
563.259
 30
0.0
 11
973.399
 21
563.259
 31
0.0
  0
LINE
  8
0
 62
     250
 10
973.399
 20
563.259
 30
0.0
 11
973.092
 21
563.259
 31
0.0
  0
LINE
  8
0
 62
     250
 10
973.092
 20
563.259
 30
0.0
 11
972.203
 21
563.252
 31
0.0
  0
LINE
  8
0
 62
     250
 10
972.203
 20
563.252
 30
0.0
 11
970.774
 21
563.249
 31
0.0
  0
LINE
  8
0
 62
     250
 10
970.774
 20
563.249
 30
0.0
 11
968.848
 21
563.252
 31
0.0
  0
LINE
  8
0
 62
     250
 10
968.848
 20
563.252
 30
0.0
 11
966.467
 21
563.273
 31
0.0
  0
LINE
  8
0
 62
     250
 10
966.467
 20
563.273
 30
0.0
 11
963.676
 21
563.312
 31
0.0
  0
LINE
  8
0
 62
     250
 10
963.676
 20
563.312
 30
0.0
 11
960.522
 21
563.376
 31
0.0
  0
LINE
  8
0
 62
     250
 10
960.522
 20
563.376
 30
0.0
 11
957.044
 21
563.471
 31
0.0
  0
LINE
  8
0
 62
     250
 10
957.044
 20
563.471
 30
0.0
 11
953.287
 21
563.605
 31
0.0
  0
LINE
  8
0
 62
     250
 10
953.287
 20
563.605
 30
0.0
 11
949.293
 21
563.778
 31
0.0
  0
LINE
  8
0
 62
     250
 10
949.293
 20
563.778
 30
0.0
 11
945.106
 21
564.003
 31
0.0
  0
LINE
  8
0
 62
     250
 10
945.106
 20
564.003
 30
0.0
 11
940.77
 21
564.282
 31
0.0
  0
LINE
  8
0
 62
     250
 10
940.77
 20
564.282
 30
0.0
 11
936.329
 21
564.621
 31
0.0
  0
LINE
  8
0
 62
     250
 10
936.329
 20
564.621
 30
0.0
 11
931.827
 21
565.023
 31
0.0
  0
LINE
  8
0
 62
     250
 10
931.827
 20
565.023
 30
0.0
 11
927.305
 21
565.499
 31
0.0
  0
LINE
  8
0
 62
     250
 10
927.305
 20
565.499
 30
0.0
 11
923.932
 21
565.901
 31
0.0
  0
LINE
  8
0
 62
     250
 10
923.932
 20
565.901
 30
0.0
 11
922.81
 21
566.05
 31
0.0
  0
LINE
  8
0
 62
     250
 10
922.81
 20
566.05
 30
0.0
 11
920.641
 21
566.339
 31
0.0
  0
LINE
  8
0
 62
     250
 10
920.641
 20
566.339
 30
0.0
 11
914.146
 21
567.284
 31
0.0
  0
LINE
  8
0
 62
     250
 10
914.146
 20
567.284
 30
0.0
 11
906.11
 21
568.604
 31
0.0
  0
LINE
  8
0
 62
     250
 10
906.11
 20
568.604
 30
0.0
 11
898.79
 21
569.983
 31
0.0
  0
LINE
  8
0
 62
     250
 10
898.79
 20
569.983
 30
0.0
 11
892.281
 21
571.398
 31
0.0
  0
LINE
  8
0
 62
     250
 10
892.281
 20
571.398
 30
0.0
 11
886.682
 21
572.834
 31
0.0
  0
LINE
  8
0
 62
     250
 10
886.682
 20
572.834
 30
0.0
 11
882.086
 21
574.266
 31
0.0
  0
LINE
  8
0
 62
     250
 10
882.086
 20
574.266
 30
0.0
 11
878.59
 21
575.67
 31
0.0
  0
LINE
  8
0
 62
     250
 10
878.59
 20
575.67
 30
0.0
 11
876.808
 21
576.615
 31
0.0
  0
LINE
  8
0
 62
     250
 10
876.808
 20
576.615
 30
0.0
 11
876.289
 21
577.025
 31
0.0
  0
LINE
  8
0
 62
     250
 10
876.289
 20
577.025
 30
0.0
 11
875.453
 21
577.691
 31
0.0
  0
LINE
  8
0
 62
     250
 10
875.453
 20
577.691
 30
0.0
 11
872.998
 21
579.748
 31
0.0
  0
LINE
  8
0
 62
     250
 10
872.998
 20
579.748
 30
0.0
 11
870.013
 21
582.747
 31
0.0
  0
LINE
  8
0
 62
     250
 10
870.013
 20
582.747
 30
0.0
 11
867.65
 21
586.236
 31
0.0
  0
LINE
  8
0
 62
     250
 10
867.65
 20
586.236
 30
0.0
 11
866.415
 21
589.343
 31
0.0
  0
LINE
  8
0
 62
     250
 10
866.415
 20
589.343
 30
0.0
 11
866.211
 21
590.419
 31
0.0
  0
LINE
  8
0
 62
     250
 10
866.211
 20
590.419
 30
0.0
 11
866.073
 21
591.153
 31
0.0
  0
LINE
  8
0
 62
     250
 10
866.073
 20
591.153
 30
0.0
 11
865.65
 21
593.348
 31
0.0
  0
LINE
  8
0
 62
     250
 10
865.65
 20
593.348
 30
0.0
 11
864.891
 21
597.461
 31
0.0
  0
LINE
  8
0
 62
     250
 10
864.891
 20
597.461
 30
0.0
 11
864.002
 21
602.654
 31
0.0
  0
LINE
  8
0
 62
     250
 10
864.002
 20
602.654
 30
0.0
 11
863.06
 21
608.813
 31
0.0
  0
LINE
  8
0
 62
     250
 10
863.06
 20
608.813
 30
0.0
 11
862.136
 21
615.837
 31
0.0
  0
LINE
  8
0
 62
     250
 10
862.136
 20
615.837
 30
0.0
 11
861.303
 21
623.616
 31
0.0
  0
LINE
  8
0
 62
     250
 10
861.303
 20
623.616
 30
0.0
 11
860.633
 21
632.047
 31
0.0
  0
LINE
  8
0
 62
     250
 10
860.633
 20
632.047
 30
0.0
 11
860.273
 21
638.775
 31
0.0
  0
LINE
  8
0
 62
     250
 10
860.273
 20
638.775
 30
0.0
 11
860.203
 21
641.015
 31
0.0
  0
LINE
  8
0
 62
     250
 10
860.203
 20
641.015
 30
0.0
 11
860.132
 21
643.199
 31
0.0
  0
LINE
  8
0
 62
     250
 10
860.132
 20
643.199
 30
0.0
 11
860.03
 21
649.746
 31
0.0
  0
LINE
  8
0
 62
     250
 10
860.03
 20
649.746
 30
0.0
 11
860.108
 21
657.56
 31
0.0
  0
LINE
  8
0
 62
     250
 10
860.108
 20
657.56
 30
0.0
 11
860.443
 21
664.52
 31
0.0
  0
LINE
  8
0
 62
     250
 10
860.443
 20
664.52
 30
0.0
 11
861.049
 21
670.687
 31
0.0
  0
LINE
  8
0
 62
     250
 10
861.049
 20
670.687
 30
0.0
 11
861.938
 21
676.123
 31
0.0
  0
LINE
  8
0
 62
     250
 10
861.938
 20
676.123
 30
0.0
 11
863.117
 21
680.886
 31
0.0
  0
LINE
  8
0
 62
     250
 10
863.117
 20
680.886
 30
0.0
 11
864.602
 21
685.038
 31
0.0
  0
LINE
  8
0
 62
     250
 10
864.602
 20
685.038
 30
0.0
 11
865.897
 21
687.772
 31
0.0
  0
LINE
  8
0
 62
     250
 10
865.897
 20
687.772
 30
0.0
 11
866.405
 21
688.64
 31
0.0
  0
LINE
  8
0
 62
     250
 10
866.405
 20
688.64
 30
0.0
 11
866.881
 21
689.451
 31
0.0
  0
LINE
  8
0
 62
     250
 10
866.881
 20
689.451
 30
0.0
 11
868.595
 21
691.72
 31
0.0
  0
LINE
  8
0
 62
     250
 10
868.595
 20
691.72
 30
0.0
 11
871.178
 21
694.295
 31
0.0
  0
LINE
  8
0
 62
     250
 10
871.178
 20
694.295
 30
0.0
 11
874.049
 21
696.429
 31
0.0
  0
LINE
  8
0
 62
     250
 10
874.049
 20
696.429
 30
0.0
 11
877.111
 21
698.172
 31
0.0
  0
LINE
  8
0
 62
     250
 10
877.111
 20
698.172
 30
0.0
 11
880.269
 21
699.587
 31
0.0
  0
LINE
  8
0
 62
     250
 10
880.269
 20
699.587
 30
0.0
 11
883.412
 21
700.723
 31
0.0
  0
LINE
  8
0
 62
     250
 10
883.412
 20
700.723
 30
0.0
 11
886.449
 21
701.643
 31
0.0
  0
LINE
  8
0
 62
     250
 10
886.449
 20
701.643
 30
0.0
 11
888.57
 21
702.222
 31
0.0
  0
LINE
  8
0
 62
     250
 10
888.57
 20
702.222
 30
0.0
 11
889.279
 21
702.405
 31
0.0
  0
LINE
  8
0
 62
     250
 10
889.279
 20
702.405
 30
0.0
 11
890.168
 21
702.635
 31
0.0
  0
LINE
  8
0
 62
     250
 10
890.168
 20
702.635
 30
0.0
 11
892.877
 21
703.22
 31
0.0
  0
LINE
  8
0
 62
     250
 10
892.877
 20
703.22
 30
0.0
 11
898.013
 21
704.208
 31
0.0
  0
LINE
  8
0
 62
     250
 10
898.013
 20
704.208
 30
0.0
 11
904.265
 21
705.284
 31
0.0
  0
LINE
  8
0
 62
     250
 10
904.265
 20
705.284
 30
0.0
 11
911.204
 21
706.356
 31
0.0
  0
LINE
  8
0
 62
     250
 10
911.204
 20
706.356
 30
0.0
 11
918.404
 21
707.344
 31
0.0
  0
LINE
  8
0
 62
     250
 10
918.404
 20
707.344
 30
0.0
 11
925.445
 21
708.159
 31
0.0
  0
LINE
  8
0
 62
     250
 10
925.445
 20
708.159
 30
0.0
 11
931.901
 21
708.713
 31
0.0
  0
LINE
  8
0
 62
     250
 10
931.901
 20
708.713
 30
0.0
 11
935.983
 21
708.914
 31
0.0
  0
LINE
  8
0
 62
     250
 10
935.983
 20
708.914
 30
0.0
 11
937.345
 21
708.914
 31
0.0
  0
LINE
  8
0
 62
     250
 10
937.345
 20
708.914
 30
0.0
 11
938.668
 21
708.914
 31
0.0
  0
LINE
  8
0
 62
     250
 10
938.668
 20
708.914
 30
0.0
 11
942.64
 21
708.826
 31
0.0
  0
LINE
  8
0
 62
     250
 10
942.64
 20
708.826
 30
0.0
 11
948.746
 21
708.568
 31
0.0
  0
LINE
  8
0
 62
     250
 10
948.746
 20
708.568
 30
0.0
 11
955.375
 21
708.18
 31
0.0
  0
LINE
  8
0
 62
     250
 10
955.375
 20
708.18
 30
0.0
 11
962.254
 21
707.683
 31
0.0
  0
LINE
  8
0
 62
     250
 10
962.254
 20
707.683
 30
0.0
 11
969.095
 21
707.108
 31
0.0
  0
LINE
  8
0
 62
     250
 10
969.095
 20
707.108
 30
0.0
 11
975.614
 21
706.483
 31
0.0
  0
LINE
  8
0
 62
     250
 10
975.614
 20
706.483
 30
0.0
 11
981.537
 21
705.834
 31
0.0
  0
LINE
  8
0
 62
     250
 10
981.537
 20
705.834
 30
0.0
 11
985.322
 21
705.369
 31
0.0
  0
LINE
  8
0
 62
     250
 10
985.322
 20
705.369
 30
0.0
 11
986.578
 21
705.196
 31
0.0
  0
LINE
  8
0
 62
     250
 10
986.578
 20
705.196
 30
0.0
 11
987.242
 21
705.1
 31
0.0
  0
LINE
  8
0
 62
     250
 10
987.242
 20
705.1
 30
0.0
 11
989.238
 21
704.825
 31
0.0
  0
LINE
  8
0
 62
     250
 10
989.238
 20
704.825
 30
0.0
 11
992.657
 21
704.356
 31
0.0
  0
LINE
  8
0
 62
     250
 10
992.657
 20
704.356
 30
0.0
 11
996.731
 21
703.792
 31
0.0
  0
LINE
  8
0
 62
     250
 10
996.731
 20
703.792
 30
0.0
 11
1001.37
 21
703.146
 31
0.0
  0
LINE
  8
0
 62
     250
 10
1001.37
 20
703.146
 30
0.0
 11
1006.48
 21
702.43
 31
0.0
  0
LINE
  8
0
 62
     250
 10
1006.48
 20
702.43
 30
0.0
 11
1011.96
 21
701.654
 31
0.0
  0
LINE
  8
0
 62
     250
 10
1011.96
 20
701.654
 30
0.0
 11
1017.71
 21
700.828
 31
0.0
  0
LINE
  8
0
 62
     250
 10
1017.71
 20
700.828
 30
0.0
 11
1023.65
 21
699.964
 31
0.0
  0
LINE
  8
0
 62
     250
 10
1023.65
 20
699.964
 30
0.0
 11
1029.67
 21
699.068
 31
0.0
  0
LINE
  8
0
 62
     250
 10
1029.67
 20
699.068
 30
0.0
 11
1035.69
 21
698.158
 31
0.0
  0
LINE
  8
0
 62
     250
 10
1035.69
 20
698.158
 30
0.0
 11
1041.6
 21
697.241
 31
0.0
  0
LINE
  8
0
 62
     250
 10
1041.6
 20
697.241
 30
0.0
 11
1047.31
 21
696.327
 31
0.0
  0
LINE
  8
0
 62
     250
 10
1047.31
 20
696.327
 30
0.0
 11
1052.72
 21
695.427
 31
0.0
  0
LINE
  8
0
 62
     250
 10
1052.72
 20
695.427
 30
0.0
 11
1057.75
 21
694.549
 31
0.0
  0
LINE
  8
0
 62
     250
 10
1057.75
 20
694.549
 30
0.0
 11
1062.28
 21
693.713
 31
0.0
  0
LINE
  8
0
 62
     250
 10
1062.28
 20
693.713
 30
0.0
 11
1065.25
 21
693.127
 31
0.0
  0
LINE
  8
0
 62
     250
 10
1065.25
 20
693.127
 30
0.0
 11
1066.24
 21
692.916
 31
0.0
  0
LINE
  8
0
 62
     250
 10
1066.24
 20
692.916
 30
0.0
 11
1068.12
 21
692.52
 31
0.0
  0
LINE
  8
0
 62
     250
 10
1068.12
 20
692.52
 30
0.0
 11
1073.72
 21
691.279
 31
0.0
  0
LINE
  8
0
 62
     250
 10
1073.72
 20
691.279
 30
0.0
 11
1081.59
 21
689.398
 31
0.0
  0
LINE
  8
0
 62
     250
 10
1081.59
 20
689.398
 30
0.0
 11
1089.77
 21
687.225
 31
0.0
  0
LINE
  8
0
 62
     250
 10
1089.77
 20
687.225
 30
0.0
 11
1098.18
 21
684.71
 31
0.0
  0
LINE
  8
0
 62
     250
 10
1098.18
 20
684.71
 30
0.0
 11
1106.75
 21
681.803
 31
0.0
  0
LINE
  8
0
 62
     250
 10
1106.75
 20
681.803
 30
0.0
 11
1115.41
 21
678.452
 31
0.0
  0
LINE
  8
0
 62
     250
 10
1115.41
 20
678.452
 30
0.0
 11
1124.1
 21
674.61
 31
0.0
  0
LINE
  8
0
 62
     250
 10
1124.1
 20
674.61
 30
0.0
 11
1130.6
 21
671.382
 31
0.0
  0
LINE
  8
0
 62
     250
 10
1130.6
 20
671.382
 30
0.0
 11
1132.73
 21
670.221
 31
0.0
  0
LINE
  8
0
 62
     250
 10
1132.73
 20
670.221
 30
0.0
 11
1134.86
 21
669.057
 31
0.0
  0
LINE
  8
0
 62
     250
 10
1134.86
 20
669.057
 30
0.0
 11
1141.14
 21
665.3
 31
0.0
  0
LINE
  8
0
 62
     250
 10
1141.14
 20
665.3
 30
0.0
 11
1149.2
 21
659.888
 31
0.0
  0
LINE
  8
0
 62
     250
 10
1149.2
 20
659.888
 30
0.0
 11
1156.89
 21
654.015
 31
0.0
  0
LINE
  8
0
 62
     250
 10
1156.89
 20
654.015
 30
0.0
 11
1164.2
 21
647.689
 31
0.0
  0
LINE
  8
0
 62
     250
 10
1164.2
 20
647.689
 30
0.0
 11
1171.1
 21
640.941
 31
0.0
  0
LINE
  8
0
 62
     250
 10
1171.1
 20
640.941
 30
0.0
 11
1177.57
 21
633.783
 31
0.0
  0
LINE
  8
0
 62
     250
 10
1177.57
 20
633.783
 30
0.0
 11
1183.58
 21
626.237
 31
0.0
  0
LINE
  8
0
 62
     250
 10
1183.58
 20
626.237
 30
0.0
 11
1187.81
 21
620.342
 31
0.0
  0
LINE
  8
0
 62
     250
 10
1187.81
 20
620.342
 30
0.0
 11
1189.13
 21
618.324
 31
0.0
  0
LINE
  8
0
 62
     250
 10
1189.13
 20
618.324
 30
0.0
 11
1190.48
 21
616.268
 31
0.0
  0
LINE
  8
0
 62
     250
 10
1190.48
 20
616.268
 30
0.0
 11
1194.09
 21
609.819
 31
0.0
  0
LINE
  8
0
 62
     250
 10
1194.09
 20
609.819
 30
0.0
 11
1198.39
 21
600.572
 31
0.0
  0
LINE
  8
0
 62
     250
 10
1198.39
 20
600.572
 30
0.0
 11
1202.07
 21
590.723
 31
0.0
  0
LINE
  8
0
 62
     250
 10
1202.07
 20
590.723
 30
0.0
 11
1205.17
 21
580.397
 31
0.0
  0
LINE
  8
0
 62
     250
 10
1205.17
 20
580.397
 30
0.0
 11
1207.75
 21
569.736
 31
0.0
  0
LINE
  8
0
 62
     250
 10
1207.75
 20
569.736
 30
0.0
 11
1209.84
 21
558.864
 31
0.0
  0
LINE
  8
0
 62
     250
 10
1209.84
 20
558.864
 30
0.0
 11
1211.51
 21
547.917
 31
0.0
  0
LINE
  8
0
 62
     250
 10
1211.51
 20
547.917
 30
0.0
 11
1212.5
 21
539.757
 31
0.0
  0
LINE
  8
0
 62
     250
 10
1212.5
 20
539.757
 30
0.0
 11
1212.78
 21
537.03
 31
0.0
  0
LINE
  8
0
 62
     250
 10
1212.78
 20
537.03
 30
0.0
 11
1212.85
 21
536.272
 31
0.0
  0
LINE
  8
0
 62
     250
 10
1212.85
 20
536.272
 30
0.0
 11
1213.05
 21
533.986
 31
0.0
  0
LINE
  8
0
 62
     250
 10
1213.05
 20
533.986
 30
0.0
 11
1213.33
 21
530.292
 31
0.0
  0
LINE
  8
0
 62
     250
 10
1213.33
 20
530.292
 30
0.0
 11
1213.61
 21
525.995
 31
0.0
  0
LINE
  8
0
 62
     250
 10
1213.61
 20
525.995
 30
0.0
 11
1213.89
 21
521.141
 31
0.0
  0
LINE
  8
0
 62
     250
 10
1213.89
 20
521.141
 30
0.0
 11
1214.18
 21
515.782
 31
0.0
  0
LINE
  8
0
 62
     250
 10
1214.18
 20
515.782
 30
0.0
 11
1214.47
 21
509.961
 31
0.0
  0
LINE
  8
0
 62
     250
 10
1214.47
 20
509.961
 30
0.0
 11
1214.75
 21
503.731
 31
0.0
  0
LINE
  8
0
 62
     250
 10
1214.75
 20
503.731
 30
0.0
 11
1215.03
 21
497.138
 31
0.0
  0
LINE
  8
0
 62
     250
 10
1215.03
 20
497.138
 30
0.0
 11
1215.32
 21
490.231
 31
0.0
  0
LINE
  8
0
 62
     250
 10
1215.32
 20
490.231
 30
0.0
 11
1215.59
 21
483.055
 31
0.0
  0
LINE
  8
0
 62
     250
 10
1215.59
 20
483.055
 30
0.0
 11
1215.87
 21
475.661
 31
0.0
  0
LINE
  8
0
 62
     250
 10
1215.87
 20
475.661
 30
0.0
 11
1216.14
 21
468.094
 31
0.0
  0
LINE
  8
0
 62
     250
 10
1216.14
 20
468.094
 30
0.0
 11
1216.41
 21
460.403
 31
0.0
  0
LINE
  8
0
 62
     250
 10
1216.41
 20
460.403
 30
0.0
 11
1216.67
 21
452.635
 31
0.0
  0
LINE
  8
0
 62
     250
 10
1216.67
 20
452.635
 30
0.0
 11
1216.92
 21
444.842
 31
0.0
  0
LINE
  8
0
 62
     250
 10
1216.92
 20
444.842
 30
0.0
 11
1217.16
 21
437.07
 31
0.0
  0
LINE
  8
0
 62
     250
 10
1217.16
 20
437.07
 30
0.0
 11
1217.4
 21
429.362
 31
0.0
  0
LINE
  8
0
 62
     250
 10
1217.4
 20
429.362
 30
0.0
 11
1217.63
 21
421.774
 31
0.0
  0
LINE
  8
0
 62
     250
 10
1217.63
 20
421.774
 30
0.0
 11
1217.85
 21
414.348
 31
0.0
  0
LINE
  8
0
 62
     250
 10
1217.85
 20
414.348
 30
0.0
 11
1218.05
 21
407.137
 31
0.0
  0
LINE
  8
0
 62
     250
 10
1218.05
 20
407.137
 30
0.0
 11
1218.24
 21
400.184
 31
0.0
  0
LINE
  8
0
 62
     250
 10
1218.24
 20
400.184
 30
0.0
 11
1218.42
 21
393.538
 31
0.0
  0
LINE
  8
0
 62
     250
 10
1218.42
 20
393.538
 30
0.0
 11
1218.59
 21
387.244
 31
0.0
  0
LINE
  8
0
 62
     250
 10
1218.59
 20
387.244
 30
0.0
 11
1218.75
 21
381.36
 31
0.0
  0
LINE
  8
0
 62
     250
 10
1218.75
 20
381.36
 30
0.0
 11
1218.89
 21
375.924
 31
0.0
  0
LINE
  8
0
 62
     250
 10
1218.89
 20
375.924
 30
0.0
 11
1219.01
 21
370.988
 31
0.0
  0
LINE
  8
0
 62
     250
 10
1219.01
 20
370.988
 30
0.0
 11
1219.12
 21
366.6
 31
0.0
  0
LINE
  8
0
 62
     250
 10
1219.12
 20
366.6
 30
0.0
 11
1219.21
 21
362.807
 31
0.0
  0
LINE
  8
0
 62
     250
 10
1219.21
 20
362.807
 30
0.0
 11
1219.27
 21
359.657
 31
0.0
  0
LINE
  8
0
 62
     250
 10
1219.27
 20
359.657
 30
0.0
 11
1219.33
 21
357.198
 31
0.0
  0
LINE
  8
0
 62
     250
 10
1219.33
 20
357.198
 30
0.0
 11
1219.36
 21
355.48
 31
0.0
  0
LINE
  8
0
 62
     250
 10
1219.36
 20
355.48
 30
0.0
 11
1219.37
 21
354.782
 31
0.0
  0
LINE
  8
0
 62
     250
 10
1219.37
 20
354.782
 30
0.0
 11
1219.37
 21
354.545
 31
0.0
  0
LINE
  8
0
 62
     250
 10
868.44
 20
585.096
 30
0.0
 11
868.44
 21
585.096
 31
0.0
  0
LINE
  8
0
 62
     250
 10
868.44
 20
585.096
 30
0.0
 11
868.472
 21
585.297
 31
0.0
  0
LINE
  8
0
 62
     250
 10
868.472
 20
585.297
 30
0.0
 11
868.595
 21
585.858
 31
0.0
  0
LINE
  8
0
 62
     250
 10
868.595
 20
585.858
 30
0.0
 11
868.842
 21
586.698
 31
0.0
  0
LINE
  8
0
 62
     250
 10
868.842
 20
586.698
 30
0.0
 11
869.248
 21
587.745
 31
0.0
  0
LINE
  8
0
 62
     250
 10
869.248
 20
587.745
 30
0.0
 11
869.848
 21
588.924
 31
0.0
  0
LINE
  8
0
 62
     250
 10
869.848
 20
588.924
 30
0.0
 11
870.677
 21
590.158
 31
0.0
  0
LINE
  8
0
 62
     250
 10
870.677
 20
590.158
 30
0.0
 11
871.77
 21
591.372
 31
0.0
  0
LINE
  8
0
 62
     250
 10
871.77
 20
591.372
 30
0.0
 11
872.797
 21
592.24
 31
0.0
  0
LINE
  8
0
 62
     250
 10
872.797
 20
592.24
 30
0.0
 11
873.164
 21
592.49
 31
0.0
  0
LINE
  8
0
 62
     250
 10
873.164
 20
592.49
 30
0.0
 11
873.675
 21
592.832
 31
0.0
  0
LINE
  8
0
 62
     250
 10
873.675
 20
592.832
 30
0.0
 11
875.372
 21
593.633
 31
0.0
  0
LINE
  8
0
 62
     250
 10
875.372
 20
593.633
 30
0.0
 11
878.812
 21
594.924
 31
0.0
  0
LINE
  8
0
 62
     250
 10
878.812
 20
594.924
 30
0.0
 11
883.38
 21
596.297
 31
0.0
  0
LINE
  8
0
 62
     250
 10
883.38
 20
596.297
 30
0.0
 11
888.965
 21
597.687
 31
0.0
  0
LINE
  8
0
 62
     250
 10
888.965
 20
597.687
 30
0.0
 11
895.459
 21
599.024
 31
0.0
  0
LINE
  8
0
 62
     250
 10
895.459
 20
599.024
 30
0.0
 11
902.755
 21
600.237
 31
0.0
  0
LINE
  8
0
 62
     250
 10
902.755
 20
600.237
 30
0.0
 11
910.745
 21
601.271
 31
0.0
  0
LINE
  8
0
 62
     250
 10
910.745
 20
601.271
 30
0.0
 11
917.173
 21
601.895
 31
0.0
  0
LINE
  8
0
 62
     250
 10
917.173
 20
601.895
 30
0.0
 11
919.321
 21
602.047
 31
0.0
  0
LINE
  8
0
 62
     250
 10
919.321
 20
602.047
 30
0.0
 11
921.473
 21
602.199
 31
0.0
  0
LINE
  8
0
 62
     250
 10
921.473
 20
602.199
 30
0.0
 11
927.947
 21
602.65
 31
0.0
  0
LINE
  8
0
 62
     250
 10
927.947
 20
602.65
 30
0.0
 11
936.191
 21
603.148
 31
0.0
  0
LINE
  8
0
 62
     250
 10
936.191
 20
603.148
 30
0.0
 11
944.09
 21
603.472
 31
0.0
  0
LINE
  8
0
 62
     250
 10
944.09
 20
603.472
 30
0.0
 11
951.682
 21
603.546
 31
0.0
  0
LINE
  8
0
 62
     250
 10
951.682
 20
603.546
 30
0.0
 11
959.012
 21
603.292
 31
0.0
  0
LINE
  8
0
 62
     250
 10
959.012
 20
603.292
 30
0.0
 11
966.114
 21
602.633
 31
0.0
  0
LINE
  8
0
 62
     250
 10
966.114
 20
602.633
 30
0.0
 11
973.028
 21
601.5
 31
0.0
  0
LINE
  8
0
 62
     250
 10
973.028
 20
601.5
 30
0.0
 11
978.126
 21
600.308
 31
0.0
  0
LINE
  8
0
 62
     250
 10
978.126
 20
600.308
 30
0.0
 11
979.794
 21
599.814
 31
0.0
  0
LINE
  8
0
 62
     250
 10
979.794
 20
599.814
 30
0.0
 11
980.648
 21
599.56
 31
0.0
  0
LINE
  8
0
 62
     250
 10
980.648
 20
599.56
 30
0.0
 11
983.17
 21
598.685
 31
0.0
  0
LINE
  8
0
 62
     250
 10
983.17
 20
598.685
 30
0.0
 11
986.571
 21
597.32
 31
0.0
  0
LINE
  8
0
 62
     250
 10
986.571
 20
597.32
 30
0.0
 11
989.961
 21
595.761
 31
0.0
  0
LINE
  8
0
 62
     250
 10
989.961
 20
595.761
 30
0.0
 11
993.313
 21
594.046
 31
0.0
  0
LINE
  8
0
 62
     250
 10
993.313
 20
594.046
 30
0.0
 11
996.583
 21
592.222
 31
0.0
  0
LINE
  8
0
 62
     250
 10
996.583
 20
592.222
 30
0.0
 11
999.751
 21
590.335
 31
0.0
  0
LINE
  8
0
 62
     250
 10
999.751
 20
590.335
 30
0.0
 11
1002.77
 21
588.419
 31
0.0
  0
LINE
  8
0
 62
     250
 10
1002.77
 20
588.419
 30
0.0
 11
1005.62
 21
586.525
 31
0.0
  0
LINE
  8
0
 62
     250
 10
1005.62
 20
586.525
 30
0.0
 11
1008.25
 21
584.694
 31
0.0
  0
LINE
  8
0
 62
     250
 10
1008.25
 20
584.694
 30
0.0
 11
1010.64
 21
582.965
 31
0.0
  0
LINE
  8
0
 62
     250
 10
1010.64
 20
582.965
 30
0.0
 11
1012.76
 21
581.388
 31
0.0
  0
LINE
  8
0
 62
     250
 10
1012.76
 20
581.388
 30
0.0
 11
1014.57
 21
579.998
 31
0.0
  0
LINE
  8
0
 62
     250
 10
1014.57
 20
579.998
 30
0.0
 11
1016.03
 21
578.845
 31
0.0
  0
LINE
  8
0
 62
     250
 10
1016.03
 20
578.845
 30
0.0
 11
1017.12
 21
577.966
 31
0.0
  0
LINE
  8
0
 62
     250
 10
1017.12
 20
577.966
 30
0.0
 11
1017.8
 21
577.409
 31
0.0
  0
LINE
  8
0
 62
     250
 10
1017.8
 20
577.409
 30
0.0
 11
1018.03
 21
577.211
 31
0.0
  0
LINE
  8
0
 62
     250
 10
1018.03
 20
577.211
 30
0.0
 11
1018.03
 21
577.211
 31
0.0
  0
LINE
  8
0
 62
     250
 10
1018.03
 20
577.211
 30
0.0
 11
1018.03
 21
577.211
 31
0.0
  0
LINE
  8
0
 62
     250
 10
1018.03
 20
577.211
 30
0.0
 11
1018.18
 21
576.301
 31
0.0
  0
LINE
  8
0
 62
     250
 10
1018.18
 20
576.301
 30
0.0
 11
1018.63
 21
574.107
 31
0.0
  0
LINE
  8
0
 62
     250
 10
1018.63
 20
574.107
 30
0.0
 11
1019.32
 21
571.444
 31
0.0
  0
LINE
  8
0
 62
     250
 10
1019.32
 20
571.444
 30
0.0
 11
1019.92
 21
569.669
 31
0.0
  0
LINE
  8
0
 62
     250
 10
1019.92
 20
569.669
 30
0.0
 11
1020.21
 21
569.119
 31
0.0
  0
LINE
  8
0
 62
     250
 10
1020.21
 20
569.119
 30
0.0
 11
1020.4
 21
568.759
 31
0.0
  0
LINE
  8
0
 62
     250
 10
1020.4
 20
568.759
 30
0.0
 11
1020.92
 21
567.648
 31
0.0
  0
LINE
  8
0
 62
     250
 10
1020.92
 20
567.648
 30
0.0
 11
1022.04
 21
565.175
 31
0.0
  0
LINE
  8
0
 62
     250
 10
1022.04
 20
565.175
 30
0.0
 11
1023.51
 21
561.806
 31
0.0
  0
LINE
  8
0
 62
     250
 10
1023.51
 20
561.806
 30
0.0
 11
1025.28
 21
557.646
 31
0.0
  0
LINE
  8
0
 62
     250
 10
1025.28
 20
557.646
 30
0.0
 11
1027.28
 21
552.789
 31
0.0
  0
LINE
  8
0
 62
     250
 10
1027.28
 20
552.789
 30
0.0
 11
1029.47
 21
547.342
 31
0.0
  0
LINE
  8
0
 62
     250
 10
1029.47
 20
547.342
 30
0.0
 11
1031.78
 21
541.408
 31
0.0
  0
LINE
  8
0
 62
     250
 10
1031.78
 20
541.408
 30
0.0
 11
1033.58
 21
536.663
 31
0.0
  0
LINE
  8
0
 62
     250
 10
1033.58
 20
536.663
 30
0.0
 11
1034.16
 21
535.079
 31
0.0
  0
LINE
  8
0
 62
     250
 10
1034.16
 20
535.079
 30
0.0
 11
1034.81
 21
533.319
 31
0.0
  0
LINE
  8
0
 62
     250
 10
1034.81
 20
533.319
 30
0.0
 11
1036.57
 21
527.964
 31
0.0
  0
LINE
  8
0
 62
     250
 10
1036.57
 20
527.964
 30
0.0
 11
1038.97
 21
519.772
 31
0.0
  0
LINE
  8
0
 62
     250
 10
1038.97
 20
519.772
 30
0.0
 11
1041.3
 21
510.776
 31
0.0
  0
LINE
  8
0
 62
     250
 10
1041.3
 20
510.776
 30
0.0
 11
1043.52
 21
501.248
 31
0.0
  0
LINE
  8
0
 62
     250
 10
1043.52
 20
501.248
 30
0.0
 11
1045.57
 21
491.455
 31
0.0
  0
LINE
  8
0
 62
     250
 10
1045.57
 20
491.455
 30
0.0
 11
1047.39
 21
481.676
 31
0.0
  0
LINE
  8
0
 62
     250
 10
1047.39
 20
481.676
 30
0.0
 11
1048.94
 21
472.175
 31
0.0
  0
LINE
  8
0
 62
     250
 10
1048.94
 20
472.175
 30
0.0
 11
1049.88
 21
465.469
 31
0.0
  0
LINE
  8
0
 62
     250
 10
1049.88
 20
465.469
 30
0.0
 11
1050.16
 21
463.229
 31
0.0
  0
LINE
  8
0
 62
     250
 10
1050.16
 20
463.229
 30
0.0
 11
1050.3
 21
462.022
 31
0.0
  0
LINE
  8
0
 62
     250
 10
1050.3
 20
462.022
 30
0.0
 11
1050.67
 21
458.399
 31
0.0
  0
LINE
  8
0
 62
     250
 10
1050.67
 20
458.399
 30
0.0
 11
1051.19
 21
452.596
 31
0.0
  0
LINE
  8
0
 62
     250
 10
1051.19
 20
452.596
 30
0.0
 11
1051.7
 21
445.968
 31
0.0
  0
LINE
  8
0
 62
     250
 10
1051.7
 20
445.968
 30
0.0
 11
1052.21
 21
438.672
 31
0.0
  0
LINE
  8
0
 62
     250
 10
1052.21
 20
438.672
 30
0.0
 11
1052.7
 21
430.862
 31
0.0
  0
LINE
  8
0
 62
     250
 10
1052.7
 20
430.862
 30
0.0
 11
1053.16
 21
422.684
 31
0.0
  0
LINE
  8
0
 62
     250
 10
1053.16
 20
422.684
 30
0.0
 11
1053.61
 21
414.299
 31
0.0
  0
LINE
  8
0
 62
     250
 10
1053.61
 20
414.299
 30
0.0
 11
1054.03
 21
405.853
 31
0.0
  0
LINE
  8
0
 62
     250
 10
1054.03
 20
405.853
 30
0.0
 11
1054.41
 21
397.503
 31
0.0
  0
LINE
  8
0
 62
     250
 10
1054.41
 20
397.503
 30
0.0
 11
1054.76
 21
389.4
 31
0.0
  0
LINE
  8
0
 62
     250
 10
1054.76
 20
389.4
 30
0.0
 11
1055.07
 21
381.698
 31
0.0
  0
LINE
  8
0
 62
     250
 10
1055.07
 20
381.698
 30
0.0
 11
1055.33
 21
374.548
 31
0.0
  0
LINE
  8
0
 62
     250
 10
1055.33
 20
374.548
 30
0.0
 11
1055.54
 21
368.106
 31
0.0
  0
LINE
  8
0
 62
     250
 10
1055.54
 20
368.106
 30
0.0
 11
1055.69
 21
362.525
 31
0.0
  0
LINE
  8
0
 62
     250
 10
1055.69
 20
362.525
 30
0.0
 11
1055.79
 21
357.953
 31
0.0
  0
LINE
  8
0
 62
     250
 10
1055.79
 20
357.953
 30
0.0
 11
1055.83
 21
355.399
 31
0.0
  0
LINE
  8
0
 62
     250
 10
1055.83
 20
355.399
 30
0.0
 11
1055.83
 21
354.545
 31
0.0
  0
LINE
  8
0
 62
     250
 10
884.043
 20
700.917
 30
0.0
 11
884.043
 21
700.917
 31
0.0
  0
LINE
  8
0
 62
     250
 10
884.043
 20
700.917
 30
0.0
 11
884.372
 21
700.945
 31
0.0
  0
LINE
  8
0
 62
     250
 10
884.372
 20
700.945
 30
0.0
 11
885.321
 21
701.022
 31
0.0
  0
LINE
  8
0
 62
     250
 10
885.321
 20
701.022
 30
0.0
 11
886.834
 21
701.146
 31
0.0
  0
LINE
  8
0
 62
     250
 10
886.834
 20
701.146
 30
0.0
 11
888.859
 21
701.305
 31
0.0
  0
LINE
  8
0
 62
     250
 10
888.859
 20
701.305
 30
0.0
 11
891.339
 21
701.492
 31
0.0
  0
LINE
  8
0
 62
     250
 10
891.339
 20
701.492
 30
0.0
 11
894.221
 21
701.696
 31
0.0
  0
LINE
  8
0
 62
     250
 10
894.221
 20
701.696
 30
0.0
 11
897.453
 21
701.915
 31
0.0
  0
LINE
  8
0
 62
     250
 10
897.453
 20
701.915
 30
0.0
 11
900.977
 21
702.137
 31
0.0
  0
LINE
  8
0
 62
     250
 10
900.977
 20
702.137
 30
0.0
 11
904.741
 21
702.356
 31
0.0
  0
LINE
  8
0
 62
     250
 10
904.741
 20
702.356
 30
0.0
 11
908.685
 21
702.564
 31
0.0
  0
LINE
  8
0
 62
     250
 10
908.685
 20
702.564
 30
0.0
 11
912.763
 21
702.755
 31
0.0
  0
LINE
  8
0
 62
     250
 10
912.763
 20
702.755
 30
0.0
 11
916.915
 21
702.917
 31
0.0
  0
LINE
  8
0
 62
     250
 10
916.915
 20
702.917
 30
0.0
 11
921.085
 21
703.047
 31
0.0
  0
LINE
  8
0
 62
     250
 10
921.085
 20
703.047
 30
0.0
 11
925.223
 21
703.132
 31
0.0
  0
LINE
  8
0
 62
     250
 10
925.223
 20
703.132
 30
0.0
 11
929.273
 21
703.171
 31
0.0
  0
LINE
  8
0
 62
     250
 10
929.273
 20
703.171
 30
0.0
 11
932.201
 21
703.16
 31
0.0
  0
LINE
  8
0
 62
     250
 10
932.201
 20
703.16
 30
0.0
 11
933.178
 21
703.15
 31
0.0
  0
LINE
  8
0
 62
     250
 10
933.178
 20
703.15
 30
0.0
 11
935.122
 21
703.121
 31
0.0
  0
LINE
  8
0
 62
     250
 10
935.122
 20
703.121
 30
0.0
 11
940.954
 21
702.941
 31
0.0
  0
LINE
  8
0
 62
     250
 10
940.954
 20
702.941
 30
0.0
 11
948.948
 21
702.557
 31
0.0
  0
LINE
  8
0
 62
     250
 10
948.948
 20
702.557
 30
0.0
 11
957.051
 21
702.035
 31
0.0
  0
LINE
  8
0
 62
     250
 10
957.051
 20
702.035
 30
0.0
 11
965.147
 21
701.417
 31
0.0
  0
LINE
  8
0
 62
     250
 10
965.147
 20
701.417
 30
0.0
 11
973.13
 21
700.74
 31
0.0
  0
LINE
  8
0
 62
     250
 10
973.13
 20
700.74
 30
0.0
 11
980.892
 21
700.049
 31
0.0
  0
LINE
  8
0
 62
     250
 10
980.892
 20
700.049
 30
0.0
 11
988.321
 21
699.382
 31
0.0
  0
LINE
  8
0
 62
     250
 10
988.321
 20
699.382
 30
0.0
 11
993.556
 21
698.923
 31
0.0
  0
LINE
  8
0
 62
     250
 10
993.556
 20
698.923
 30
0.0
 11
995.303
 21
698.775
 31
0.0
  0
LINE
  8
0
 62
     250
 10
995.303
 20
698.775
 30
0.0
 11
997.084
 21
698.627
 31
0.0
  0
LINE
  8
0
 62
     250
 10
997.084
 20
698.627
 30
0.0
 11
1002.43
 21
698.165
 31
0.0
  0
LINE
  8
0
 62
     250
 10
1002.43
 20
698.165
 30
0.0
 11
1010.21
 21
697.442
 31
0.0
  0
LINE
  8
0
 62
     250
 10
1010.21
 20
697.442
 30
0.0
 11
1018.4
 21
696.599
 31
0.0
  0
LINE
  8
0
 62
     250
 10
1018.4
 20
696.599
 30
0.0
 11
1026.74
 21
695.628
 31
0.0
  0
LINE
  8
0
 62
     250
 10
1026.74
 20
695.628
 30
0.0
 11
1034.98
 21
694.521
 31
0.0
  0
LINE
  8
0
 62
     250
 10
1034.98
 20
694.521
 30
0.0
 11
1042.88
 21
693.272
 31
0.0
  0
LINE
  8
0
 62
     250
 10
1042.88
 20
693.272
 30
0.0
 11
1050.18
 21
691.871
 31
0.0
  0
LINE
  8
0
 62
     250
 10
1050.18
 20
691.871
 30
0.0
 11
1055.05
 21
690.753
 31
0.0
  0
LINE
  8
0
 62
     250
 10
1055.05
 20
690.753
 30
0.0
 11
1056.65
 21
690.312
 31
0.0
  0
LINE
  8
0
 62
     250
 10
1056.65
 20
690.312
 30
0.0
 11
1058.37
 21
689.843
 31
0.0
  0
LINE
  8
0
 62
     250
 10
1058.37
 20
689.843
 30
0.0
 11
1063.49
 21
688.305
 31
0.0
  0
LINE
  8
0
 62
     250
 10
1063.49
 20
688.305
 30
0.0
 11
1071.78
 21
685.602
 31
0.0
  0
LINE
  8
0
 62
     250
 10
1071.78
 20
685.602
 30
0.0
 11
1081.05
 21
682.272
 31
0.0
  0
LINE
  8
0
 62
     250
 10
1081.05
 20
682.272
 30
0.0
 11
1090.82
 21
678.374
 31
0.0
  0
LINE
  8
0
 62
     250
 10
1090.82
 20
678.374
 30
0.0
 11
1100.64
 21
673.975
 31
0.0
  0
LINE
  8
0
 62
     250
 10
1100.64
 20
673.975
 30
0.0
 11
1110.03
 21
669.138
 31
0.0
  0
LINE
  8
0
 62
     250
 10
1110.03
 20
669.138
 30
0.0
 11
1118.52
 21
663.928
 31
0.0
  0
LINE
  8
0
 62
     250
 10
1118.52
 20
663.928
 30
0.0
 11
1123.98
 21
659.913
 31
0.0
  0
LINE
  8
0
 62
     250
 10
1123.98
 20
659.913
 30
0.0
 11
1125.65
 21
658.41
 31
0.0
  0
LINE
  8
0
 62
     250
 10
1125.65
 20
658.41
 30
0.0
 11
1127.21
 21
657.006
 31
0.0
  0
LINE
  8
0
 62
     250
 10
1127.21
 20
657.006
 30
0.0
 11
1131.63
 21
652.494
 31
0.0
  0
LINE
  8
0
 62
     250
 10
1131.63
 20
652.494
 30
0.0
 11
1136.99
 21
646.13
 31
0.0
  0
LINE
  8
0
 62
     250
 10
1136.99
 20
646.13
 30
0.0
 11
1141.74
 21
639.456
 31
0.0
  0
LINE
  8
0
 62
     250
 10
1141.74
 20
639.456
 30
0.0
 11
1145.88
 21
632.587
 31
0.0
  0
LINE
  8
0
 62
     250
 10
1145.88
 20
632.587
 30
0.0
 11
1149.41
 21
625.666
 31
0.0
  0
LINE
  8
0
 62
     250
 10
1149.41
 20
625.666
 30
0.0
 11
1152.33
 21
618.818
 31
0.0
  0
LINE
  8
0
 62
     250
 10
1152.33
 20
618.818
 30
0.0
 11
1154.66
 21
612.172
 31
0.0
  0
LINE
  8
0
 62
     250
 10
1154.66
 20
612.172
 30
0.0
 11
1156
 21
607.452
 31
0.0
  0
LINE
  8
0
 62
     250
 10
1156
 20
607.452
 30
0.0
 11
1156.37
 21
605.857
 31
0.0
  0
LINE
  8
0
 62
     250
 10
1156.37
 20
605.857
 30
0.0
 11
1156.79
 21
604.075
 31
0.0
  0
LINE
  8
0
 62
     250
 10
1156.79
 20
604.075
 30
0.0
 11
1157.81
 21
598.678
 31
0.0
  0
LINE
  8
0
 62
     250
 10
1157.81
 20
598.678
 30
0.0
 11
1159.26
 21
589.647
 31
0.0
  0
LINE
  8
0
 62
     250
 10
1159.26
 20
589.647
 30
0.0
 11
1160.7
 21
579.212
 31
0.0
  0
LINE
  8
0
 62
     250
 10
1160.7
 20
579.212
 30
0.0
 11
1162.1
 21
567.821
 31
0.0
  0
LINE
  8
0
 62
     250
 10
1162.1
 20
567.821
 30
0.0
 11
1163.44
 21
555.921
 31
0.0
  0
LINE
  8
0
 62
     250
 10
1163.44
 20
555.921
 30
0.0
 11
1164.67
 21
543.969
 31
0.0
  0
LINE
  8
0
 62
     250
 10
1164.67
 20
543.969
 30
0.0
 11
1165.79
 21
532.405
 31
0.0
  0
LINE
  8
0
 62
     250
 10
1165.79
 20
532.405
 30
0.0
 11
1166.52
 21
524.365
 31
0.0
  0
LINE
  8
0
 62
     250
 10
1166.52
 20
524.365
 30
0.0
 11
1166.75
 21
521.684
 31
0.0
  0
LINE
  8
0
 62
     250
 10
1166.75
 20
521.684
 30
0.0
 11
1166.87
 21
520.199
 31
0.0
  0
LINE
  8
0
 62
     250
 10
1166.87
 20
520.199
 30
0.0
 11
1167.18
 21
515.733
 31
0.0
  0
LINE
  8
0
 62
     250
 10
1167.18
 20
515.733
 30
0.0
 11
1167.62
 21
508.162
 31
0.0
  0
LINE
  8
0
 62
     250
 10
1167.62
 20
508.162
 30
0.0
 11
1168.06
 21
499.198
 31
0.0
  0
LINE
  8
0
 62
     250
 10
1168.06
 20
499.198
 30
0.0
 11
1168.5
 21
489.056
 31
0.0
  0
LINE
  8
0
 62
     250
 10
1168.5
 20
489.056
 30
0.0
 11
1168.92
 21
477.95
 31
0.0
  0
LINE
  8
0
 62
     250
 10
1168.92
 20
477.95
 30
0.0
 11
1169.33
 21
466.104
 31
0.0
  0
LINE
  8
0
 62
     250
 10
1169.33
 20
466.104
 30
0.0
 11
1169.72
 21
453.729
 31
0.0
  0
LINE
  8
0
 62
     250
 10
1169.72
 20
453.729
 30
0.0
 11
1170.09
 21
441.046
 31
0.0
  0
LINE
  8
0
 62
     250
 10
1170.09
 20
441.046
 30
0.0
 11
1170.43
 21
428.272
 31
0.0
  0
LINE
  8
0
 62
     250
 10
1170.43
 20
428.272
 30
0.0
 11
1170.74
 21
415.622
 31
0.0
  0
LINE
  8
0
 62
     250
 10
1170.74
 20
415.622
 30
0.0
 11
1171.01
 21
403.313
 31
0.0
  0
LINE
  8
0
 62
     250
 10
1171.01
 20
403.313
 30
0.0
 11
1171.24
 21
391.569
 31
0.0
  0
LINE
  8
0
 62
     250
 10
1171.24
 20
391.569
 30
0.0
 11
1171.43
 21
380.605
 31
0.0
  0
LINE
  8
0
 62
     250
 10
1171.43
 20
380.605
 30
0.0
 11
1171.57
 21
370.632
 31
0.0
  0
LINE
  8
0
 62
     250
 10
1171.57
 20
370.632
 30
0.0
 11
1171.66
 21
361.876
 31
0.0
  0
LINE
  8
0
 62
     250
 10
1171.66
 20
361.876
 30
0.0
 11
1171.69
 21
356.38
 31
0.0
  0
LINE
  8
0
 62
     250
 10
1171.69
 20
356.38
 30
0.0
 11
1171.69
 21
354.545
 31
0.0
  0
LINE
  8
0
 62
     250
 10
533.209
 20
354.545
 30
0.0
 11
533.209
 21
355.942
 31
0.0
  0
LINE
  8
0
 62
     250
 10
533.209
 20
355.942
 30
0.0
 11
533.234
 21
360.126
 31
0.0
  0
LINE
  8
0
 62
     250
 10
533.234
 20
360.126
 30
0.0
 11
533.305
 21
366.921
 31
0.0
  0
LINE
  8
0
 62
     250
 10
533.305
 20
366.921
 30
0.0
 11
533.421
 21
374.763
 31
0.0
  0
LINE
  8
0
 62
     250
 10
533.421
 20
374.763
 30
0.0
 11
533.583
 21
383.48
 31
0.0
  0
LINE
  8
0
 62
     250
 10
533.583
 20
383.48
 30
0.0
 11
533.781
 21
392.91
 31
0.0
  0
LINE
  8
0
 62
     250
 10
533.781
 20
392.91
 30
0.0
 11
534.017
 21
402.879
 31
0.0
  0
LINE
  8
0
 62
     250
 10
534.017
 20
402.879
 30
0.0
 11
534.289
 21
413.223
 31
0.0
  0
LINE
  8
0
 62
     250
 10
534.289
 20
413.223
 30
0.0
 11
534.592
 21
423.767
 31
0.0
  0
LINE
  8
0
 62
     250
 10
534.592
 20
423.767
 30
0.0
 11
534.924
 21
434.354
 31
0.0
  0
LINE
  8
0
 62
     250
 10
534.924
 20
434.354
 30
0.0
 11
535.284
 21
444.807
 31
0.0
  0
LINE
  8
0
 62
     250
 10
535.284
 20
444.807
 30
0.0
 11
535.665
 21
454.963
 31
0.0
  0
LINE
  8
0
 62
     250
 10
535.665
 20
454.963
 30
0.0
 11
536.071
 21
464.651
 31
0.0
  0
LINE
  8
0
 62
     250
 10
536.071
 20
464.651
 30
0.0
 11
536.497
 21
473.703
 31
0.0
  0
LINE
  8
0
 62
     250
 10
536.497
 20
473.703
 30
0.0
 11
536.938
 21
481.951
 31
0.0
  0
LINE
  8
0
 62
     250
 10
536.938
 20
481.951
 30
0.0
 11
537.393
 21
489.229
 31
0.0
  0
LINE
  8
0
 62
     250
 10
537.393
 20
489.229
 30
0.0
 11
537.729
 21
493.832
 31
0.0
  0
LINE
  8
0
 62
     250
 10
537.729
 20
493.832
 30
0.0
 11
537.863
 21
495.364
 31
0.0
  0
LINE
  8
0
 62
     250
 10
537.863
 20
495.364
 30
0.0
 11
537.986
 21
496.803
 31
0.0
  0
LINE
  8
0
 62
     250
 10
537.986
 20
496.803
 30
0.0
 11
538.406
 21
501.11
 31
0.0
  0
LINE
  8
0
 62
     250
 10
538.406
 20
501.11
 30
0.0
 11
539.09
 21
507.273
 31
0.0
  0
LINE
  8
0
 62
     250
 10
539.09
 20
507.273
 30
0.0
 11
539.898
 21
513.761
 31
0.0
  0
LINE
  8
0
 62
     250
 10
539.898
 20
513.761
 30
0.0
 11
540.822
 21
520.492
 31
0.0
  0
LINE
  8
0
 62
     250
 10
540.822
 20
520.492
 30
0.0
 11
541.842
 21
527.375
 31
0.0
  0
LINE
  8
0
 62
     250
 10
541.842
 20
527.375
 30
0.0
 11
542.957
 21
534.324
 31
0.0
  0
LINE
  8
0
 62
     250
 10
542.957
 20
534.324
 30
0.0
 11
544.146
 21
541.256
 31
0.0
  0
LINE
  8
0
 62
     250
 10
544.146
 20
541.256
 30
0.0
 11
545.398
 21
548.079
 31
0.0
  0
LINE
  8
0
 62
     250
 10
545.398
 20
548.079
 30
0.0
 11
546.703
 21
554.704
 31
0.0
  0
LINE
  8
0
 62
     250
 10
546.703
 20
554.704
 30
0.0
 11
548.047
 21
561.054
 31
0.0
  0
LINE
  8
0
 62
     250
 10
548.047
 20
561.054
 30
0.0
 11
549.42
 21
567.034
 31
0.0
  0
LINE
  8
0
 62
     250
 10
549.42
 20
567.034
 30
0.0
 11
550.81
 21
572.558
 31
0.0
  0
LINE
  8
0
 62
     250
 10
550.81
 20
572.558
 30
0.0
 11
552.2
 21
577.543
 31
0.0
  0
LINE
  8
0
 62
     250
 10
552.2
 20
577.543
 30
0.0
 11
553.582
 21
581.896
 31
0.0
  0
LINE
  8
0
 62
     250
 10
553.582
 20
581.896
 30
0.0
 11
554.944
 21
585.537
 31
0.0
  0
LINE
  8
0
 62
     250
 10
554.944
 20
585.537
 30
0.0
 11
555.904
 21
587.685
 31
0.0
  0
LINE
  8
0
 62
     250
 10
555.904
 20
587.685
 30
0.0
 11
556.274
 21
588.373
 31
0.0
  0
LINE
  8
0
 62
     250
 10
556.274
 20
588.373
 30
0.0
 11
556.99
 21
589.686
 31
0.0
  0
LINE
  8
0
 62
     250
 10
556.99
 20
589.686
 30
0.0
 11
559.477
 21
593.443
 31
0.0
  0
LINE
  8
0
 62
     250
 10
559.477
 20
593.443
 30
0.0
 11
563.802
 21
598.914
 31
0.0
  0
LINE
  8
0
 62
     250
 10
563.802
 20
598.914
 30
0.0
 11
569.175
 21
604.636
 31
0.0
  0
LINE
  8
0
 62
     250
 10
569.175
 20
604.636
 30
0.0
 11
575.515
 21
610.464
 31
0.0
  0
LINE
  8
0
 62
     250
 10
575.515
 20
610.464
 30
0.0
 11
582.743
 21
616.236
 31
0.0
  0
LINE
  8
0
 62
     250
 10
582.743
 20
616.236
 30
0.0
 11
590.783
 21
621.806
 31
0.0
  0
LINE
  8
0
 62
     250
 10
590.783
 20
621.806
 30
0.0
 11
599.56
 21
627.017
 31
0.0
  0
LINE
  8
0
 62
     250
 10
599.56
 20
627.017
 30
0.0
 11
606.598
 21
630.633
 31
0.0
  0
LINE
  8
0
 62
     250
 10
606.598
 20
630.633
 30
0.0
 11
608.997
 21
631.716
 31
0.0
  0
LINE
  8
0
 62
     250
 10
608.997
 20
631.716
 30
0.0
 11
610.263
 21
632.287
 31
0.0
  0
LINE
  8
0
 62
     250
 10
610.263
 20
632.287
 30
0.0
 11
614.084
 21
633.949
 31
0.0
  0
LINE
  8
0
 62
     250
 10
614.084
 20
633.949
 30
0.0
 11
619.562
 21
636.224
 31
0.0
  0
LINE
  8
0
 62
     250
 10
619.562
 20
636.224
 30
0.0
 11
625.366
 21
638.524
 31
0.0
  0
LINE
  8
0
 62
     250
 10
625.366
 20
638.524
 30
0.0
 11
631.437
 21
640.817
 31
0.0
  0
LINE
  8
0
 62
     250
 10
631.437
 20
640.817
 30
0.0
 11
637.706
 21
643.079
 31
0.0
  0
LINE
  8
0
 62
     250
 10
637.706
 20
643.079
 30
0.0
 11
644.116
 21
645.283
 31
0.0
  0
LINE
  8
0
 62
     250
 10
644.116
 20
645.283
 30
0.0
 11
650.596
 21
647.404
 31
0.0
  0
LINE
  8
0
 62
     250
 10
650.596
 20
647.404
 30
0.0
 11
657.091
 21
649.411
 31
0.0
  0
LINE
  8
0
 62
     250
 10
657.091
 20
649.411
 30
0.0
 11
663.533
 21
651.284
 31
0.0
  0
LINE
  8
0
 62
     250
 10
663.533
 20
651.284
 30
0.0
 11
669.858
 21
652.992
 31
0.0
  0
LINE
  8
0
 62
     250
 10
669.858
 20
652.992
 30
0.0
 11
676.007
 21
654.509
 31
0.0
  0
LINE
  8
0
 62
     250
 10
676.007
 20
654.509
 30
0.0
 11
681.912
 21
655.807
 31
0.0
  0
LINE
  8
0
 62
     250
 10
681.912
 20
655.807
 30
0.0
 11
687.511
 21
656.865
 31
0.0
  0
LINE
  8
0
 62
     250
 10
687.511
 20
656.865
 30
0.0
 11
692.743
 21
657.655
 31
0.0
  0
LINE
  8
0
 62
     250
 10
692.743
 20
657.655
 30
0.0
 11
697.54
 21
658.146
 31
0.0
  0
LINE
  8
0
 62
     250
 10
697.54
 20
658.146
 30
0.0
 11
700.768
 21
658.315
 31
0.0
  0
LINE
  8
0
 62
     250
 10
700.768
 20
658.315
 30
0.0
 11
701.844
 21
658.315
 31
0.0
  0
LINE
  8
0
 62
     250
 10
701.844
 20
658.315
 30
0.0
 11
703.876
 21
658.315
 31
0.0
  0
LINE
  8
0
 62
     250
 10
703.876
 20
658.315
 30
0.0
 11
709.979
 21
658.029
 31
0.0
  0
LINE
  8
0
 62
     250
 10
709.979
 20
658.029
 30
0.0
 11
718.146
 21
657.229
 31
0.0
  0
LINE
  8
0
 62
     250
 10
718.146
 20
657.229
 30
0.0
 11
726.158
 21
656.011
 31
0.0
  0
LINE
  8
0
 62
     250
 10
726.158
 20
656.011
 30
0.0
 11
733.848
 21
654.48
 31
0.0
  0
LINE
  8
0
 62
     250
 10
733.848
 20
654.48
 30
0.0
 11
741.038
 21
652.731
 31
0.0
  0
LINE
  8
0
 62
     250
 10
741.038
 20
652.731
 30
0.0
 11
747.554
 21
650.861
 31
0.0
  0
LINE
  8
0
 62
     250
 10
747.554
 20
650.861
 30
0.0
 11
753.219
 21
648.97
 31
0.0
  0
LINE
  8
0
 62
     250
 10
753.219
 20
648.97
 30
0.0
 11
756.715
 21
647.647
 31
0.0
  0
LINE
  8
0
 62
     250
 10
756.715
 20
647.647
 30
0.0
 11
757.858
 21
647.157
 31
0.0
  0
LINE
  8
0
 62
     250
 10
757.858
 20
647.157
 30
0.0
 11
758.938
 21
646.695
 31
0.0
  0
LINE
  8
0
 62
     250
 10
758.938
 20
646.695
 30
0.0
 11
762.018
 21
644.934
 31
0.0
  0
LINE
  8
0
 62
     250
 10
762.018
 20
644.934
 30
0.0
 11
766.307
 21
641.851
 31
0.0
  0
LINE
  8
0
 62
     250
 10
766.307
 20
641.851
 30
0.0
 11
770.661
 21
638.069
 31
0.0
  0
LINE
  8
0
 62
     250
 10
770.661
 20
638.069
 30
0.0
 11
775.014
 21
633.741
 31
0.0
  0
LINE
  8
0
 62
     250
 10
775.014
 20
633.741
 30
0.0
 11
779.29
 21
629.017
 31
0.0
  0
LINE
  8
0
 62
     250
 10
779.29
 20
629.017
 30
0.0
 11
783.424
 21
624.057
 31
0.0
  0
LINE
  8
0
 62
     250
 10
783.424
 20
624.057
 30
0.0
 11
787.354
 21
619.016
 31
0.0
  0
LINE
  8
0
 62
     250
 10
787.354
 20
619.016
 30
0.0
 11
790.109
 21
615.301
 31
0.0
  0
LINE
  8
0
 62
     250
 10
790.109
 20
615.301
 30
0.0
 11
791.005
 21
614.045
 31
0.0
  0
LINE
  8
0
 62
     250
 10
791.005
 20
614.045
 30
0.0
 11
792.674
 21
611.706
 31
0.0
  0
LINE
  8
0
 62
     250
 10
792.674
 20
611.706
 30
0.0
 11
797.832
 21
604.795
 31
0.0
  0
LINE
  8
0
 62
     250
 10
797.832
 20
604.795
 30
0.0
 11
804.499
 21
596.558
 31
0.0
  0
LINE
  8
0
 62
     250
 10
804.499
 20
596.558
 30
0.0
 11
811.202
 21
589.298
 31
0.0
  0
LINE
  8
0
 62
     250
 10
811.202
 20
589.298
 30
0.0
 11
816.331
 21
584.468
 31
0.0
  0
LINE
  8
0
 62
     250
 10
816.331
 20
584.468
 30
0.0
 11
818.141
 21
582.979
 31
0.0
  0
LINE
  8
0
 62
     250
 10
818.141
 20
582.979
 30
0.0
 11
819.048
 21
582.235
 31
0.0
  0
LINE
  8
0
 62
     250
 10
819.048
 20
582.235
 30
0.0
 11
821.979
 21
580.259
 31
0.0
  0
LINE
  8
0
 62
     250
 10
821.979
 20
580.259
 30
0.0
 11
826.414
 21
577.924
 31
0.0
  0
LINE
  8
0
 62
     250
 10
826.414
 20
577.924
 30
0.0
 11
831.522
 21
575.927
 31
0.0
  0
LINE
  8
0
 62
     250
 10
831.522
 20
575.927
 30
0.0
 11
837.378
 21
574.213
 31
0.0
  0
LINE
  8
0
 62
     250
 10
837.378
 20
574.213
 30
0.0
 11
844.049
 21
572.735
 31
0.0
  0
LINE
  8
0
 62
     250
 10
844.049
 20
572.735
 30
0.0
 11
851.613
 21
571.444
 31
0.0
  0
LINE
  8
0
 62
     250
 10
851.613
 20
571.444
 30
0.0
 11
860.136
 21
570.286
 31
0.0
  0
LINE
  8
0
 62
     250
 10
860.136
 20
570.286
 30
0.0
 11
867.304
 21
569.461
 31
0.0
  0
LINE
  8
0
 62
     250
 10
867.304
 20
569.461
 30
0.0
 11
869.7
 21
569.214
 31
0.0
  0
LINE
  8
0
 62
     250
 10
869.7
 20
569.214
 30
0.0
 11
872.24
 21
568.949
 31
0.0
  0
LINE
  8
0
 62
     250
 10
872.24
 20
568.949
 30
0.0
 11
879.874
 21
568.219
 31
0.0
  0
LINE
  8
0
 62
     250
 10
879.874
 20
568.219
 30
0.0
 11
890.044
 21
567.33
 31
0.0
  0
LINE
  8
0
 62
     250
 10
890.044
 20
567.33
 30
0.0
 11
899.989
 21
566.543
 31
0.0
  0
LINE
  8
0
 62
     250
 10
899.989
 20
566.543
 30
0.0
 11
909.482
 21
565.866
 31
0.0
  0
LINE
  8
0
 62
     250
 10
909.482
 20
565.866
 30
0.0
 11
918.305
 21
565.291
 31
0.0
  0
LINE
  8
0
 62
     250
 10
918.305
 20
565.291
 30
0.0
 11
926.232
 21
564.818
 31
0.0
  0
LINE
  8
0
 62
     250
 10
926.232
 20
564.818
 30
0.0
 11
933.041
 21
564.452
 31
0.0
  0
LINE
  8
0
 62
     250
 10
933.041
 20
564.452
 30
0.0
 11
937.14
 21
564.25
 31
0.0
  0
LINE
  8
0
 62
     250
 10
937.14
 20
564.25
 30
0.0
 11
938.509
 21
564.19
 31
0.0
  0
LINE
  8
0
 62
     250
 10
938.509
 20
564.19
 30
0.0
 11
939.796
 21
564.134
 31
0.0
  0
LINE
  8
0
 62
     250
 10
939.796
 20
564.134
 30
0.0
 11
943.649
 21
563.792
 31
0.0
  0
LINE
  8
0
 62
     250
 10
943.649
 20
563.792
 30
0.0
 11
949.367
 21
563.083
 31
0.0
  0
LINE
  8
0
 62
     250
 10
949.367
 20
563.083
 30
0.0
 11
955.269
 21
562.18
 31
0.0
  0
LINE
  8
0
 62
     250
 10
955.269
 20
562.18
 30
0.0
 11
960.967
 21
561.192
 31
0.0
  0
LINE
  8
0
 62
     250
 10
960.967
 20
561.192
 30
0.0
 11
966.078
 21
560.229
 31
0.0
  0
LINE
  8
0
 62
     250
 10
966.078
 20
560.229
 30
0.0
 11
970.209
 21
559.403
 31
0.0
  0
LINE
  8
0
 62
     250
 10
970.209
 20
559.403
 30
0.0
 11
972.972
 21
558.828
 31
0.0
  0
LINE
  8
0
 62
     250
 10
972.972
 20
558.828
 30
0.0
 11
973.981
 21
558.609
 31
0.0
  0
LINE
  8
0
 62
     250
 10
973.981
 20
558.609
 30
0.0
 11
973.981
 21
558.609
 31
0.0
  0
LINE
  8
0
 62
     250
 10
818.141
 20
582.979
 30
0.0
 11
818.141
 21
582.979
 31
0.0
  0
LINE
  8
0
 62
     250
 10
818.141
 20
582.979
 30
0.0
 11
817.291
 21
582.602
 31
0.0
  0
LINE
  8
0
 62
     250
 10
817.291
 20
582.602
 30
0.0
 11
814.913
 21
581.494
 31
0.0
  0
LINE
  8
0
 62
     250
 10
814.913
 20
581.494
 30
0.0
 11
811.262
 21
579.684
 31
0.0
  0
LINE
  8
0
 62
     250
 10
811.262
 20
579.684
 30
0.0
 11
806.602
 21
577.201
 31
0.0
  0
LINE
  8
0
 62
     250
 10
806.602
 20
577.201
 30
0.0
 11
801.183
 21
574.079
 31
0.0
  0
LINE
  8
0
 62
     250
 10
801.183
 20
574.079
 30
0.0
 11
795.263
 21
570.343
 31
0.0
  0
LINE
  8
0
 62
     250
 10
795.263
 20
570.343
 30
0.0
 11
789.104
 21
566.032
 31
0.0
  0
LINE
  8
0
 62
     250
 10
789.104
 20
566.032
 30
0.0
 11
784.454
 21
562.434
 31
0.0
  0
LINE
  8
0
 62
     250
 10
784.454
 20
562.434
 30
0.0
 11
782.962
 21
561.167
 31
0.0
  0
LINE
  8
0
 62
     250
 10
782.962
 20
561.167
 30
0.0
 11
781.491
 21
559.925
 31
0.0
  0
LINE
  8
0
 62
     250
 10
781.491
 20
559.925
 30
0.0
 11
777.215
 21
556.041
 31
0.0
  0
LINE
  8
0
 62
     250
 10
777.215
 20
556.041
 30
0.0
 11
772.04
 21
550.848
 31
0.0
  0
LINE
  8
0
 62
     250
 10
772.04
 20
550.848
 30
0.0
 11
767.39
 21
545.476
 31
0.0
  0
LINE
  8
0
 62
     250
 10
767.39
 20
545.476
 30
0.0
 11
763.206
 21
539.821
 31
0.0
  0
LINE
  8
0
 62
     250
 10
763.206
 20
539.821
 30
0.0
 11
759.442
 21
533.774
 31
0.0
  0
LINE
  8
0
 62
     250
 10
759.442
 20
533.774
 30
0.0
 11
756.035
 21
527.226
 31
0.0
  0
LINE
  8
0
 62
     250
 10
756.035
 20
527.226
 30
0.0
 11
752.941
 21
520.069
 31
0.0
  0
LINE
  8
0
 62
     250
 10
752.941
 20
520.069
 30
0.0
 11
750.76
 21
514.184
 31
0.0
  0
LINE
  8
0
 62
     250
 10
750.76
 20
514.184
 30
0.0
 11
750.108
 21
512.198
 31
0.0
  0
LINE
  8
0
 62
     250
 10
750.108
 20
512.198
 30
0.0
 11
749.745
 21
511.104
 31
0.0
  0
LINE
  8
0
 62
     250
 10
749.745
 20
511.104
 30
0.0
 11
748.753
 21
507.795
 31
0.0
  0
LINE
  8
0
 62
     250
 10
748.753
 20
507.795
 30
0.0
 11
747.427
 21
502.899
 31
0.0
  0
LINE
  8
0
 62
     250
 10
747.427
 20
502.899
 30
0.0
 11
746.132
 21
497.59
 31
0.0
  0
LINE
  8
0
 62
     250
 10
746.132
 20
497.59
 30
0.0
 11
744.876
 21
491.934
 31
0.0
  0
LINE
  8
0
 62
     250
 10
744.876
 20
491.934
 30
0.0
 11
743.663
 21
486.015
 31
0.0
  0
LINE
  8
0
 62
     250
 10
743.663
 20
486.015
 30
0.0
 11
742.495
 21
479.905
 31
0.0
  0
LINE
  8
0
 62
     250
 10
742.495
 20
479.905
 30
0.0
 11
741.384
 21
473.671
 31
0.0
  0
LINE
  8
0
 62
     250
 10
741.384
 20
473.671
 30
0.0
 11
740.329
 21
467.395
 31
0.0
  0
LINE
  8
0
 62
     250
 10
740.329
 20
467.395
 30
0.0
 11
739.341
 21
461.155
 31
0.0
  0
LINE
  8
0
 62
     250
 10
739.341
 20
461.155
 30
0.0
 11
738.42
 21
455.013
 31
0.0
  0
LINE
  8
0
 62
     250
 10
738.42
 20
455.013
 30
0.0
 11
737.577
 21
449.058
 31
0.0
  0
LINE
  8
0
 62
     250
 10
737.577
 20
449.058
 30
0.0
 11
736.819
 21
443.353
 31
0.0
  0
LINE
  8
0
 62
     250
 10
736.819
 20
443.353
 30
0.0
 11
736.145
 21
437.981
 31
0.0
  0
LINE
  8
0
 62
     250
 10
736.145
 20
437.981
 30
0.0
 11
735.559
 21
433.01
 31
0.0
  0
LINE
  8
0
 62
     250
 10
735.559
 20
433.01
 30
0.0
 11
735.076
 21
428.519
 31
0.0
  0
LINE
  8
0
 62
     250
 10
735.076
 20
428.519
 30
0.0
 11
734.787
 21
425.566
 31
0.0
  0
LINE
  8
0
 62
     250
 10
734.787
 20
425.566
 30
0.0
 11
734.699
 21
424.582
 31
0.0
  0
LINE
  8
0
 62
     250
 10
734.699
 20
424.582
 30
0.0
 11
734.515
 21
422.554
 31
0.0
  0
LINE
  8
0
 62
     250
 10
734.515
 20
422.554
 30
0.0
 11
734.081
 21
416.458
 31
0.0
  0
LINE
  8
0
 62
     250
 10
734.081
 20
416.458
 30
0.0
 11
733.552
 21
407.007
 31
0.0
  0
LINE
  8
0
 62
     250
 10
733.552
 20
407.007
 30
0.0
 11
733.1
 21
396.808
 31
0.0
  0
LINE
  8
0
 62
     250
 10
733.1
 20
396.808
 30
0.0
 11
732.734
 21
386.426
 31
0.0
  0
LINE
  8
0
 62
     250
 10
732.734
 20
386.426
 30
0.0
 11
732.448
 21
376.439
 31
0.0
  0
LINE
  8
0
 62
     250
 10
732.448
 20
376.439
 30
0.0
 11
732.243
 21
367.411
 31
0.0
  0
LINE
  8
0
 62
     250
 10
732.243
 20
367.411
 30
0.0
 11
732.12
 21
359.925
 31
0.0
  0
LINE
  8
0
 62
     250
 10
732.12
 20
359.925
 30
0.0
 11
732.081
 21
355.889
 31
0.0
  0
LINE
  8
0
 62
     250
 10
732.081
 20
355.889
 30
0.0
 11
732.081
 21
354.545
 31
0.0
  0
LINE
  8
0
 62
     250
 10
554.288
 20
584.606
 30
0.0
 11
554.288
 21
584.606
 31
0.0
  0
LINE
  8
0
 62
     250
 10
554.288
 20
584.606
 30
0.0
 11
553.805
 21
584.775
 31
0.0
  0
LINE
  8
0
 62
     250
 10
553.805
 20
584.775
 30
0.0
 11
552.408
 21
585.23
 31
0.0
  0
LINE
  8
0
 62
     250
 10
552.408
 20
585.23
 30
0.0
 11
550.182
 21
585.886
 31
0.0
  0
LINE
  8
0
 62
     250
 10
550.182
 20
585.886
 30
0.0
 11
547.204
 21
586.662
 31
0.0
  0
LINE
  8
0
 62
     250
 10
547.204
 20
586.662
 30
0.0
 11
543.556
 21
587.481
 31
0.0
  0
LINE
  8
0
 62
     250
 10
543.556
 20
587.481
 30
0.0
 11
539.323
 21
588.257
 31
0.0
  0
LINE
  8
0
 62
     250
 10
539.323
 20
588.257
 30
0.0
 11
534.589
 21
588.906
 31
0.0
  0
LINE
  8
0
 62
     250
 10
534.589
 20
588.906
 30
0.0
 11
530.722
 21
589.273
 31
0.0
  0
LINE
  8
0
 62
     250
 10
530.722
 20
589.273
 30
0.0
 11
529.431
 21
589.351
 31
0.0
  0
LINE
  8
0
 62
     250
 10
529.431
 20
589.351
 30
0.0
 11
528.08
 21
589.428
 31
0.0
  0
LINE
  8
0
 62
     250
 10
528.08
 20
589.428
 30
0.0
 11
523.998
 21
589.107
 31
0.0
  0
LINE
  8
0
 62
     250
 10
523.998
 20
589.107
 30
0.0
 11
518.485
 21
587.862
 31
0.0
  0
LINE
  8
0
 62
     250
 10
518.485
 20
587.862
 30
0.0
 11
513.041
 21
585.766
 31
0.0
  0
LINE
  8
0
 62
     250
 10
513.041
 20
585.766
 30
0.0
 11
507.824
 21
582.983
 31
0.0
  0
LINE
  8
0
 62
     250
 10
507.824
 20
582.983
 30
0.0
 11
502.98
 21
579.67
 31
0.0
  0
LINE
  8
0
 62
     250
 10
502.98
 20
579.67
 30
0.0
 11
498.666
 21
575.991
 31
0.0
  0
LINE
  8
0
 62
     250
 10
498.666
 20
575.991
 30
0.0
 11
495.025
 21
572.093
 31
0.0
  0
LINE
  8
0
 62
     250
 10
495.025
 20
572.093
 30
0.0
 11
492.834
 21
569.182
 31
0.0
  0
LINE
  8
0
 62
     250
 10
492.834
 20
569.182
 30
0.0
 11
492.217
 21
568.142
 31
0.0
  0
LINE
  8
0
 62
     250
 10
492.217
 20
568.142
 30
0.0
 11
491.628
 21
567.161
 31
0.0
  0
LINE
  8
0
 62
     250
 10
491.628
 20
567.161
 30
0.0
 11
489.994
 21
564.138
 31
0.0
  0
LINE
  8
0
 62
     250
 10
489.994
 20
564.138
 30
0.0
 11
488.033
 21
559.922
 31
0.0
  0
LINE
  8
0
 62
     250
 10
488.033
 20
559.922
 30
0.0
 11
486.339
 21
555.438
 31
0.0
  0
LINE
  8
0
 62
     250
 10
486.339
 20
555.438
 30
0.0
 11
484.928
 21
550.616
 31
0.0
  0
LINE
  8
0
 62
     250
 10
484.928
 20
550.616
 30
0.0
 11
483.81
 21
545.398
 31
0.0
  0
LINE
  8
0
 62
     250
 10
483.81
 20
545.398
 30
0.0
 11
482.995
 21
539.715
 31
0.0
  0
LINE
  8
0
 62
     250
 10
482.995
 20
539.715
 30
0.0
 11
482.498
 21
533.506
 31
0.0
  0
LINE
  8
0
 62
     250
 10
482.498
 20
533.506
 30
0.0
 11
482.328
 21
528.408
 31
0.0
  0
LINE
  8
0
 62
     250
 10
482.328
 20
528.408
 30
0.0
 11
482.328
 21
526.708
 31
0.0
  0
LINE
  8
0
 62
     250
 10
482.328
 20
526.708
 30
0.0
 11
482.328
 21
524.838
 31
0.0
  0
LINE
  8
0
 62
     250
 10
482.328
 20
524.838
 30
0.0
 11
482.815
 21
519.229
 31
0.0
  0
LINE
  8
0
 62
     250
 10
482.815
 20
519.229
 30
0.0
 11
484.131
 21
511.193
 31
0.0
  0
LINE
  8
0
 62
     250
 10
484.131
 20
511.193
 30
0.0
 11
486.054
 21
502.846
 31
0.0
  0
LINE
  8
0
 62
     250
 10
486.054
 20
502.846
 30
0.0
 11
488.364
 21
494.446
 31
0.0
  0
LINE
  8
0
 62
     250
 10
488.364
 20
494.446
 30
0.0
 11
490.834
 21
486.241
 31
0.0
  0
LINE
  8
0
 62
     250
 10
490.834
 20
486.241
 30
0.0
 11
493.247
 21
478.483
 31
0.0
  0
LINE
  8
0
 62
     250
 10
493.247
 20
478.483
 30
0.0
 11
495.381
 21
471.428
 31
0.0
  0
LINE
  8
0
 62
     250
 10
495.381
 20
471.428
 30
0.0
 11
496.651
 21
466.859
 31
0.0
  0
LINE
  8
0
 62
     250
 10
496.651
 20
466.859
 30
0.0
 11
497.014
 21
465.321
 31
0.0
  0
LINE
  8
0
 62
     250
 10
497.014
 20
465.321
 30
0.0
 11
497.205
 21
464.506
 31
0.0
  0
LINE
  8
0
 62
     250
 10
497.205
 20
464.506
 30
0.0
 11
497.646
 21
462.019
 31
0.0
  0
LINE
  8
0
 62
     250
 10
497.646
 20
462.019
 30
0.0
 11
498.239
 21
457.736
 31
0.0
  0
LINE
  8
0
 62
     250
 10
498.239
 20
457.736
 30
0.0
 11
498.789
 21
452.572
 31
0.0
  0
LINE
  8
0
 62
     250
 10
498.789
 20
452.572
 30
0.0
 11
499.3
 21
446.638
 31
0.0
  0
LINE
  8
0
 62
     250
 10
499.3
 20
446.638
 30
0.0
 11
499.773
 21
440.044
 31
0.0
  0
LINE
  8
0
 62
     250
 10
499.773
 20
440.044
 30
0.0
 11
500.2
 21
432.897
 31
0.0
  0
LINE
  8
0
 62
     250
 10
500.2
 20
432.897
 30
0.0
 11
500.588
 21
425.298
 31
0.0
  0
LINE
  8
0
 62
     250
 10
500.588
 20
425.298
 30
0.0
 11
500.937
 21
417.361
 31
0.0
  0
LINE
  8
0
 62
     250
 10
500.937
 20
417.361
 30
0.0
 11
501.244
 21
409.194
 31
0.0
  0
LINE
  8
0
 62
     250
 10
501.244
 20
409.194
 30
0.0
 11
501.509
 21
400.9
 31
0.0
  0
LINE
  8
0
 62
     250
 10
501.509
 20
400.9
 30
0.0
 11
501.735
 21
392.592
 31
0.0
  0
LINE
  8
0
 62
     250
 10
501.735
 20
392.592
 30
0.0
 11
501.918
 21
384.373
 31
0.0
  0
LINE
  8
0
 62
     250
 10
501.918
 20
384.373
 30
0.0
 11
502.059
 21
376.35
 31
0.0
  0
LINE
  8
0
 62
     250
 10
502.059
 20
376.35
 30
0.0
 11
502.162
 21
368.635
 31
0.0
  0
LINE
  8
0
 62
     250
 10
502.162
 20
368.635
 30
0.0
 11
502.225
 21
361.329
 31
0.0
  0
LINE
  8
0
 62
     250
 10
502.225
 20
361.329
 30
0.0
 11
502.246
 21
356.242
 31
0.0
  0
LINE
  8
0
 62
     250
 10
502.246
 20
356.242
 30
0.0
 11
502.246
 21
354.545
 31
0.0
  0
LINE
  8
0
 62
     250
 10
900.617
 20
569.602
 30
0.0
 11
866.066
 21
569.602
 31
0.0
  0
LINE
  8
0
 62
     250
 10
507.175
 20
125.329
 30
0.0
 11
507.175
 21
125.329
 31
0.0
  0
LINE
  8
0
 62
     250
 10
507.175
 20
125.329
 30
0.0
 11
506.906
 21
125.244
 31
0.0
  0
LINE
  8
0
 62
     250
 10
506.906
 20
125.244
 30
0.0
 11
506.141
 21
125.003
 31
0.0
  0
LINE
  8
0
 62
     250
 10
506.141
 20
125.003
 30
0.0
 11
504.941
 21
124.627
 31
0.0
  0
LINE
  8
0
 62
     250
 10
504.941
 20
124.627
 30
0.0
 11
503.357
 21
124.138
 31
0.0
  0
LINE
  8
0
 62
     250
 10
503.357
 20
124.138
 30
0.0
 11
501.456
 21
123.556
 31
0.0
  0
LINE
  8
0
 62
     250
 10
501.456
 20
123.556
 30
0.0
 11
499.283
 21
122.902
 31
0.0
  0
LINE
  8
0
 62
     250
 10
499.283
 20
122.902
 30
0.0
 11
496.905
 21
122.196
 31
0.0
  0
LINE
  8
0
 62
     250
 10
496.905
 20
122.196
 30
0.0
 11
494.379
 21
121.462
 31
0.0
  0
LINE
  8
0
 62
     250
 10
494.379
 20
121.462
 30
0.0
 11
491.758
 21
120.719
 31
0.0
  0
LINE
  8
0
 62
     250
 10
491.758
 20
120.719
 30
0.0
 11
489.105
 21
119.987
 31
0.0
  0
LINE
  8
0
 62
     250
 10
489.105
 20
119.987
 30
0.0
 11
486.473
 21
119.29
 31
0.0
  0
LINE
  8
0
 62
     250
 10
486.473
 20
119.29
 30
0.0
 11
483.923
 21
118.646
 31
0.0
  0
LINE
  8
0
 62
     250
 10
483.923
 20
118.646
 30
0.0
 11
481.513
 21
118.079
 31
0.0
  0
LINE
  8
0
 62
     250
 10
481.513
 20
118.079
 30
0.0
 11
479.298
 21
117.606
 31
0.0
  0
LINE
  8
0
 62
     250
 10
479.298
 20
117.606
 30
0.0
 11
477.337
 21
117.252
 31
0.0
  0
LINE
  8
0
 62
     250
 10
477.337
 20
117.252
 30
0.0
 11
476.102
 21
117.075
 31
0.0
  0
LINE
  8
0
 62
     250
 10
476.102
 20
117.075
 30
0.0
 11
475.689
 21
117.035
 31
0.0
  0
LINE
  8
0
 62
     250
 10
475.689
 20
117.035
 30
0.0
 11
474.07
 21
116.882
 31
0.0
  0
LINE
  8
0
 62
     250
 10
474.07
 20
116.882
 30
0.0
 11
469.219
 21
116.433
 31
0.0
  0
LINE
  8
0
 62
     250
 10
469.219
 20
116.433
 30
0.0
 11
461.606
 21
115.883
 31
0.0
  0
LINE
  8
0
 62
     250
 10
461.606
 20
115.883
 30
0.0
 11
452.818
 21
115.595
 31
0.0
  0
LINE
  8
0
 62
     250
 10
452.818
 20
115.595
 30
0.0
 11
445.333
 21
115.663
 31
0.0
  0
LINE
  8
0
 62
     250
 10
445.333
 20
115.663
 30
0.0
 11
442.842
 21
115.777
 31
0.0
  0
LINE
  8
0
 62
     250
 10
442.842
 20
115.777
 30
0.0
 11
441.389
 21
115.845
 31
0.0
  0
LINE
  8
0
 62
     250
 10
441.389
 20
115.845
 30
0.0
 11
437.039
 21
116.083
 31
0.0
  0
LINE
  8
0
 62
     250
 10
437.039
 20
116.083
 30
0.0
 11
430.407
 21
116.497
 31
0.0
  0
LINE
  8
0
 62
     250
 10
430.407
 20
116.497
 30
0.0
 11
423.235
 21
117.001
 31
0.0
  0
LINE
  8
0
 62
     250
 10
423.235
 20
117.001
 30
0.0
 11
415.812
 21
117.578
 31
0.0
  0
LINE
  8
0
 62
     250
 10
415.812
 20
117.578
 30
0.0
 11
408.421
 21
118.209
 31
0.0
  0
LINE
  8
0
 62
     250
 10
408.421
 20
118.209
 30
0.0
 11
401.359
 21
118.878
 31
0.0
  0
LINE
  8
0
 62
     250
 10
401.359
 20
118.878
 30
0.0
 11
394.903
 21
119.564
 31
0.0
  0
LINE
  8
0
 62
     250
 10
394.903
 20
119.564
 30
0.0
 11
390.733
 21
120.063
 31
0.0
  0
LINE
  8
0
 62
     250
 10
390.733
 20
120.063
 30
0.0
 11
389.35
 21
120.25
 31
0.0
  0
LINE
  8
0
 62
     250
 10
389.35
 20
120.25
 30
0.0
 11
387.925
 21
120.445
 31
0.0
  0
LINE
  8
0
 62
     250
 10
387.925
 20
120.445
 30
0.0
 11
383.653
 21
121.014
 31
0.0
  0
LINE
  8
0
 62
     250
 10
383.653
 20
121.014
 30
0.0
 11
376.869
 21
121.911
 31
0.0
  0
LINE
  8
0
 62
     250
 10
376.869
 20
121.911
 30
0.0
 11
369.397
 21
122.902
 31
0.0
  0
LINE
  8
0
 62
     250
 10
369.397
 20
122.902
 30
0.0
 11
361.664
 21
123.949
 31
0.0
  0
LINE
  8
0
 62
     250
 10
361.664
 20
123.949
 30
0.0
 11
354.076
 21
125.011
 31
0.0
  0
LINE
  8
0
 62
     250
 10
354.076
 20
125.011
 30
0.0
 11
347.045
 21
126.049
 31
0.0
  0
LINE
  8
0
 62
     250
 10
347.045
 20
126.049
 30
0.0
 11
340.989
 21
127.022
 31
0.0
  0
LINE
  8
0
 62
     250
 10
340.989
 20
127.022
 30
0.0
 11
337.482
 21
127.648
 31
0.0
  0
LINE
  8
0
 62
     250
 10
337.482
 20
127.648
 30
0.0
 11
336.32
 21
127.89
 31
0.0
  0
LINE
  8
0
 62
     250
 10
336.32
 20
127.89
 30
0.0
 11
335.855
 21
127.988
 31
0.0
  0
LINE
  8
0
 62
     250
 10
335.855
 20
127.988
 30
0.0
 11
334.459
 21
128.271
 31
0.0
  0
LINE
  8
0
 62
     250
 10
334.459
 20
128.271
 30
0.0
 11
332.687
 21
128.614
 31
0.0
  0
LINE
  8
0
 62
     250
 10
332.687
 20
128.614
 30
0.0
 11
330.951
 21
128.935
 31
0.0
  0
LINE
  8
0
 62
     250
 10
330.951
 20
128.935
 30
0.0
 11
329.205
 21
129.246
 31
0.0
  0
LINE
  8
0
 62
     250
 10
329.205
 20
129.246
 30
0.0
 11
327.399
 21
129.562
 31
0.0
  0
LINE
  8
0
 62
     250
 10
327.399
 20
129.562
 30
0.0
 11
325.482
 21
129.895
 31
0.0
  0
LINE
  8
0
 62
     250
 10
325.482
 20
129.895
 30
0.0
 11
323.406
 21
130.258
 31
0.0
  0
LINE
  8
0
 62
     250
 10
323.406
 20
130.258
 30
0.0
 11
321.125
 21
130.663
 31
0.0
  0
LINE
  8
0
 62
     250
 10
321.125
 20
130.663
 30
0.0
 11
318.587
 21
131.126
 31
0.0
  0
LINE
  8
0
 62
     250
 10
318.587
 20
131.126
 30
0.0
 11
315.744
 21
131.659
 31
0.0
  0
LINE
  8
0
 62
     250
 10
315.744
 20
131.659
 30
0.0
 11
312.547
 21
132.276
 31
0.0
  0
LINE
  8
0
 62
     250
 10
312.547
 20
132.276
 30
0.0
 11
308.947
 21
132.989
 31
0.0
  0
LINE
  8
0
 62
     250
 10
308.947
 20
132.989
 30
0.0
 11
304.895
 21
133.812
 31
0.0
  0
LINE
  8
0
 62
     250
 10
304.895
 20
133.812
 30
0.0
 11
300.341
 21
134.757
 31
0.0
  0
LINE
  8
0
 62
     250
 10
300.341
 20
134.757
 30
0.0
 11
295.238
 21
135.839
 31
0.0
  0
LINE
  8
0
 62
     250
 10
295.238
 20
135.839
 30
0.0
 11
290.961
 21
136.759
 31
0.0
  0
LINE
  8
0
 62
     250
 10
290.961
 20
136.759
 30
0.0
 11
289.537
 21
137.069
 31
0.0
  0
LINE
  8
0
 62
     250
 10
289.537
 20
137.069
 30
0.0
 11
286.409
 21
137.75
 31
0.0
  0
LINE
  8
0
 62
     250
 10
286.409
 20
137.75
 30
0.0
 11
277.04
 21
139.863
 31
0.0
  0
LINE
  8
0
 62
     250
 10
277.04
 20
139.863
 30
0.0
 11
263.79
 21
142.976
 31
0.0
  0
LINE
  8
0
 62
     250
 10
263.79
 20
142.976
 30
0.0
 11
250.045
 21
146.377
 31
0.0
  0
LINE
  8
0
 62
     250
 10
250.045
 20
146.377
 30
0.0
 11
236.059
 21
150.033
 31
0.0
  0
LINE
  8
0
 62
     250
 10
236.059
 20
150.033
 30
0.0
 11
222.09
 21
153.913
 31
0.0
  0
LINE
  8
0
 62
     250
 10
222.09
 20
153.913
 30
0.0
 11
208.394
 21
157.982
 31
0.0
  0
LINE
  8
0
 62
     250
 10
208.394
 20
157.982
 30
0.0
 11
195.225
 21
162.209
 31
0.0
  0
LINE
  8
0
 62
     250
 10
195.225
 20
162.209
 30
0.0
 11
185.92
 21
165.422
 31
0.0
  0
LINE
  8
0
 62
     250
 10
185.92
 20
165.422
 30
0.0
 11
182.844
 21
166.559
 31
0.0
  0
LINE
  8
0
 62
     250
 10
182.844
 20
166.559
 30
0.0
 11
179.988
 21
167.615
 31
0.0
  0
LINE
  8
0
 62
     250
 10
179.988
 20
167.615
 30
0.0
 11
171.522
 21
171.045
 31
0.0
  0
LINE
  8
0
 62
     250
 10
171.522
 20
171.045
 30
0.0
 11
161.368
 21
175.708
 31
0.0
  0
LINE
  8
0
 62
     250
 10
161.368
 20
175.708
 30
0.0
 11
152.378
 21
180.571
 31
0.0
  0
LINE
  8
0
 62
     250
 10
152.378
 20
180.571
 30
0.0
 11
144.545
 21
185.656
 31
0.0
  0
LINE
  8
0
 62
     250
 10
144.545
 20
185.656
 30
0.0
 11
137.869
 21
190.982
 31
0.0
  0
LINE
  8
0
 62
     250
 10
137.869
 20
190.982
 30
0.0
 11
132.341
 21
196.573
 31
0.0
  0
LINE
  8
0
 62
     250
 10
132.341
 20
196.573
 30
0.0
 11
127.962
 21
202.449
 31
0.0
  0
LINE
  8
0
 62
     250
 10
127.962
 20
202.449
 30
0.0
 11
125.399
 21
207.028
 31
0.0
  0
LINE
  8
0
 62
     250
 10
125.399
 20
207.028
 30
0.0
 11
124.725
 21
208.63
 31
0.0
  0
LINE
  8
0
 62
     250
 10
124.725
 20
208.63
 30
0.0
 11
124.07
 21
210.185
 31
0.0
  0
LINE
  8
0
 62
     250
 10
124.07
 20
210.185
 30
0.0
 11
122.491
 21
215.01
 31
0.0
  0
LINE
  8
0
 62
     250
 10
122.491
 20
215.01
 30
0.0
 11
121.039
 21
221.379
 31
0.0
  0
LINE
  8
0
 62
     250
 10
121.039
 20
221.379
 30
0.0
 11
120.235
 21
227.61
 31
0.0
  0
LINE
  8
0
 62
     250
 10
120.235
 20
227.61
 30
0.0
 11
119.954
 21
233.577
 31
0.0
  0
LINE
  8
0
 62
     250
 10
119.954
 20
233.577
 30
0.0
 11
120.062
 21
239.152
 31
0.0
  0
LINE
  8
0
 62
     250
 10
120.062
 20
239.152
 30
0.0
 11
120.431
 21
244.205
 31
0.0
  0
LINE
  8
0
 62
     250
 10
120.431
 20
244.205
 30
0.0
 11
120.93
 21
248.609
 31
0.0
  0
LINE
  8
0
 62
     250
 10
120.93
 20
248.609
 30
0.0
 11
121.299
 21
251.331
 31
0.0
  0
LINE
  8
0
 62
     250
 10
121.299
 20
251.331
 30
0.0
 11
121.429
 21
252.236
 31
0.0
  0
LINE
  8
0
 62
     250
 10
121.429
 20
252.236
 30
0.0
 11
121.681
 21
254.008
 31
0.0
  0
LINE
  8
0
 62
     250
 10
121.681
 20
254.008
 30
0.0
 11
122.429
 21
259.322
 31
0.0
  0
LINE
  8
0
 62
     250
 10
122.429
 20
259.322
 30
0.0
 11
123.445
 21
267.192
 31
0.0
  0
LINE
  8
0
 62
     250
 10
123.445
 20
267.192
 30
0.0
 11
124.233
 21
274.959
 31
0.0
  0
LINE
  8
0
 62
     250
 10
124.233
 20
274.959
 30
0.0
 11
124.551
 21
280.035
 31
0.0
  0
LINE
  8
0
 62
     250
 10
124.551
 20
280.035
 30
0.0
 11
124.551
 21
281.728
 31
0.0
  0
LINE
  8
0
 62
     250
 10
124.551
 20
281.728
 30
0.0
 11
124.551
 21
421.774
 31
0.0
  0
LINE
  8
0
 62
     250
 10
124.551
 20
421.774
 30
0.0
 11
124.551
 21
424.279
 31
0.0
  0
LINE
  8
0
 62
     250
 10
124.551
 20
424.279
 30
0.0
 11
124.157
 21
431.789
 31
0.0
  0
LINE
  8
0
 62
     250
 10
124.157
 20
431.789
 30
0.0
 11
123.228
 21
441.935
 31
0.0
  0
LINE
  8
0
 62
     250
 10
123.228
 20
441.935
 30
0.0
 11
122.136
 21
451.612
 31
0.0
  0
LINE
  8
0
 62
     250
 10
122.136
 20
451.612
 30
0.0
 11
121.433
 21
458.057
 31
0.0
  0
LINE
  8
0
 62
     250
 10
121.433
 20
458.057
 30
0.0
 11
121.255
 21
460.209
 31
0.0
  0
LINE
  8
0
 62
     250
 10
121.255
 20
460.209
 30
0.0
 11
121.087
 21
462.245
 31
0.0
  0
LINE
  8
0
 62
     250
 10
121.087
 20
462.245
 30
0.0
 11
120.594
 21
468.351
 31
0.0
  0
LINE
  8
0
 62
     250
 10
120.594
 20
468.351
 30
0.0
 11
120.257
 21
476.913
 31
0.0
  0
LINE
  8
0
 62
     250
 10
120.257
 20
476.913
 30
0.0
 11
120.767
 21
485.683
 31
0.0
  0
LINE
  8
0
 62
     250
 10
120.767
 20
485.683
 30
0.0
 11
121.974
 21
492.323
 31
0.0
  0
LINE
  8
0
 62
     250
 10
121.974
 20
492.323
 30
0.0
 11
122.644
 21
494.453
 31
0.0
  0
LINE
  8
0
 62
     250
 10
122.644
 20
494.453
 30
0.0
 11
122.98
 21
495.526
 31
0.0
  0
LINE
  8
0
 62
     250
 10
122.98
 20
495.526
 30
0.0
 11
124.142
 21
498.694
 31
0.0
  0
LINE
  8
0
 62
     250
 10
124.142
 20
498.694
 30
0.0
 11
125.953
 21
502.74
 31
0.0
  0
LINE
  8
0
 62
     250
 10
125.953
 20
502.74
 30
0.0
 11
128.141
 21
506.642
 31
0.0
  0
LINE
  8
0
 62
     250
 10
128.141
 20
506.642
 30
0.0
 11
130.774
 21
510.438
 31
0.0
  0
LINE
  8
0
 62
     250
 10
130.774
 20
510.438
 30
0.0
 11
133.92
 21
514.177
 31
0.0
  0
LINE
  8
0
 62
     250
 10
133.92
 20
514.177
 30
0.0
 11
137.647
 21
517.902
 31
0.0
  0
LINE
  8
0
 62
     250
 10
137.647
 20
517.902
 30
0.0
 11
142.019
 21
521.656
 31
0.0
  0
LINE
  8
0
 62
     250
 10
142.019
 20
521.656
 30
0.0
 11
145.809
 21
524.563
 31
0.0
  0
LINE
  8
0
 62
     250
 10
145.809
 20
524.563
 30
0.0
 11
147.106
 21
525.48
 31
0.0
  0
LINE
  8
0
 62
     250
 10
147.106
 20
525.48
 30
0.0
 11
148.582
 21
526.528
 31
0.0
  0
LINE
  8
0
 62
     250
 10
148.582
 20
526.528
 30
0.0
 11
153.246
 21
529.336
 31
0.0
  0
LINE
  8
0
 62
     250
 10
153.246
 20
529.336
 30
0.0
 11
160.521
 21
533.121
 31
0.0
  0
LINE
  8
0
 62
     250
 10
160.521
 20
533.121
 30
0.0
 11
168.595
 21
536.776
 31
0.0
  0
LINE
  8
0
 62
     250
 10
168.595
 20
536.776
 30
0.0
 11
177.14
 21
540.262
 31
0.0
  0
LINE
  8
0
 62
     250
 10
177.14
 20
540.262
 30
0.0
 11
185.821
 21
543.521
 31
0.0
  0
LINE
  8
0
 62
     250
 10
185.821
 20
543.521
 30
0.0
 11
194.312
 21
546.513
 31
0.0
  0
LINE
  8
0
 62
     250
 10
194.312
 20
546.513
 30
0.0
 11
202.277
 21
549.18
 31
0.0
  0
LINE
  8
0
 62
     250
 10
202.277
 20
549.18
 30
0.0
 11
207.605
 21
550.908
 31
0.0
  0
LINE
  8
0
 62
     250
 10
207.605
 20
550.908
 30
0.0
 11
209.386
 21
551.476
 31
0.0
  0
LINE
  8
0
 62
     250
 10
209.386
 20
551.476
 30
0.0
 11
211.279
 21
552.083
 31
0.0
  0
LINE
  8
0
 62
     250
 10
211.279
 20
552.083
 30
0.0
 11
216.994
 21
553.791
 31
0.0
  0
LINE
  8
0
 62
     250
 10
216.994
 20
553.791
 30
0.0
 11
226.406
 21
556.465
 31
0.0
  0
LINE
  8
0
 62
     250
 10
226.406
 20
556.465
 30
0.0
 11
237.213
 21
559.382
 31
0.0
  0
LINE
  8
0
 62
     250
 10
237.213
 20
559.382
 30
0.0
 11
249.006
 21
562.43
 31
0.0
  0
LINE
  8
0
 62
     250
 10
249.006
 20
562.43
 30
0.0
 11
261.375
 21
565.503
 31
0.0
  0
LINE
  8
0
 62
     250
 10
261.375
 20
565.503
 30
0.0
 11
273.914
 21
568.48
 31
0.0
  0
LINE
  8
0
 62
     250
 10
273.914
 20
568.48
 30
0.0
 11
286.213
 21
571.25
 31
0.0
  0
LINE
  8
0
 62
     250
 10
286.213
 20
571.25
 30
0.0
 11
294.945
 21
573.112
 31
0.0
  0
LINE
  8
0
 62
     250
 10
294.945
 20
573.112
 30
0.0
 11
297.864
 21
573.698
 31
0.0
  0
LINE
  8
0
 62
     250
 10
297.864
 20
573.698
 30
0.0
 11
300.809
 21
574.294
 31
0.0
  0
LINE
  8
0
 62
     250
 10
300.809
 20
574.294
 30
0.0
 11
309.659
 21
576.026
 31
0.0
  0
LINE
  8
0
 62
     250
 10
309.659
 20
576.026
 30
0.0
 11
322.458
 21
578.439
 31
0.0
  0
LINE
  8
0
 62
     250
 10
322.458
 20
578.439
 30
0.0
 11
335.944
 21
580.859
 31
0.0
  0
LINE
  8
0
 62
     250
 10
335.944
 20
580.859
 30
0.0
 11
349.801
 21
583.205
 31
0.0
  0
LINE
  8
0
 62
     250
 10
349.801
 20
583.205
 30
0.0
 11
363.714
 21
585.392
 31
0.0
  0
LINE
  8
0
 62
     250
 10
363.714
 20
585.392
 30
0.0
 11
377.37
 21
587.34
 31
0.0
  0
LINE
  8
0
 62
     250
 10
377.37
 20
587.34
 30
0.0
 11
390.454
 21
588.97
 31
0.0
  0
LINE
  8
0
 62
     250
 10
390.454
 20
588.97
 30
0.0
 11
399.595
 21
589.933
 31
0.0
  0
LINE
  8
0
 62
     250
 10
399.595
 20
589.933
 30
0.0
 11
402.65
 21
590.194
 31
0.0
  0
LINE
  8
0
 62
     250
 10
402.65
 20
590.194
 30
0.0
 11
405.37
 21
590.427
 31
0.0
  0
LINE
  8
0
 62
     250
 10
405.37
 20
590.427
 30
0.0
 11
413.54
 21
591.111
 31
0.0
  0
LINE
  8
0
 62
     250
 10
413.54
 20
591.111
 30
0.0
 11
423.041
 21
591.876
 31
0.0
  0
LINE
  8
0
 62
     250
 10
423.041
 20
591.876
 30
0.0
 11
431.317
 21
592.487
 31
0.0
  0
LINE
  8
0
 62
     250
 10
431.317
 20
592.487
 30
0.0
 11
438.538
 21
592.952
 31
0.0
  0
LINE
  8
0
 62
     250
 10
438.538
 20
592.952
 30
0.0
 11
444.874
 21
593.273
 31
0.0
  0
LINE
  8
0
 62
     250
 10
444.874
 20
593.273
 30
0.0
 11
450.49
 21
593.453
 31
0.0
  0
LINE
  8
0
 62
     250
 10
450.49
 20
593.453
 30
0.0
 11
455.56
 21
593.499
 31
0.0
  0
LINE
  8
0
 62
     250
 10
455.56
 20
593.499
 30
0.0
 11
459.077
 21
593.446
 31
0.0
  0
LINE
  8
0
 62
     250
 10
459.077
 20
593.446
 30
0.0
 11
460.248
 21
593.407
 31
0.0
  0
LINE
  8
0
 62
     250
 10
460.248
 20
593.407
 30
0.0
 11
460.872
 21
593.386
 31
0.0
  0
LINE
  8
0
 62
     250
 10
460.872
 20
593.386
 30
0.0
 11
462.749
 21
593.256
 31
0.0
  0
LINE
  8
0
 62
     250
 10
462.749
 20
593.256
 30
0.0
 11
465.667
 21
592.974
 31
0.0
  0
LINE
  8
0
 62
     250
 10
465.667
 20
592.974
 30
0.0
 11
468.916
 21
592.571
 31
0.0
  0
LINE
  8
0
 62
     250
 10
468.916
 20
592.571
 30
0.0
 11
472.44
 21
592.074
 31
0.0
  0
LINE
  8
0
 62
     250
 10
472.44
 20
592.074
 30
0.0
 11
476.162
 21
591.499
 31
0.0
  0
LINE
  8
0
 62
     250
 10
476.162
 20
591.499
 30
0.0
 11
480.011
 21
590.857
 31
0.0
  0
LINE
  8
0
 62
     250
 10
480.011
 20
590.857
 30
0.0
 11
483.916
 21
590.173
 31
0.0
  0
LINE
  8
0
 62
     250
 10
483.916
 20
590.173
 30
0.0
 11
487.814
 21
589.46
 31
0.0
  0
LINE
  8
0
 62
     250
 10
487.814
 20
589.46
 30
0.0
 11
491.631
 21
588.737
 31
0.0
  0
LINE
  8
0
 62
     250
 10
491.631
 20
588.737
 30
0.0
 11
495.293
 21
588.021
 31
0.0
  0
LINE
  8
0
 62
     250
 10
495.293
 20
588.021
 30
0.0
 11
498.74
 21
587.333
 31
0.0
  0
LINE
  8
0
 62
     250
 10
498.74
 20
587.333
 30
0.0
 11
501.89
 21
586.687
 31
0.0
  0
LINE
  8
0
 62
     250
 10
501.89
 20
586.687
 30
0.0
 11
504.68
 21
586.098
 31
0.0
  0
LINE
  8
0
 62
     250
 10
504.68
 20
586.098
 30
0.0
 11
507.037
 21
585.593
 31
0.0
  0
LINE
  8
0
 62
     250
 10
507.037
 20
585.593
 30
0.0
 11
508.896
 21
585.181
 31
0.0
  0
LINE
  8
0
 62
     250
 10
508.896
 20
585.181
 30
0.0
 11
509.859
 21
584.958
 31
0.0
  0
LINE
  8
0
 62
     250
 10
509.859
 20
584.958
 30
0.0
 11
510.18
 21
584.881
 31
0.0
  0
LINE
  8
0
 62
     250
 10
1117.58
 20
677.485
 30
0.0
 11
1118.76
 21
677.213
 31
0.0
  0
LINE
  8
0
 62
     250
 10
1118.76
 20
677.213
 30
0.0
 11
1123.86
 21
676.039
 31
0.0
  0
LINE
  8
0
 62
     250
 10
1123.86
 20
676.039
 30
0.0
 11
1127.75
 21
675.16
 31
0.0
  0
LINE
  8
0
 62
     250
 10
1127.75
 20
675.16
 30
0.0
 11
1128.33
 21
675.03
 31
0.0
  0
LINE
  8
0
 62
     250
 10
1128.33
 20
675.03
 30
0.0
 11
1129.13
 21
674.857
 31
0.0
  0
LINE
  8
0
 62
     250
 10
1129.13
 20
674.857
 30
0.0
 11
1131.51
 21
674.324
 31
0.0
  0
LINE
  8
0
 62
     250
 10
1131.51
 20
674.324
 30
0.0
 11
1135.31
 21
673.474
 31
0.0
  0
LINE
  8
0
 62
     250
 10
1135.31
 20
673.474
 30
0.0
 11
1139.65
 21
672.493
 31
0.0
  0
LINE
  8
0
 62
     250
 10
1139.65
 20
672.493
 30
0.0
 11
1144.46
 21
671.4
 31
0.0
  0
LINE
  8
0
 62
     250
 10
1144.46
 20
671.4
 30
0.0
 11
1149.67
 21
670.204
 31
0.0
  0
LINE
  8
0
 62
     250
 10
1149.67
 20
670.204
 30
0.0
 11
1155.21
 21
668.93
 31
0.0
  0
LINE
  8
0
 62
     250
 10
1155.21
 20
668.93
 30
0.0
 11
1160.99
 21
667.586
 31
0.0
  0
LINE
  8
0
 62
     250
 10
1160.99
 20
667.586
 30
0.0
 11
1166.95
 21
666.193
 31
0.0
  0
LINE
  8
0
 62
     250
 10
1166.95
 20
666.193
 30
0.0
 11
1173.02
 21
664.76
 31
0.0
  0
LINE
  8
0
 62
     250
 10
1173.02
 20
664.76
 30
0.0
 11
1179.11
 21
663.31
 31
0.0
  0
LINE
  8
0
 62
     250
 10
1179.11
 20
663.31
 30
0.0
 11
1185.16
 21
661.853
 31
0.0
  0
LINE
  8
0
 62
     250
 10
1185.16
 20
661.853
 30
0.0
 11
1191.09
 21
660.407
 31
0.0
  0
LINE
  8
0
 62
     250
 10
1191.09
 20
660.407
 30
0.0
 11
1196.83
 21
658.989
 31
0.0
  0
LINE
  8
0
 62
     250
 10
1196.83
 20
658.989
 30
0.0
 11
1202.31
 21
657.613
 31
0.0
  0
LINE
  8
0
 62
     250
 10
1202.31
 20
657.613
 30
0.0
 11
1207.44
 21
656.294
 31
0.0
  0
LINE
  8
0
 62
     250
 10
1207.44
 20
656.294
 30
0.0
 11
1210.99
 21
655.362
 31
0.0
  0
LINE
  8
0
 62
     250
 10
1210.99
 20
655.362
 30
0.0
 11
1212.17
 21
655.045
 31
0.0
  0
LINE
  8
0
 62
     250
 10
1212.17
 20
655.045
 30
0.0
 11
1214.64
 21
654.382
 31
0.0
  0
LINE
  8
0
 62
     250
 10
1214.64
 20
654.382
 30
0.0
 11
1222.05
 21
652.35
 31
0.0
  0
LINE
  8
0
 62
     250
 10
1222.05
 20
652.35
 30
0.0
 11
1233.43
 21
649.143
 31
0.0
  0
LINE
  8
0
 62
     250
 10
1233.43
 20
649.143
 30
0.0
 11
1245.84
 21
645.52
 31
0.0
  0
LINE
  8
0
 62
     250
 10
1245.84
 20
645.52
 30
0.0
 11
1258.83
 21
641.576
 31
0.0
  0
LINE
  8
0
 62
     250
 10
1258.83
 20
641.576
 30
0.0
 11
1271.96
 21
637.399
 31
0.0
  0
LINE
  8
0
 62
     250
 10
1271.96
 20
637.399
 30
0.0
 11
1284.77
 21
633.091
 31
0.0
  0
LINE
  8
0
 62
     250
 10
1284.77
 20
633.091
 30
0.0
 11
1296.81
 21
628.738
 31
0.0
  0
LINE
  8
0
 62
     250
 10
1296.81
 20
628.738
 30
0.0
 11
1304.94
 21
625.567
 31
0.0
  0
LINE
  8
0
 62
     250
 10
1304.94
 20
625.567
 30
0.0
 11
1307.62
 21
624.434
 31
0.0
  0
LINE
  8
0
 62
     250
 10
1307.62
 20
624.434
 30
0.0
 11
1310.09
 21
623.394
 31
0.0
  0
LINE
  8
0
 62
     250
 10
1310.09
 20
623.394
 30
0.0
 11
1317.44
 21
620.183
 31
0.0
  0
LINE
  8
0
 62
     250
 10
1317.44
 20
620.183
 30
0.0
 11
1326.8
 21
615.83
 31
0.0
  0
LINE
  8
0
 62
     250
 10
1326.8
 20
615.83
 30
0.0
 11
1335.73
 21
611.258
 31
0.0
  0
LINE
  8
0
 62
     250
 10
1335.73
 20
611.258
 30
0.0
 11
1344.24
 21
606.337
 31
0.0
  0
LINE
  8
0
 62
     250
 10
1344.24
 20
606.337
 30
0.0
 11
1352.35
 21
600.943
 31
0.0
  0
LINE
  8
0
 62
     250
 10
1352.35
 20
600.943
 30
0.0
 11
1360.08
 21
594.953
 31
0.0
  0
LINE
  8
0
 62
     250
 10
1360.08
 20
594.953
 30
0.0
 11
1367.45
 21
588.243
 31
0.0
  0
LINE
  8
0
 62
     250
 10
1367.45
 20
588.243
 30
0.0
 11
1372.81
 21
582.648
 31
0.0
  0
LINE
  8
0
 62
     250
 10
1372.81
 20
582.648
 30
0.0
 11
1374.49
 21
580.69
 31
0.0
  0
LINE
  8
0
 62
     250
 10
1374.49
 20
580.69
 30
0.0
 11
1375.35
 21
579.677
 31
0.0
  0
LINE
  8
0
 62
     250
 10
1375.35
 20
579.677
 30
0.0
 11
1377.76
 21
576.467
 31
0.0
  0
LINE
  8
0
 62
     250
 10
1377.76
 20
576.467
 30
0.0
 11
1380.71
 21
571.87
 31
0.0
  0
LINE
  8
0
 62
     250
 10
1380.71
 20
571.87
 30
0.0
 11
1383.36
 21
566.984
 31
0.0
  0
LINE
  8
0
 62
     250
 10
1383.36
 20
566.984
 30
0.0
 11
1385.73
 21
561.883
 31
0.0
  0
LINE
  8
0
 62
     250
 10
1385.73
 20
561.883
 30
0.0
 11
1387.82
 21
556.648
 31
0.0
  0
LINE
  8
0
 62
     250
 10
1387.82
 20
556.648
 30
0.0
 11
1389.66
 21
551.356
 31
0.0
  0
LINE
  8
0
 62
     250
 10
1389.66
 20
551.356
 30
0.0
 11
1391.26
 21
546.093
 31
0.0
  0
LINE
  8
0
 62
     250
 10
1391.26
 20
546.093
 30
0.0
 11
1392.64
 21
540.928
 31
0.0
  0
LINE
  8
0
 62
     250
 10
1392.64
 20
540.928
 30
0.0
 11
1393.8
 21
535.951
 31
0.0
  0
LINE
  8
0
 62
     250
 10
1393.8
 20
535.951
 30
0.0
 11
1394.78
 21
531.234
 31
0.0
  0
LINE
  8
0
 62
     250
 10
1394.78
 20
531.234
 30
0.0
 11
1395.57
 21
526.859
 31
0.0
  0
LINE
  8
0
 62
     250
 10
1395.57
 20
526.859
 30
0.0
 11
1396.2
 21
522.908
 31
0.0
  0
LINE
  8
0
 62
     250
 10
1396.2
 20
522.908
 30
0.0
 11
1396.69
 21
519.458
 31
0.0
  0
LINE
  8
0
 62
     250
 10
1396.69
 20
519.458
 30
0.0
 11
1397.04
 21
516.587
 31
0.0
  0
LINE
  8
0
 62
     250
 10
1397.04
 20
516.587
 30
0.0
 11
1397.28
 21
514.375
 31
0.0
  0
LINE
  8
0
 62
     250
 10
1397.28
 20
514.375
 30
0.0
 11
1397.38
 21
513.27
 31
0.0
  0
LINE
  8
0
 62
     250
 10
1397.38
 20
513.27
 30
0.0
 11
1397.42
 21
512.9
 31
0.0
  0
LINE
  8
0
 62
     250
 10
1397.42
 20
512.9
 30
0.0
 11
1397.49
 21
511.986
 31
0.0
  0
LINE
  8
0
 62
     250
 10
1397.49
 20
511.986
 30
0.0
 11
1397.7
 21
509.235
 31
0.0
  0
LINE
  8
0
 62
     250
 10
1397.7
 20
509.235
 30
0.0
 11
1398.04
 21
504.137
 31
0.0
  0
LINE
  8
0
 62
     250
 10
1398.04
 20
504.137
 30
0.0
 11
1398.42
 21
497.935
 31
0.0
  0
LINE
  8
0
 62
     250
 10
1398.42
 20
497.935
 30
0.0
 11
1398.8
 21
490.954
 31
0.0
  0
LINE
  8
0
 62
     250
 10
1398.8
 20
490.954
 30
0.0
 11
1399.16
 21
483.514
 31
0.0
  0
LINE
  8
0
 62
     250
 10
1399.16
 20
483.514
 30
0.0
 11
1399.48
 21
475.943
 31
0.0
  0
LINE
  8
0
 62
     250
 10
1399.48
 20
475.943
 30
0.0
 11
1399.72
 21
468.566
 31
0.0
  0
LINE
  8
0
 62
     250
 10
1399.72
 20
468.566
 30
0.0
 11
1399.83
 21
463.419
 31
0.0
  0
LINE
  8
0
 62
     250
 10
1399.83
 20
463.419
 30
0.0
 11
1399.85
 21
461.701
 31
0.0
  0
LINE
  8
0
 62
     250
 10
1399.85
 20
461.701
 30
0.0
 11
1399.87
 21
459.955
 31
0.0
  0
LINE
  8
0
 62
     250
 10
1399.87
 20
459.955
 30
0.0
 11
1399.91
 21
454.716
 31
0.0
  0
LINE
  8
0
 62
     250
 10
1399.91
 20
454.716
 30
0.0
 11
1399.93
 21
447.001
 31
0.0
  0
LINE
  8
0
 62
     250
 10
1399.93
 20
447.001
 30
0.0
 11
1399.92
 21
438.891
 31
0.0
  0
LINE
  8
0
 62
     250
 10
1399.92
 20
438.891
 30
0.0
 11
1399.9
 21
430.742
 31
0.0
  0
LINE
  8
0
 62
     250
 10
1399.9
 20
430.742
 30
0.0
 11
1399.85
 21
422.899
 31
0.0
  0
LINE
  8
0
 62
     250
 10
1399.85
 20
422.899
 30
0.0
 11
1399.79
 21
415.71
 31
0.0
  0
LINE
  8
0
 62
     250
 10
1399.79
 20
415.71
 30
0.0
 11
1399.72
 21
409.519
 31
0.0
  0
LINE
  8
0
 62
     250
 10
1399.72
 20
409.519
 30
0.0
 11
1399.67
 21
405.888
 31
0.0
  0
LINE
  8
0
 62
     250
 10
1399.67
 20
405.888
 30
0.0
 11
1399.65
 21
404.675
 31
0.0
  0
LINE
  8
0
 62
     250
 10
1399.65
 20
404.675
 30
0.0
 11
1399.63
 21
403.44
 31
0.0
  0
LINE
  8
0
 62
     250
 10
1399.63
 20
403.44
 30
0.0
 11
1399.52
 21
399.736
 31
0.0
  0
LINE
  8
0
 62
     250
 10
1399.52
 20
399.736
 30
0.0
 11
1399.29
 21
393.361
 31
0.0
  0
LINE
  8
0
 62
     250
 10
1399.29
 20
393.361
 30
0.0
 11
1399
 21
386.055
 31
0.0
  0
LINE
  8
0
 62
     250
 10
1399
 20
386.055
 30
0.0
 11
1398.68
 21
378.319
 31
0.0
  0
LINE
  8
0
 62
     250
 10
1398.68
 20
378.319
 30
0.0
 11
1398.38
 21
370.657
 31
0.0
  0
LINE
  8
0
 62
     250
 10
1398.38
 20
370.657
 30
0.0
 11
1398.11
 21
363.573
 31
0.0
  0
LINE
  8
0
 62
     250
 10
1398.11
 20
363.573
 30
0.0
 11
1397.93
 21
357.569
 31
0.0
  0
LINE
  8
0
 62
     250
 10
1397.93
 20
357.569
 30
0.0
 11
1397.86
 21
354.252
 31
0.0
  0
LINE
  8
0
 62
     250
 10
1397.86
 20
354.252
 30
0.0
 11
1397.86
 21
353.148
 31
0.0
  0
LINE
  8
0
 62
     250
 10
1397.86
 20
353.148
 30
0.0
 11
1397.86
 21
351.905
 31
0.0
  0
LINE
  8
0
 62
     250
 10
1397.86
 20
351.905
 30
0.0
 11
1397.89
 21
348.176
 31
0.0
  0
LINE
  8
0
 62
     250
 10
1397.89
 20
348.176
 30
0.0
 11
1397.95
 21
343.588
 31
0.0
  0
LINE
  8
0
 62
     250
 10
1397.95
 20
343.588
 30
0.0
 11
1398.05
 21
339.303
 31
0.0
  0
LINE
  8
0
 62
     250
 10
1398.05
 20
339.303
 30
0.0
 11
1398.19
 21
335.25
 31
0.0
  0
LINE
  8
0
 62
     250
 10
1398.19
 20
335.25
 30
0.0
 11
1398.35
 21
331.351
 31
0.0
  0
LINE
  8
0
 62
     250
 10
1398.35
 20
331.351
 30
0.0
 11
1398.52
 21
327.529
 31
0.0
  0
LINE
  8
0
 62
     250
 10
1398.52
 20
327.529
 30
0.0
 11
1398.71
 21
323.71
 31
0.0
  0
LINE
  8
0
 62
     250
 10
1398.71
 20
323.71
 30
0.0
 11
1398.9
 21
319.815
 31
0.0
  0
LINE
  8
0
 62
     250
 10
1398.9
 20
319.815
 30
0.0
 11
1399.1
 21
315.769
 31
0.0
  0
LINE
  8
0
 62
     250
 10
1399.1
 20
315.769
 30
0.0
 11
1399.29
 21
311.497
 31
0.0
  0
LINE
  8
0
 62
     250
 10
1399.29
 20
311.497
 30
0.0
 11
1399.47
 21
306.922
 31
0.0
  0
LINE
  8
0
 62
     250
 10
1399.47
 20
306.922
 30
0.0
 11
1399.62
 21
301.968
 31
0.0
  0
LINE
  8
0
 62
     250
 10
1399.62
 20
301.968
 30
0.0
 11
1399.76
 21
296.558
 31
0.0
  0
LINE
  8
0
 62
     250
 10
1399.76
 20
296.558
 30
0.0
 11
1399.86
 21
290.617
 31
0.0
  0
LINE
  8
0
 62
     250
 10
1399.86
 20
290.617
 30
0.0
 11
1399.92
 21
284.069
 31
0.0
  0
LINE
  8
0
 62
     250
 10
1399.92
 20
284.069
 30
0.0
 11
1399.95
 21
278.645
 31
0.0
  0
LINE
  8
0
 62
     250
 10
1399.95
 20
278.645
 30
0.0
 11
1399.95
 21
276.835
 31
0.0
  0
LINE
  8
0
 62
     250
 10
1399.95
 20
276.835
 30
0.0
 11
1399.95
 21
273.009
 31
0.0
  0
LINE
  8
0
 62
     250
 10
1399.95
 20
273.009
 30
0.0
 11
1399.94
 21
261.525
 31
0.0
  0
LINE
  8
0
 62
     250
 10
1399.94
 20
261.525
 30
0.0
 11
1399.84
 21
246.175
 31
0.0
  0
LINE
  8
0
 62
     250
 10
1399.84
 20
246.175
 30
0.0
 11
1399.59
 21
231.061
 31
0.0
  0
LINE
  8
0
 62
     250
 10
1399.59
 20
231.061
 30
0.0
 11
1399.09
 21
216.457
 31
0.0
  0
LINE
  8
0
 62
     250
 10
1399.09
 20
216.457
 30
0.0
 11
1398.28
 21
202.64
 31
0.0
  0
LINE
  8
0
 62
     250
 10
1398.28
 20
202.64
 30
0.0
 11
1397.06
 21
189.884
 31
0.0
  0
LINE
  8
0
 62
     250
 10
1397.06
 20
189.884
 30
0.0
 11
1395.36
 21
178.466
 31
0.0
  0
LINE
  8
0
 62
     250
 10
1395.36
 20
178.466
 30
0.0
 11
1393.79
 21
171.071
 31
0.0
  0
LINE
  8
0
 62
     250
 10
1393.79
 20
171.071
 30
0.0
 11
1393.1
 21
168.657
 31
0.0
  0
LINE
  8
0
 62
     250
 10
1393.1
 20
168.657
 30
0.0
 11
1392.78
 21
167.574
 31
0.0
  0
LINE
  8
0
 62
     250
 10
1392.78
 20
167.574
 30
0.0
 11
1391.82
 21
164.331
 31
0.0
  0
LINE
  8
0
 62
     250
 10
1391.82
 20
164.331
 30
0.0
 11
1390.55
 21
160.241
 31
0.0
  0
LINE
  8
0
 62
     250
 10
1390.55
 20
160.241
 30
0.0
 11
1389.26
 21
156.354
 31
0.0
  0
LINE
  8
0
 62
     250
 10
1389.26
 20
156.354
 30
0.0
 11
1387.89
 21
152.637
 31
0.0
  0
LINE
  8
0
 62
     250
 10
1387.89
 20
152.637
 30
0.0
 11
1386.44
 21
149.057
 31
0.0
  0
LINE
  8
0
 62
     250
 10
1386.44
 20
149.057
 30
0.0
 11
1384.86
 21
145.583
 31
0.0
  0
LINE
  8
0
 62
     250
 10
1384.86
 20
145.583
 30
0.0
 11
1383.11
 21
142.18
 31
0.0
  0
LINE
  8
0
 62
     250
 10
1383.11
 20
142.18
 30
0.0
 11
1381.18
 21
138.817
 31
0.0
  0
LINE
  8
0
 62
     250
 10
1381.18
 20
138.817
 30
0.0
 11
1379.03
 21
135.46
 31
0.0
  0
LINE
  8
0
 62
     250
 10
1379.03
 20
135.46
 30
0.0
 11
1376.62
 21
132.078
 31
0.0
  0
LINE
  8
0
 62
     250
 10
1376.62
 20
132.078
 30
0.0
 11
1373.92
 21
128.636
 31
0.0
  0
LINE
  8
0
 62
     250
 10
1373.92
 20
128.636
 30
0.0
 11
1370.9
 21
125.102
 31
0.0
  0
LINE
  8
0
 62
     250
 10
1370.9
 20
125.102
 30
0.0
 11
1367.53
 21
121.444
 31
0.0
  0
LINE
  8
0
 62
     250
 10
1367.53
 20
121.444
 30
0.0
 11
1363.77
 21
117.63
 31
0.0
  0
LINE
  8
0
 62
     250
 10
1363.77
 20
117.63
 30
0.0
 11
1359.6
 21
113.625
 31
0.0
  0
LINE
  8
0
 62
     250
 10
1359.6
 20
113.625
 30
0.0
 11
1356.14
 21
110.44
 31
0.0
  0
LINE
  8
0
 62
     250
 10
1356.14
 20
110.44
 30
0.0
 11
1354.98
 21
109.396
 31
0.0
  0
LINE
  8
0
 62
     250
 10
1354.98
 20
109.396
 30
0.0
 11
1353.66
 21
108.217
 31
0.0
  0
LINE
  8
0
 62
     250
 10
1353.66
 20
108.217
 30
0.0
 11
1349.39
 21
105.031
 31
0.0
  0
LINE
  8
0
 62
     250
 10
1349.39
 20
105.031
 30
0.0
 11
1342.49
 21
100.659
 31
0.0
  0
LINE
  8
0
 62
     250
 10
1342.49
 20
100.659
 30
0.0
 11
1334.47
 21
96.3097
 31
0.0
  0
LINE
  8
0
 62
     250
 10
1334.47
 20
96.3097
 30
0.0
 11
1325.55
 21
92.0171
 31
0.0
  0
LINE
  8
0
 62
     250
 10
1325.55
 20
92.0171
 30
0.0
 11
1315.92
 21
87.8099
 31
0.0
  0
LINE
  8
0
 62
     250
 10
1315.92
 20
87.8099
 30
0.0
 11
1305.79
 21
83.7212
 31
0.0
  0
LINE
  8
0
 62
     250
 10
1305.79
 20
83.7212
 30
0.0
 11
1295.36
 21
79.7828
 31
0.0
  0
LINE
  8
0
 62
     250
 10
1295.36
 20
79.7828
 30
0.0
 11
1284.84
 21
76.0264
 31
0.0
  0
LINE
  8
0
 62
     250
 10
1284.84
 20
76.0264
 30
0.0
 11
1274.43
 21
72.4821
 31
0.0
  0
LINE
  8
0
 62
     250
 10
1274.43
 20
72.4821
 30
0.0
 11
1264.34
 21
69.1829
 31
0.0
  0
LINE
  8
0
 62
     250
 10
1264.34
 20
69.1829
 30
0.0
 11
1254.76
 21
66.1596
 31
0.0
  0
LINE
  8
0
 62
     250
 10
1254.76
 20
66.1596
 30
0.0
 11
1245.92
 21
63.4436
 31
0.0
  0
LINE
  8
0
 62
     250
 10
1245.92
 20
63.4436
 30
0.0
 11
1238
 21
61.0665
 31
0.0
  0
LINE
  8
0
 62
     250
 10
1238
 20
61.0665
 30
0.0
 11
1231.21
 21
59.0599
 31
0.0
  0
LINE
  8
0
 62
     250
 10
1231.21
 20
59.0599
 30
0.0
 11
1225.76
 21
57.4544
 31
0.0
  0
LINE
  8
0
 62
     250
 10
1225.76
 20
57.4544
 30
0.0
 11
1222.82
 21
56.5838
 31
0.0
  0
LINE
  8
0
 62
     250
 10
1222.82
 20
56.5838
 30
0.0
 11
1221.85
 21
56.2832
 31
0.0
  0
LINE
  8
0
 62
     250
 10
1221.85
 20
56.2832
 30
0.0
 11
1221.32
 21
56.122
 31
0.0
  0
LINE
  8
0
 62
     250
 10
1221.32
 20
56.122
 30
0.0
 11
1219.73
 21
55.6796
 31
0.0
  0
LINE
  8
0
 62
     250
 10
1219.73
 20
55.6796
 30
0.0
 11
1216.75
 21
54.8982
 31
0.0
  0
LINE
  8
0
 62
     250
 10
1216.75
 20
54.8982
 30
0.0
 11
1212.97
 21
53.9531
 31
0.0
  0
LINE
  8
0
 62
     250
 10
1212.97
 20
53.9531
 30
0.0
 11
1208.46
 21
52.8546
 31
0.0
  0
LINE
  8
0
 62
     250
 10
1208.46
 20
52.8546
 30
0.0
 11
1203.27
 21
51.6184
 31
0.0
  0
LINE
  8
0
 62
     250
 10
1203.27
 20
51.6184
 30
0.0
 11
1197.47
 21
50.2557
 31
0.0
  0
LINE
  8
0
 62
     250
 10
1197.47
 20
50.2557
 30
0.0
 11
1191.12
 21
48.7786
 31
0.0
  0
LINE
  8
0
 62
     250
 10
1191.12
 20
48.7786
 30
0.0
 11
1184.29
 21
47.202
 31
0.0
  0
LINE
  8
0
 62
     250
 10
1184.29
 20
47.202
 30
0.0
 11
1177.04
 21
45.5373
 31
0.0
  0
LINE
  8
0
 62
     250
 10
1177.04
 20
45.5373
 30
0.0
 11
1169.42
 21
43.7967
 31
0.0
  0
LINE
  8
0
 62
     250
 10
1169.42
 20
43.7967
 30
0.0
 11
1161.51
 21
41.9957
 31
0.0
  0
LINE
  8
0
 62
     250
 10
1161.51
 20
41.9957
 30
0.0
 11
1153.37
 21
40.1436
 31
0.0
  0
LINE
  8
0
 62
     250
 10
1153.37
 20
40.1436
 30
0.0
 11
1145.05
 21
38.257
 31
0.0
  0
LINE
  8
0
 62
     250
 10
1145.05
 20
38.257
 30
0.0
 11
1136.63
 21
36.3456
 31
0.0
  0
LINE
  8
0
 62
     250
 10
1136.63
 20
36.3456
 30
0.0
 11
1128.17
 21
34.4234
 31
0.0
  0
LINE
  8
0
 62
     250
 10
1128.17
 20
34.4234
 30
0.0
 11
1121.83
 21
32.9833
 31
0.0
  0
LINE
  8
0
 62
     250
 10
1121.83
 20
32.9833
 30
0.0
 11
1119.72
 21
32.5024
 31
0.0
  0
LINE
  8
0
 62
     250
 10
1959.88
 20
350.268
 30
0.0
 11
1959.84
 21
348.589
 31
0.0
  0
LINE
  8
0
 62
     250
 10
1959.84
 20
348.589
 30
0.0
 11
1959.69
 21
343.545
 31
0.0
  0
LINE
  8
0
 62
     250
 10
1959.69
 20
343.545
 30
0.0
 11
1959.41
 21
336.273
 31
0.0
  0
LINE
  8
0
 62
     250
 10
1959.41
 20
336.273
 30
0.0
 11
1958.99
 21
328.439
 31
0.0
  0
LINE
  8
0
 62
     250
 10
1958.99
 20
328.439
 30
0.0
 11
1958.36
 21
320.027
 31
0.0
  0
LINE
  8
0
 62
     250
 10
1958.36
 20
320.027
 30
0.0
 11
1957.47
 21
311.023
 31
0.0
  0
LINE
  8
0
 62
     250
 10
1957.47
 20
311.023
 30
0.0
 11
1956.26
 21
301.412
 31
0.0
  0
LINE
  8
0
 62
     250
 10
1956.26
 20
301.412
 30
0.0
 11
1954.67
 21
291.18
 31
0.0
  0
LINE
  8
0
 62
     250
 10
1954.67
 20
291.18
 30
0.0
 11
1953.19
 21
283.019
 31
0.0
  0
LINE
  8
0
 62
     250
 10
1953.19
 20
283.019
 30
0.0
 11
1952.64
 21
280.309
 31
0.0
  0
LINE
  8
0
 62
     250
 10
1952.64
 20
280.309
 30
0.0
 11
1952.09
 21
277.614
 31
0.0
  0
LINE
  8
0
 62
     250
 10
1952.09
 20
277.614
 30
0.0
 11
1950.35
 21
269.545
 31
0.0
  0
LINE
  8
0
 62
     250
 10
1950.35
 20
269.545
 30
0.0
 11
1947.97
 21
259.501
 31
0.0
  0
LINE
  8
0
 62
     250
 10
1947.97
 20
259.501
 30
0.0
 11
1945.4
 21
249.968
 31
0.0
  0
LINE
  8
0
 62
     250
 10
1945.4
 20
249.968
 30
0.0
 11
1942.55
 21
240.742
 31
0.0
  0
LINE
  8
0
 62
     250
 10
1942.55
 20
240.742
 30
0.0
 11
1939.32
 21
231.618
 31
0.0
  0
LINE
  8
0
 62
     250
 10
1939.32
 20
231.618
 30
0.0
 11
1935.63
 21
222.389
 31
0.0
  0
LINE
  8
0
 62
     250
 10
1935.63
 20
222.389
 30
0.0
 11
1931.37
 21
212.848
 31
0.0
  0
LINE
  8
0
 62
     250
 10
1931.37
 20
212.848
 30
0.0
 11
1927.73
 21
205.286
 31
0.0
  0
LINE
  8
0
 62
     250
 10
1927.73
 20
205.286
 30
0.0
 11
1926.46
 21
202.791
 31
0.0
  0
LINE
  8
0
 62
     250
 10
1926.46
 20
202.791
 30
0.0
 11
1923.84
 21
197.623
 31
0.0
  0
LINE
  8
0
 62
     250
 10
1923.84
 20
197.623
 30
0.0
 11
1915.2
 21
182.513
 31
0.0
  0
LINE
  8
0
 62
     250
 10
1915.2
 20
182.513
 30
0.0
 11
1902.49
 21
162.91
 31
0.0
  0
LINE
  8
0
 62
     250
 10
1902.49
 20
162.91
 30
0.0
 11
1888.38
 21
143.527
 31
0.0
  0
LINE
  8
0
 62
     250
 10
1888.38
 20
143.527
 30
0.0
 11
1876.85
 21
128.756
 31
0.0
  0
LINE
  8
0
 62
     250
 10
1876.85
 20
128.756
 30
0.0
 11
1872.91
 21
123.905
 31
0.0
  0
LINE
  8
0
 62
     250
 10
1872.91
 20
123.905
 30
0.0
 11
1870.86
 21
121.371
 31
0.0
  0
LINE
  8
0
 62
     250
 10
1870.86
 20
121.371
 30
0.0
 11
1864.35
 21
114.045
 31
0.0
  0
LINE
  8
0
 62
     250
 10
1864.35
 20
114.045
 30
0.0
 11
1854.94
 21
104.435
 31
0.0
  0
LINE
  8
0
 62
     250
 10
1854.94
 20
104.435
 30
0.0
 11
1844.96
 21
95.1907
 31
0.0
  0
LINE
  8
0
 62
     250
 10
1844.96
 20
95.1907
 30
0.0
 11
1834.67
 21
86.4306
 31
0.0
  0
LINE
  8
0
 62
     250
 10
1834.67
 20
86.4306
 30
0.0
 11
1824.31
 21
78.2712
 31
0.0
  0
LINE
  8
0
 62
     250
 10
1824.31
 20
78.2712
 30
0.0
 11
1814.15
 21
70.8283
 31
0.0
  0
LINE
  8
0
 62
     250
 10
1814.15
 20
70.8283
 30
0.0
 11
1804.43
 21
64.2221
 31
0.0
  0
LINE
  8
0
 62
     250
 10
1804.43
 20
64.2221
 30
0.0
 11
1797.71
 21
59.9338
 31
0.0
  0
LINE
  8
0
 62
     250
 10
1797.71
 20
59.9338
 30
0.0
 11
1795.43
 21
58.5653
 31
0.0
  0
LINE
  8
0
 62
     250
 10
1795.43
 20
58.5653
 30
0.0
 11
1793.23
 21
57.2438
 31
0.0
  0
LINE
  8
0
 62
     250
 10
1793.23
 20
57.2438
 30
0.0
 11
1786.43
 21
53.5947
 31
0.0
  0
LINE
  8
0
 62
     250
 10
1786.43
 20
53.5947
 30
0.0
 11
1776.75
 21
48.9864
 31
0.0
  0
LINE
  8
0
 62
     250
 10
1776.75
 20
48.9864
 30
0.0
 11
1766.65
 21
44.7848
 31
0.0
  0
LINE
  8
0
 62
     250
 10
1766.65
 20
44.7848
 30
0.0
 11
1756.41
 21
41.027
 31
0.0
  0
LINE
  8
0
 62
     250
 10
1756.41
 20
41.027
 30
0.0
 11
1746.29
 21
37.7553
 31
0.0
  0
LINE
  8
0
 62
     250
 10
1746.29
 20
37.7553
 30
0.0
 11
1736.56
 21
35.0077
 31
0.0
  0
LINE
  8
0
 62
     250
 10
1736.56
 20
35.0077
 30
0.0
 11
1727.49
 21
32.8263
 31
0.0
  0
LINE
  8
0
 62
     250
 10
1727.49
 20
32.8263
 30
0.0
 11
1721.4
 21
31.5902
 31
0.0
  0
LINE
  8
0
 62
     250
 10
1721.4
 20
31.5902
 30
0.0
 11
1719.36
 21
31.2498
 31
0.0
  0
LINE
  8
0
 62
     250
 10
1719.36
 20
31.2498
 30
0.0
 11
1715.73
 21
30.6462
 31
0.0
  0
LINE
  8
0
 62
     250
 10
1715.73
 20
30.6462
 30
0.0
 11
1704.77
 21
29.2103
 31
0.0
  0
LINE
  8
0
 62
     250
 10
1704.77
 20
29.2103
 30
0.0
 11
1691.17
 21
28.0307
 31
0.0
  0
LINE
  8
0
 62
     250
 10
1691.17
 20
28.0307
 30
0.0
 11
1678.32
 21
27.5594
 31
0.0
  0
LINE
  8
0
 62
     250
 10
1678.32
 20
27.5594
 30
0.0
 11
1669.06
 21
27.5676
 31
0.0
  0
LINE
  8
0
 62
     250
 10
1669.06
 20
27.5676
 30
0.0
 11
1665.97
 21
27.6476
 31
0.0
  0
LINE
  8
0
 62
     250
 10
1665.97
 20
27.6476
 30
0.0
 11
1664.42
 21
27.6889
 31
0.0
  0
LINE
  8
0
 62
     250
 10
1664.42
 20
27.6889
 30
0.0
 11
1659.78
 21
27.9025
 31
0.0
  0
LINE
  8
0
 62
     250
 10
1659.78
 20
27.9025
 30
0.0
 11
1653.35
 21
28.3807
 31
0.0
  0
LINE
  8
0
 62
     250
 10
1653.35
 20
28.3807
 30
0.0
 11
1646.62
 21
29.1303
 31
0.0
  0
LINE
  8
0
 62
     250
 10
1646.62
 20
29.1303
 30
0.0
 11
1639.55
 21
30.1997
 31
0.0
  0
LINE
  8
0
 62
     250
 10
1639.55
 20
30.1997
 30
0.0
 11
1632.07
 21
31.637
 31
0.0
  0
LINE
  8
0
 62
     250
 10
1632.07
 20
31.637
 30
0.0
 11
1624.15
 21
33.4918
 31
0.0
  0
LINE
  8
0
 62
     250
 10
1624.15
 20
33.4918
 30
0.0
 11
1615.71
 21
35.8126
 31
0.0
  0
LINE
  8
0
 62
     250
 10
1615.71
 20
35.8126
 30
0.0
 11
1608.96
 21
37.9003
 31
0.0
  0
LINE
  8
0
 62
     250
 10
1608.96
 20
37.9003
 30
0.0
 11
1606.72
 21
38.6472
 31
0.0
  0
LINE
  8
0
 62
     250
 10
1606.72
 20
38.6472
 30
0.0
 11
1605.59
 21
39.026
 31
0.0
  0
LINE
  8
0
 62
     250
 10
1605.59
 20
39.026
 30
0.0
 11
1602.21
 21
40.1906
 31
0.0
  0
LINE
  8
0
 62
     250
 10
1602.21
 20
40.1906
 30
0.0
 11
1597.94
 21
41.7283
 31
0.0
  0
LINE
  8
0
 62
     250
 10
1597.94
 20
41.7283
 30
0.0
 11
1593.87
 21
43.2841
 31
0.0
  0
LINE
  8
0
 62
     250
 10
1593.87
 20
43.2841
 30
0.0
 11
1589.96
 21
44.8839
 31
0.0
  0
LINE
  8
0
 62
     250
 10
1589.96
 20
44.8839
 30
0.0
 11
1586.18
 21
46.5515
 31
0.0
  0
LINE
  8
0
 62
     250
 10
1586.18
 20
46.5515
 30
0.0
 11
1582.48
 21
48.3097
 31
0.0
  0
LINE
  8
0
 62
     250
 10
1582.48
 20
48.3097
 30
0.0
 11
1578.82
 21
50.1855
 31
0.0
  0
LINE
  8
0
 62
     250
 10
1578.82
 20
50.1855
 30
0.0
 11
1575.17
 21
52.2016
 31
0.0
  0
LINE
  8
0
 62
     250
 10
1575.17
 20
52.2016
 30
0.0
 11
1571.49
 21
54.3842
 31
0.0
  0
LINE
  8
0
 62
     250
 10
1571.49
 20
54.3842
 30
0.0
 11
1567.74
 21
56.7545
 31
0.0
  0
LINE
  8
0
 62
     250
 10
1567.74
 20
56.7545
 30
0.0
 11
1563.87
 21
59.3397
 31
0.0
  0
LINE
  8
0
 62
     250
 10
1563.87
 20
59.3397
 30
0.0
 11
1559.85
 21
62.1647
 31
0.0
  0
LINE
  8
0
 62
     250
 10
1559.85
 20
62.1647
 30
0.0
 11
1555.65
 21
65.2515
 31
0.0
  0
LINE
  8
0
 62
     250
 10
1555.65
 20
65.2515
 30
0.0
 11
1551.21
 21
68.6262
 31
0.0
  0
LINE
  8
0
 62
     250
 10
1551.21
 20
68.6262
 30
0.0
 11
1546.51
 21
72.3124
 31
0.0
  0
LINE
  8
0
 62
     250
 10
1546.51
 20
72.3124
 30
0.0
 11
1542.75
 21
75.3223
 31
0.0
  0
LINE
  8
0
 62
     250
 10
1542.75
 20
75.3223
 30
0.0
 11
1541.51
 21
76.3337
 31
0.0
  0
LINE
  8
0
 62
     250
 10
1541.51
 20
76.3337
 30
0.0
 11
1540.19
 21
77.4058
 31
0.0
  0
LINE
  8
0
 62
     250
 10
1540.19
 20
77.4058
 30
0.0
 11
1536.32
 21
80.7311
 31
0.0
  0
LINE
  8
0
 62
     250
 10
1536.32
 20
80.7311
 30
0.0
 11
1531.12
 21
85.4756
 31
0.0
  0
LINE
  8
0
 62
     250
 10
1531.12
 20
85.4756
 30
0.0
 11
1525.93
 21
90.5041
 31
0.0
  0
LINE
  8
0
 62
     250
 10
1525.93
 20
90.5041
 30
0.0
 11
1520.81
 21
95.7432
 31
0.0
  0
LINE
  8
0
 62
     250
 10
1520.81
 20
95.7432
 30
0.0
 11
1515.78
 21
101.129
 31
0.0
  0
LINE
  8
0
 62
     250
 10
1515.78
 20
101.129
 30
0.0
 11
1510.87
 21
106.591
 31
0.0
  0
LINE
  8
0
 62
     250
 10
1510.87
 20
106.591
 30
0.0
 11
1506.12
 21
112.062
 31
0.0
  0
LINE
  8
0
 62
     250
 10
1506.12
 20
112.062
 30
0.0
 11
1501.57
 21
117.472
 31
0.0
  0
LINE
  8
0
 62
     250
 10
1501.57
 20
117.472
 30
0.0
 11
1497.26
 21
122.756
 31
0.0
  0
LINE
  8
0
 62
     250
 10
1497.26
 20
122.756
 30
0.0
 11
1493.2
 21
127.841
 31
0.0
  0
LINE
  8
0
 62
     250
 10
1493.2
 20
127.841
 30
0.0
 11
1489.45
 21
132.662
 31
0.0
  0
LINE
  8
0
 62
     250
 10
1489.45
 20
132.662
 30
0.0
 11
1486.03
 21
137.15
 31
0.0
  0
LINE
  8
0
 62
     250
 10
1486.03
 20
137.15
 30
0.0
 11
1482.99
 21
141.238
 31
0.0
  0
LINE
  8
0
 62
     250
 10
1482.99
 20
141.238
 30
0.0
 11
1480.34
 21
144.857
 31
0.0
  0
LINE
  8
0
 62
     250
 10
1480.34
 20
144.857
 30
0.0
 11
1478.14
 21
147.937
 31
0.0
  0
LINE
  8
0
 62
     250
 10
1478.14
 20
147.937
 30
0.0
 11
1476.84
 21
149.79
 31
0.0
  0
LINE
  8
0
 62
     250
 10
1476.84
 20
149.79
 30
0.0
 11
1476.42
 21
150.41
 31
0.0
  0
LINE
  8
0
 62
     250
 10
1476.42
 20
150.41
 30
0.0
 11
1476.01
 21
151.004
 31
0.0
  0
LINE
  8
0
 62
     250
 10
1476.01
 20
151.004
 30
0.0
 11
1474.87
 21
152.842
 31
0.0
  0
LINE
  8
0
 62
     250
 10
1474.87
 20
152.842
 30
0.0
 11
1473.18
 21
155.795
 31
0.0
  0
LINE
  8
0
 62
     250
 10
1473.18
 20
155.795
 30
0.0
 11
1471.4
 21
159.199
 31
0.0
  0
LINE
  8
0
 62
     250
 10
1471.4
 20
159.199
 30
0.0
 11
1469.54
 21
162.985
 31
0.0
  0
LINE
  8
0
 62
     250
 10
1469.54
 20
162.985
 30
0.0
 11
1467.63
 21
167.082
 31
0.0
  0
LINE
  8
0
 62
     250
 10
1467.63
 20
167.082
 30
0.0
 11
1465.68
 21
171.422
 31
0.0
  0
LINE
  8
0
 62
     250
 10
1465.68
 20
171.422
 30
0.0
 11
1463.74
 21
175.937
 31
0.0
  0
LINE
  8
0
 62
     250
 10
1463.74
 20
175.937
 30
0.0
 11
1461.82
 21
180.555
 31
0.0
  0
LINE
  8
0
 62
     250
 10
1461.82
 20
180.555
 30
0.0
 11
1459.95
 21
185.207
 31
0.0
  0
LINE
  8
0
 62
     250
 10
1459.95
 20
185.207
 30
0.0
 11
1458.14
 21
189.825
 31
0.0
  0
LINE
  8
0
 62
     250
 10
1458.14
 20
189.825
 30
0.0
 11
1456.44
 21
194.338
 31
0.0
  0
LINE
  8
0
 62
     250
 10
1456.44
 20
194.338
 30
0.0
 11
1454.87
 21
198.679
 31
0.0
  0
LINE
  8
0
 62
     250
 10
1454.87
 20
198.679
 30
0.0
 11
1453.44
 21
202.774
 31
0.0
  0
LINE
  8
0
 62
     250
 10
1453.44
 20
202.774
 30
0.0
 11
1452.18
 21
206.558
 31
0.0
  0
LINE
  8
0
 62
     250
 10
1452.18
 20
206.558
 30
0.0
 11
1451.13
 21
209.961
 31
0.0
  0
LINE
  8
0
 62
     250
 10
1451.13
 20
209.961
 30
0.0
 11
1450.49
 21
212.17
 31
0.0
  0
LINE
  8
0
 62
     250
 10
1450.49
 20
212.17
 30
0.0
 11
1450.29
 21
212.91
 31
0.0
  0
LINE
  8
0
 62
     250
 10
1450.29
 20
212.91
 30
0.0
 11
1450.1
 21
213.659
 31
0.0
  0
LINE
  8
0
 62
     250
 10
1450.1
 20
213.659
 30
0.0
 11
1449.56
 21
215.923
 31
0.0
  0
LINE
  8
0
 62
     250
 10
1449.56
 20
215.923
 30
0.0
 11
1448.78
 21
219.524
 31
0.0
  0
LINE
  8
0
 62
     250
 10
1448.78
 20
219.524
 30
0.0
 11
1447.97
 21
223.655
 31
0.0
  0
LINE
  8
0
 62
     250
 10
1447.97
 20
223.655
 30
0.0
 11
1447.14
 21
228.261
 31
0.0
  0
LINE
  8
0
 62
     250
 10
1447.14
 20
228.261
 30
0.0
 11
1446.29
 21
233.288
 31
0.0
  0
LINE
  8
0
 62
     250
 10
1446.29
 20
233.288
 30
0.0
 11
1445.43
 21
238.677
 31
0.0
  0
LINE
  8
0
 62
     250
 10
1445.43
 20
238.677
 30
0.0
 11
1444.57
 21
244.376
 31
0.0
  0
LINE
  8
0
 62
     250
 10
1444.57
 20
244.376
 30
0.0
 11
1443.73
 21
250.326
 31
0.0
  0
LINE
  8
0
 62
     250
 10
1443.73
 20
250.326
 30
0.0
 11
1442.9
 21
256.474
 31
0.0
  0
LINE
  8
0
 62
     250
 10
1442.9
 20
256.474
 30
0.0
 11
1442.11
 21
262.76
 31
0.0
  0
LINE
  8
0
 62
     250
 10
1442.11
 20
262.76
 30
0.0
 11
1441.35
 21
269.133
 31
0.0
  0
LINE
  8
0
 62
     250
 10
1441.35
 20
269.133
 30
0.0
 11
1440.63
 21
275.535
 31
0.0
  0
LINE
  8
0
 62
     250
 10
1440.63
 20
275.535
 30
0.0
 11
1439.98
 21
281.909
 31
0.0
  0
LINE
  8
0
 62
     250
 10
1439.98
 20
281.909
 30
0.0
 11
1439.38
 21
288.201
 31
0.0
  0
LINE
  8
0
 62
     250
 10
1439.38
 20
288.201
 30
0.0
 11
1438.86
 21
294.356
 31
0.0
  0
LINE
  8
0
 62
     250
 10
1438.86
 20
294.356
 30
0.0
 11
1438.53
 21
298.826
 31
0.0
  0
LINE
  8
0
 62
     250
 10
1438.53
 20
298.826
 30
0.0
 11
1438.43
 21
300.316
 31
0.0
  0
LINE
  8
0
 62
     250
 10
1438.43
 20
300.316
 30
0.0
 11
1438.23
 21
303.296
 31
0.0
  0
LINE
  8
0
 62
     250
 10
1438.23
 20
303.296
 30
0.0
 11
1437.75
 21
312.245
 31
0.0
  0
LINE
  8
0
 62
     250
 10
1437.75
 20
312.245
 30
0.0
 11
1437.27
 21
324.56
 31
0.0
  0
LINE
  8
0
 62
     250
 10
1437.27
 20
324.56
 30
0.0
 11
1437.02
 21
337.116
 31
0.0
  0
LINE
  8
0
 62
     250
 10
1437.02
 20
337.116
 30
0.0
 11
1436.98
 21
349.771
 31
0.0
  0
LINE
  8
0
 62
     250
 10
1436.98
 20
349.771
 30
0.0
 11
1437.16
 21
362.38
 31
0.0
  0
LINE
  8
0
 62
     250
 10
1437.16
 20
362.38
 30
0.0
 11
1437.56
 21
374.802
 31
0.0
  0
LINE
  8
0
 62
     250
 10
1437.56
 20
374.802
 30
0.0
 11
1438.19
 21
386.891
 31
0.0
  0
LINE
  8
0
 62
     250
 10
1438.19
 20
386.891
 30
0.0
 11
1438.8
 21
395.609
 31
0.0
  0
LINE
  8
0
 62
     250
 10
1438.8
 20
395.609
 30
0.0
 11
1439.05
 21
398.508
 31
0.0
  0
LINE
  8
0
 62
     250
 10
1439.05
 20
398.508
 30
0.0
 11
1439.31
 21
401.468
 31
0.0
  0
LINE
  8
0
 62
     250
 10
1439.31
 20
401.468
 30
0.0
 11
1440.21
 21
410.348
 31
0.0
  0
LINE
  8
0
 62
     250
 10
1440.21
 20
410.348
 30
0.0
 11
1441.69
 21
422.938
 31
0.0
  0
LINE
  8
0
 62
     250
 10
1441.69
 20
422.938
 30
0.0
 11
1443.44
 21
435.896
 31
0.0
  0
LINE
  8
0
 62
     250
 10
1443.44
 20
435.896
 30
0.0
 11
1445.36
 21
448.818
 31
0.0
  0
LINE
  8
0
 62
     250
 10
1445.36
 20
448.818
 30
0.0
 11
1447.41
 21
461.313
 31
0.0
  0
LINE
  8
0
 62
     250
 10
1447.41
 20
461.313
 30
0.0
 11
1449.51
 21
472.99
 31
0.0
  0
LINE
  8
0
 62
     250
 10
1449.51
 20
472.99
 30
0.0
 11
1451.59
 21
483.45
 31
0.0
  0
LINE
  8
0
 62
     250
 10
1451.59
 20
483.45
 30
0.0
 11
1453.05
 21
490.104
 31
0.0
  0
LINE
  8
0
 62
     250
 10
1453.05
 20
490.104
 30
0.0
 11
1453.58
 21
492.305
 31
0.0
  0
LINE
  8
0
 62
     250
 10
1453.58
 20
492.305
 30
0.0
 11
1454.06
 21
494.295
 31
0.0
  0
LINE
  8
0
 62
     250
 10
1454.06
 20
494.295
 30
0.0
 11
1455.77
 21
500.197
 31
0.0
  0
LINE
  8
0
 62
     250
 10
1455.77
 20
500.197
 30
0.0
 11
1458.44
 21
507.982
 31
0.0
  0
LINE
  8
0
 62
     250
 10
1458.44
 20
507.982
 30
0.0
 11
1461.53
 21
515.602
 31
0.0
  0
LINE
  8
0
 62
     250
 10
1461.53
 20
515.602
 30
0.0
 11
1464.98
 21
523
 31
0.0
  0
LINE
  8
0
 62
     250
 10
1464.98
 20
523
 30
0.0
 11
1468.73
 21
530.112
 31
0.0
  0
LINE
  8
0
 62
     250
 10
1468.73
 20
530.112
 30
0.0
 11
1472.72
 21
536.871
 31
0.0
  0
LINE
  8
0
 62
     250
 10
1472.72
 20
536.871
 30
0.0
 11
1476.88
 21
543.218
 31
0.0
  0
LINE
  8
0
 62
     250
 10
1476.88
 20
543.218
 30
0.0
 11
1480.05
 21
547.649
 31
0.0
  0
LINE
  8
0
 62
     250
 10
1480.05
 20
547.649
 30
0.0
 11
1481.16
 21
549.092
 31
0.0
  0
LINE
  8
0
 62
     250
 10
1481.16
 20
549.092
 30
0.0
 11
1482.27
 21
550.534
 31
0.0
  0
LINE
  8
0
 62
     250
 10
1482.27
 20
550.534
 30
0.0
 11
1485.73
 21
554.761
 31
0.0
  0
LINE
  8
0
 62
     250
 10
1485.73
 20
554.761
 30
0.0
 11
1490.85
 21
560.469
 31
0.0
  0
LINE
  8
0
 62
     250
 10
1490.85
 20
560.469
 30
0.0
 11
1496.52
 21
566.106
 31
0.0
  0
LINE
  8
0
 62
     250
 10
1496.52
 20
566.106
 30
0.0
 11
1502.77
 21
571.567
 31
0.0
  0
LINE
  8
0
 62
     250
 10
1502.77
 20
571.567
 30
0.0
 11
1509.61
 21
576.746
 31
0.0
  0
LINE
  8
0
 62
     250
 10
1509.61
 20
576.746
 30
0.0
 11
1517.05
 21
581.533
 31
0.0
  0
LINE
  8
0
 62
     250
 10
1517.05
 20
581.533
 30
0.0
 11
1525.13
 21
585.83
 31
0.0
  0
LINE
  8
0
 62
     250
 10
1525.13
 20
585.83
 30
0.0
 11
1531.62
 21
588.698
 31
0.0
  0
LINE
  8
0
 62
     250
 10
1531.62
 20
588.698
 30
0.0
 11
1533.84
 21
589.52
 31
0.0
  0
LINE
  8
0
 62
     250
 10
1533.84
 20
589.52
 30
0.0
 11
1535.02
 21
589.957
 31
0.0
  0
LINE
  8
0
 62
     250
 10
1535.02
 20
589.957
 30
0.0
 11
1538.59
 21
591.157
 31
0.0
  0
LINE
  8
0
 62
     250
 10
1538.59
 20
591.157
 30
0.0
 11
1543.75
 21
592.709
 31
0.0
  0
LINE
  8
0
 62
     250
 10
1543.75
 20
592.709
 30
0.0
 11
1549.25
 21
594.177
 31
0.0
  0
LINE
  8
0
 62
     250
 10
1549.25
 20
594.177
 30
0.0
 11
1555
 21
595.559
 31
0.0
  0
LINE
  8
0
 62
     250
 10
1555
 20
595.559
 30
0.0
 11
1560.95
 21
596.854
 31
0.0
  0
LINE
  8
0
 62
     250
 10
1560.95
 20
596.854
 30
0.0
 11
1567
 21
598.064
 31
0.0
  0
LINE
  8
0
 62
     250
 10
1567
 20
598.064
 30
0.0
 11
1573.09
 21
599.19
 31
0.0
  0
LINE
  8
0
 62
     250
 10
1573.09
 20
599.19
 30
0.0
 11
1579.14
 21
600.227
 31
0.0
  0
LINE
  8
0
 62
     250
 10
1579.14
 20
600.227
 30
0.0
 11
1585.07
 21
601.179
 31
0.0
  0
LINE
  8
0
 62
     250
 10
1585.07
 20
601.179
 30
0.0
 11
1590.82
 21
602.047
 31
0.0
  0
LINE
  8
0
 62
     250
 10
1590.82
 20
602.047
 30
0.0
 11
1596.3
 21
602.823
 31
0.0
  0
LINE
  8
0
 62
     250
 10
1596.3
 20
602.823
 30
0.0
 11
1601.44
 21
603.515
 31
0.0
  0
LINE
  8
0
 62
     250
 10
1601.44
 20
603.515
 30
0.0
 11
1606.17
 21
604.118
 31
0.0
  0
LINE
  8
0
 62
     250
 10
1606.17
 20
604.118
 30
0.0
 11
1610.4
 21
604.633
 31
0.0
  0
LINE
  8
0
 62
     250
 10
1610.4
 20
604.633
 30
0.0
 11
1614.07
 21
605.06
 31
0.0
  0
LINE
  8
0
 62
     250
 10
1614.07
 20
605.06
 30
0.0
 11
1616.35
 21
605.314
 31
0.0
  0
LINE
  8
0
 62
     250
 10
1616.35
 20
605.314
 30
0.0
 11
1617.11
 21
605.398
 31
0.0
  0
LINE
  8
0
 62
     250
 10
1617.11
 20
605.398
 30
0.0
 11
1618.63
 21
605.564
 31
0.0
  0
LINE
  8
0
 62
     250
 10
1618.63
 20
605.564
 30
0.0
 11
1623.2
 21
605.952
 31
0.0
  0
LINE
  8
0
 62
     250
 10
1623.2
 20
605.952
 30
0.0
 11
1630.46
 21
606.432
 31
0.0
  0
LINE
  8
0
 62
     250
 10
1630.46
 20
606.432
 30
0.0
 11
1638.49
 21
606.834
 31
0.0
  0
LINE
  8
0
 62
     250
 10
1638.49
 20
606.834
 30
0.0
 11
1646.92
 21
607.152
 31
0.0
  0
LINE
  8
0
 62
     250
 10
1646.92
 20
607.152
 30
0.0
 11
1655.35
 21
607.377
 31
0.0
  0
LINE
  8
0
 62
     250
 10
1655.35
 20
607.377
 30
0.0
 11
1663.38
 21
607.505
 31
0.0
  0
LINE
  8
0
 62
     250
 10
1663.38
 20
607.505
 30
0.0
 11
1670.62
 21
607.529
 31
0.0
  0
LINE
  8
0
 62
     250
 10
1670.62
 20
607.529
 30
0.0
 11
1675.18
 21
607.487
 31
0.0
  0
LINE
  8
0
 62
     250
 10
1675.18
 20
607.487
 30
0.0
 11
1676.7
 21
607.445
 31
0.0
  0
LINE
  8
0
 62
     250
 10
1676.7
 20
607.445
 30
0.0
 11
1677.45
 21
607.427
 31
0.0
  0
LINE
  8
0
 62
     250
 10
1677.45
 20
607.427
 30
0.0
 11
1679.7
 21
607.332
 31
0.0
  0
LINE
  8
0
 62
     250
 10
1679.7
 20
607.332
 30
0.0
 11
1683.3
 21
607.131
 31
0.0
  0
LINE
  8
0
 62
     250
 10
1683.3
 20
607.131
 30
0.0
 11
1687.42
 21
606.848
 31
0.0
  0
LINE
  8
0
 62
     250
 10
1687.42
 20
606.848
 30
0.0
 11
1691.99
 21
606.496
 31
0.0
  0
LINE
  8
0
 62
     250
 10
1691.99
 20
606.496
 30
0.0
 11
1696.93
 21
606.072
 31
0.0
  0
LINE
  8
0
 62
     250
 10
1696.93
 20
606.072
 30
0.0
 11
1702.16
 21
605.592
 31
0.0
  0
LINE
  8
0
 62
     250
 10
1702.16
 20
605.592
 30
0.0
 11
1707.6
 21
605.06
 31
0.0
  0
LINE
  8
0
 62
     250
 10
1707.6
 20
605.06
 30
0.0
 11
1713.19
 21
604.478
 31
0.0
  0
LINE
  8
0
 62
     250
 10
1713.19
 20
604.478
 30
0.0
 11
1718.84
 21
603.853
 31
0.0
  0
LINE
  8
0
 62
     250
 10
1718.84
 20
603.853
 30
0.0
 11
1724.48
 21
603.197
 31
0.0
  0
LINE
  8
0
 62
     250
 10
1724.48
 20
603.197
 30
0.0
 11
1730.03
 21
602.513
 31
0.0
  0
LINE
  8
0
 62
     250
 10
1730.03
 20
602.513
 30
0.0
 11
1735.41
 21
601.807
 31
0.0
  0
LINE
  8
0
 62
     250
 10
1735.41
 20
601.807
 30
0.0
 11
1740.55
 21
601.084
 31
0.0
  0
LINE
  8
0
 62
     250
 10
1740.55
 20
601.084
 30
0.0
 11
1745.38
 21
600.357
 31
0.0
  0
LINE
  8
0
 62
     250
 10
1745.38
 20
600.357
 30
0.0
 11
1749.81
 21
599.627
 31
0.0
  0
LINE
  8
0
 62
     250
 10
1749.81
 20
599.627
 30
0.0
 11
1752.79
 21
599.091
 31
0.0
  0
LINE
  8
0
 62
     250
 10
1752.79
 20
599.091
 30
0.0
 11
1753.77
 21
598.897
 31
0.0
  0
LINE
  8
0
 62
     250
 10
1753.77
 20
598.897
 30
0.0
 11
1755.73
 21
598.519
 31
0.0
  0
LINE
  8
0
 62
     250
 10
1755.73
 20
598.519
 30
0.0
 11
1761.58
 21
597.348
 31
0.0
  0
LINE
  8
0
 62
     250
 10
1761.58
 20
597.348
 30
0.0
 11
1770.06
 21
595.609
 31
0.0
  0
LINE
  8
0
 62
     250
 10
1770.06
 20
595.609
 30
0.0
 11
1778.99
 21
593.704
 31
0.0
  0
LINE
  8
0
 62
     250
 10
1778.99
 20
593.704
 30
0.0
 11
1788.18
 21
591.658
 31
0.0
  0
LINE
  8
0
 62
     250
 10
1788.18
 20
591.658
 30
0.0
 11
1797.4
 21
589.506
 31
0.0
  0
LINE
  8
0
 62
     250
 10
1797.4
 20
589.506
 30
0.0
 11
1806.44
 21
587.262
 31
0.0
  0
LINE
  8
0
 62
     250
 10
1806.44
 20
587.262
 30
0.0
 11
1815.09
 21
584.966
 31
0.0
  0
LINE
  8
0
 62
     250
 10
1815.09
 20
584.966
 30
0.0
 11
1821.15
 21
583.244
 31
0.0
  0
LINE
  8
0
 62
     250
 10
1821.15
 20
583.244
 30
0.0
 11
1823.16
 21
582.634
 31
0.0
  0
LINE
  8
0
 62
     250
 10
1823.16
 20
582.634
 30
0.0
 11
1825.15
 21
582.027
 31
0.0
  0
LINE
  8
0
 62
     250
 10
1825.15
 20
582.027
 30
0.0
 11
1831.1
 21
580.083
 31
0.0
  0
LINE
  8
0
 62
     250
 10
1831.1
 20
580.083
 30
0.0
 11
1839.4
 21
577.123
 31
0.0
  0
LINE
  8
0
 62
     250
 10
1839.4
 20
577.123
 30
0.0
 11
1847.89
 21
573.768
 31
0.0
  0
LINE
  8
0
 62
     250
 10
1847.89
 20
573.768
 30
0.0
 11
1856.34
 21
570.043
 31
0.0
  0
LINE
  8
0
 62
     250
 10
1856.34
 20
570.043
 30
0.0
 11
1864.58
 21
565.965
 31
0.0
  0
LINE
  8
0
 62
     250
 10
1864.58
 20
565.965
 30
0.0
 11
1872.41
 21
561.555
 31
0.0
  0
LINE
  8
0
 62
     250
 10
1872.41
 20
561.555
 30
0.0
 11
1879.63
 21
556.832
 31
0.0
  0
LINE
  8
0
 62
     250
 10
1879.63
 20
556.832
 30
0.0
 11
1884.51
 21
553.145
 31
0.0
  0
LINE
  8
0
 62
     250
 10
1884.51
 20
553.145
 30
0.0
 11
1886.05
 21
551.815
 31
0.0
  0
LINE
  8
0
 62
     250
 10
1886.05
 20
551.815
 30
0.0
 11
1887.58
 21
550.485
 31
0.0
  0
LINE
  8
0
 62
     250
 10
1887.58
 20
550.485
 30
0.0
 11
1892.1
 21
546.414
 31
0.0
  0
LINE
  8
0
 62
     250
 10
1892.1
 20
546.414
 30
0.0
 11
1898.26
 21
540.575
 31
0.0
  0
LINE
  8
0
 62
     250
 10
1898.26
 20
540.575
 30
0.0
 11
1904.37
 21
534.384
 31
0.0
  0
LINE
  8
0
 62
     250
 10
1904.37
 20
534.384
 30
0.0
 11
1910.3
 21
527.911
 31
0.0
  0
LINE
  8
0
 62
     250
 10
1910.3
 20
527.911
 30
0.0
 11
1915.9
 21
521.24
 31
0.0
  0
LINE
  8
0
 62
     250
 10
1915.9
 20
521.24
 30
0.0
 11
1921.02
 21
514.449
 31
0.0
  0
LINE
  8
0
 62
     250
 10
1921.02
 20
514.449
 30
0.0
 11
1925.52
 21
507.612
 31
0.0
  0
LINE
  8
0
 62
     250
 10
1925.52
 20
507.612
 30
0.0
 11
1928.41
 21
502.553
 31
0.0
  0
LINE
  8
0
 62
     250
 10
1928.41
 20
502.553
 30
0.0
 11
1929.27
 21
500.814
 31
0.0
  0
LINE
  8
0
 62
     250
 10
1929.27
 20
500.814
 30
0.0
 11
1930.1
 21
499.114
 31
0.0
  0
LINE
  8
0
 62
     250
 10
1930.1
 20
499.114
 30
0.0
 11
1932.6
 21
494.019
 31
0.0
  0
LINE
  8
0
 62
     250
 10
1932.6
 20
494.019
 30
0.0
 11
1935.95
 21
487.056
 31
0.0
  0
LINE
  8
0
 62
     250
 10
1935.95
 20
487.056
 30
0.0
 11
1939.25
 21
479.802
 31
0.0
  0
LINE
  8
0
 62
     250
 10
1939.25
 20
479.802
 30
0.0
 11
1942.43
 21
472.13
 31
0.0
  0
LINE
  8
0
 62
     250
 10
1942.43
 20
472.13
 30
0.0
 11
1945.42
 21
463.92
 31
0.0
  0
LINE
  8
0
 62
     250
 10
1945.42
 20
463.92
 30
0.0
 11
1948.17
 21
455.041
 31
0.0
  0
LINE
  8
0
 62
     250
 10
1948.17
 20
455.041
 30
0.0
 11
1950.6
 21
445.368
 31
0.0
  0
LINE
  8
0
 62
     250
 10
1950.6
 20
445.368
 30
0.0
 11
1952.22
 21
437.434
 31
0.0
  0
LINE
  8
0
 62
     250
 10
1952.22
 20
437.434
 30
0.0
 11
1952.66
 21
434.774
 31
0.0
  0
LINE
  8
0
 62
     250
 10
1952.66
 20
434.774
 30
0.0
 11
1953.12
 21
431.962
 31
0.0
  0
LINE
  8
0
 62
     250
 10
1953.12
 20
431.962
 30
0.0
 11
1954.4
 21
423.503
 31
0.0
  0
LINE
  8
0
 62
     250
 10
1954.4
 20
423.503
 30
0.0
 11
1955.93
 21
412.002
 31
0.0
  0
LINE
  8
0
 62
     250
 10
1955.93
 20
412.002
 30
0.0
 11
1957.25
 21
400.491
 31
0.0
  0
LINE
  8
0
 62
     250
 10
1957.25
 20
400.491
 30
0.0
 11
1958.32
 21
389.188
 31
0.0
  0
LINE
  8
0
 62
     250
 10
1958.32
 20
389.188
 30
0.0
 11
1959.13
 21
378.298
 31
0.0
  0
LINE
  8
0
 62
     250
 10
1959.13
 20
378.298
 30
0.0
 11
1959.67
 21
368.039
 31
0.0
  0
LINE
  8
0
 62
     250
 10
1959.67
 20
368.039
 30
0.0
 11
1959.93
 21
358.623
 31
0.0
  0
LINE
  8
0
 62
     250
 10
1959.93
 20
358.623
 30
0.0
 11
1959.94
 21
352.356
 31
0.0
  0
LINE
  8
0
 62
     250
 10
1959.94
 20
352.356
 30
0.0
 11
1959.88
 21
350.268
 31
0.0
  0
LINE
  8
0
 62
     250
 10
1476.24
 20
504.352
 30
0.0
 11
1476.51
 21
505.46
 31
0.0
  0
LINE
  8
0
 62
     250
 10
1476.51
 20
505.46
 30
0.0
 11
1477.32
 21
508.787
 31
0.0
  0
LINE
  8
0
 62
     250
 10
1477.32
 20
508.787
 30
0.0
 11
1478.62
 21
513.856
 31
0.0
  0
LINE
  8
0
 62
     250
 10
1478.62
 20
513.856
 30
0.0
 11
1480.09
 21
519.285
 31
0.0
  0
LINE
  8
0
 62
     250
 10
1480.09
 20
519.285
 30
0.0
 11
1481.71
 21
524.803
 31
0.0
  0
LINE
  8
0
 62
     250
 10
1481.71
 20
524.803
 30
0.0
 11
1483.45
 21
530.13
 31
0.0
  0
LINE
  8
0
 62
     250
 10
1483.45
 20
530.13
 30
0.0
 11
1485.27
 21
534.995
 31
0.0
  0
LINE
  8
0
 62
     250
 10
1485.27
 20
534.995
 30
0.0
 11
1487.13
 21
539.115
 31
0.0
  0
LINE
  8
0
 62
     250
 10
1487.13
 20
539.115
 30
0.0
 11
1488.48
 21
541.496
 31
0.0
  0
LINE
  8
0
 62
     250
 10
1488.48
 20
541.496
 30
0.0
 11
1489.03
 21
542.216
 31
0.0
  0
LINE
  8
0
 62
     250
 10
1489.03
 20
542.216
 30
0.0
 11
1489.62
 21
543.01
 31
0.0
  0
LINE
  8
0
 62
     250
 10
1489.62
 20
543.01
 30
0.0
 11
1491.52
 21
545.31
 31
0.0
  0
LINE
  8
0
 62
     250
 10
1491.52
 20
545.31
 30
0.0
 11
1495.11
 21
549.363
 31
0.0
  0
LINE
  8
0
 62
     250
 10
1495.11
 20
549.363
 30
0.0
 11
1499.62
 21
554.066
 31
0.0
  0
LINE
  8
0
 62
     250
 10
1499.62
 20
554.066
 30
0.0
 11
1504.84
 21
559.096
 31
0.0
  0
LINE
  8
0
 62
     250
 10
1504.84
 20
559.096
 30
0.0
 11
1510.59
 21
564.141
 31
0.0
  0
LINE
  8
0
 62
     250
 10
1510.59
 20
564.141
 30
0.0
 11
1516.69
 21
568.879
 31
0.0
  0
LINE
  8
0
 62
     250
 10
1516.69
 20
568.879
 30
0.0
 11
1522.96
 21
572.992
 31
0.0
  0
LINE
  8
0
 62
     250
 10
1522.96
 20
572.992
 30
0.0
 11
1527.58
 21
575.49
 31
0.0
  0
LINE
  8
0
 62
     250
 10
1527.58
 20
575.49
 30
0.0
 11
1529.19
 21
576.167
 31
0.0
  0
LINE
  8
0
 62
     250
 10
1529.19
 20
576.167
 30
0.0
 11
1530.8
 21
576.848
 31
0.0
  0
LINE
  8
0
 62
     250
 10
1530.8
 20
576.848
 30
0.0
 11
1535.71
 21
578.728
 31
0.0
  0
LINE
  8
0
 62
     250
 10
1535.71
 20
578.728
 30
0.0
 11
1542.89
 21
581.194
 31
0.0
  0
LINE
  8
0
 62
     250
 10
1542.89
 20
581.194
 30
0.0
 11
1550.68
 21
583.544
 31
0.0
  0
LINE
  8
0
 62
     250
 10
1550.68
 20
583.544
 30
0.0
 11
1559.02
 21
585.752
 31
0.0
  0
LINE
  8
0
 62
     250
 10
1559.02
 20
585.752
 30
0.0
 11
1567.82
 21
587.802
 31
0.0
  0
LINE
  8
0
 62
     250
 10
1567.82
 20
587.802
 30
0.0
 11
1577.02
 21
589.665
 31
0.0
  0
LINE
  8
0
 62
     250
 10
1577.02
 20
589.665
 30
0.0
 11
1586.57
 21
591.319
 31
0.0
  0
LINE
  8
0
 62
     250
 10
1586.57
 20
591.319
 30
0.0
 11
1593.92
 21
592.42
 31
0.0
  0
LINE
  8
0
 62
     250
 10
1593.92
 20
592.42
 30
0.0
 11
1596.38
 21
592.744
 31
0.0
  0
LINE
  8
0
 62
     250
 10
1596.38
 20
592.744
 30
0.0
 11
1598.95
 21
593.083
 31
0.0
  0
LINE
  8
0
 62
     250
 10
1598.95
 20
593.083
 30
0.0
 11
1606.69
 21
593.983
 31
0.0
  0
LINE
  8
0
 62
     250
 10
1606.69
 20
593.983
 30
0.0
 11
1617.63
 21
595.076
 31
0.0
  0
LINE
  8
0
 62
     250
 10
1617.63
 20
595.076
 30
0.0
 11
1628.97
 21
595.986
 31
0.0
  0
LINE
  8
0
 62
     250
 10
1628.97
 20
595.986
 30
0.0
 11
1640.44
 21
596.678
 31
0.0
  0
LINE
  8
0
 62
     250
 10
1640.44
 20
596.678
 30
0.0
 11
1651.81
 21
597.119
 31
0.0
  0
LINE
  8
0
 62
     250
 10
1651.81
 20
597.119
 30
0.0
 11
1662.85
 21
597.274
 31
0.0
  0
LINE
  8
0
 62
     250
 10
1662.85
 20
597.274
 30
0.0
 11
1673.3
 21
597.108
 31
0.0
  0
LINE
  8
0
 62
     250
 10
1673.3
 20
597.108
 30
0.0
 11
1680.53
 21
596.773
 31
0.0
  0
LINE
  8
0
 62
     250
 10
1680.53
 20
596.773
 30
0.0
 11
1682.94
 21
596.586
 31
0.0
  0
LINE
  8
0
 62
     250
 10
1682.94
 20
596.586
 30
0.0
 11
1685.48
 21
596.388
 31
0.0
  0
LINE
  8
0
 62
     250
 10
1685.48
 20
596.388
 30
0.0
 11
1693.11
 21
595.623
 31
0.0
  0
LINE
  8
0
 62
     250
 10
1693.11
 20
595.623
 30
0.0
 11
1704.97
 21
594.184
 31
0.0
  0
LINE
  8
0
 62
     250
 10
1704.97
 20
594.184
 30
0.0
 11
1717.95
 21
592.353
 31
0.0
  0
LINE
  8
0
 62
     250
 10
1717.95
 20
592.353
 30
0.0
 11
1731.5
 21
590.194
 31
0.0
  0
LINE
  8
0
 62
     250
 10
1731.5
 20
590.194
 30
0.0
 11
1745.04
 21
587.781
 31
0.0
  0
LINE
  8
0
 62
     250
 10
1745.04
 20
587.781
 30
0.0
 11
1758.03
 21
585.184
 31
0.0
  0
LINE
  8
0
 62
     250
 10
1758.03
 20
585.184
 30
0.0
 11
1769.89
 21
582.478
 31
0.0
  0
LINE
  8
0
 62
     250
 10
1769.89
 20
582.478
 30
0.0
 11
1777.54
 21
580.489
 31
0.0
  0
LINE
  8
0
 62
     250
 10
1777.54
 20
580.489
 30
0.0
 11
1780.06
 21
579.734
 31
0.0
  0
LINE
  8
0
 62
     250
 10
1780.06
 20
579.734
 30
0.0
 11
1782.4
 21
579.032
 31
0.0
  0
LINE
  8
0
 62
     250
 10
1782.4
 20
579.032
 30
0.0
 11
1789.36
 21
576.725
 31
0.0
  0
LINE
  8
0
 62
     250
 10
1789.36
 20
576.725
 30
0.0
 11
1798.91
 21
573.211
 31
0.0
  0
LINE
  8
0
 62
     250
 10
1798.91
 20
573.211
 30
0.0
 11
1808.55
 21
569.246
 31
0.0
  0
LINE
  8
0
 62
     250
 10
1808.55
 20
569.246
 30
0.0
 11
1818.16
 21
564.878
 31
0.0
  0
LINE
  8
0
 62
     250
 10
1818.16
 20
564.878
 30
0.0
 11
1827.6
 21
560.169
 31
0.0
  0
LINE
  8
0
 62
     250
 10
1827.6
 20
560.169
 30
0.0
 11
1836.73
 21
555.159
 31
0.0
  0
LINE
  8
0
 62
     250
 10
1836.73
 20
555.159
 30
0.0
 11
1845.42
 21
549.91
 31
0.0
  0
LINE
  8
0
 62
     250
 10
1845.42
 20
549.91
 30
0.0
 11
1851.54
 21
545.885
 31
0.0
  0
LINE
  8
0
 62
     250
 10
1851.54
 20
545.885
 30
0.0
 11
1853.52
 21
544.47
 31
0.0
  0
LINE
  8
0
 62
     250
 10
1853.52
 20
544.47
 30
0.0
 11
1855.43
 21
543.116
 31
0.0
  0
LINE
  8
0
 62
     250
 10
1855.43
 20
543.116
 30
0.0
 11
1860.95
 21
538.762
 31
0.0
  0
LINE
  8
0
 62
     250
 10
1860.95
 20
538.762
 30
0.0
 11
1867.73
 21
532.68
 31
0.0
  0
LINE
  8
0
 62
     250
 10
1867.73
 20
532.68
 30
0.0
 11
1873.88
 21
526.263
 31
0.0
  0
LINE
  8
0
 62
     250
 10
1873.88
 20
526.263
 30
0.0
 11
1879.45
 21
519.536
 31
0.0
  0
LINE
  8
0
 62
     250
 10
1879.45
 20
519.536
 30
0.0
 11
1884.46
 21
512.53
 31
0.0
  0
LINE
  8
0
 62
     250
 10
1884.46
 20
512.53
 30
0.0
 11
1888.95
 21
505.277
 31
0.0
  0
LINE
  8
0
 62
     250
 10
1888.95
 20
505.277
 30
0.0
 11
1892.96
 21
497.805
 31
0.0
  0
LINE
  8
0
 62
     250
 10
1892.96
 20
497.805
 30
0.0
 11
1895.68
 21
492.083
 31
0.0
  0
LINE
  8
0
 62
     250
 10
1895.68
 20
492.083
 30
0.0
 11
1896.51
 21
490.142
 31
0.0
  0
LINE
  8
0
 62
     250
 10
1896.51
 20
490.142
 30
0.0
 11
1897.4
 21
488.068
 31
0.0
  0
LINE
  8
0
 62
     250
 10
1897.4
 20
488.068
 30
0.0
 11
1899.83
 21
481.736
 31
0.0
  0
LINE
  8
0
 62
     250
 10
1899.83
 20
481.736
 30
0.0
 11
1903.07
 21
472.285
 31
0.0
  0
LINE
  8
0
 62
     250
 10
1903.07
 20
472.285
 30
0.0
 11
1906.13
 21
462.224
 31
0.0
  0
LINE
  8
0
 62
     250
 10
1906.13
 20
462.224
 30
0.0
 11
1908.92
 21
451.982
 31
0.0
  0
LINE
  8
0
 62
     250
 10
1908.92
 20
451.982
 30
0.0
 11
1911.37
 21
441.992
 31
0.0
  0
LINE
  8
0
 62
     250
 10
1911.37
 20
441.992
 30
0.0
 11
1913.37
 21
432.682
 31
0.0
  0
LINE
  8
0
 62
     250
 10
1913.37
 20
432.682
 30
0.0
 11
1914.85
 21
424.483
 31
0.0
  0
LINE
  8
0
 62
     250
 10
1914.85
 20
424.483
 30
0.0
 11
1915.56
 21
419.495
 31
0.0
  0
LINE
  8
0
 62
     250
 10
1915.56
 20
419.495
 30
0.0
 11
1915.71
 21
417.823
 31
0.0
  0
LINE
  8
0
 62
     250
 10
1915.71
 20
417.823
 30
0.0
 11
1915.85
 21
416.26
 31
0.0
  0
LINE
  8
0
 62
     250
 10
1915.85
 20
416.26
 30
0.0
 11
1916.16
 21
411.554
 31
0.0
  0
LINE
  8
0
 62
     250
 10
1916.16
 20
411.554
 30
0.0
 11
1916.45
 21
404.308
 31
0.0
  0
LINE
  8
0
 62
     250
 10
1916.45
 20
404.308
 30
0.0
 11
1916.6
 21
396.201
 31
0.0
  0
LINE
  8
0
 62
     250
 10
1916.6
 20
396.201
 30
0.0
 11
1916.63
 21
387.343
 31
0.0
  0
LINE
  8
0
 62
     250
 10
1916.63
 20
387.343
 30
0.0
 11
1916.57
 21
377.853
 31
0.0
  0
LINE
  8
0
 62
     250
 10
1916.57
 20
377.853
 30
0.0
 11
1916.42
 21
367.838
 31
0.0
  0
LINE
  8
0
 62
     250
 10
1916.42
 20
367.838
 30
0.0
 11
1916.2
 21
357.413
 31
0.0
  0
LINE
  8
0
 62
     250
 10
1916.2
 20
357.413
 30
0.0
 11
1916
 21
349.377
 31
0.0
  0
LINE
  8
0
 62
     250
 10
1916
 20
349.377
 30
0.0
 11
1915.94
 21
346.697
 31
0.0
  0
LINE
  8
0
 62
     250
 10
1915.94
 20
346.697
 30
0.0
 11
1915.87
 21
344.065
 31
0.0
  0
LINE
  8
0
 62
     250
 10
1915.87
 20
344.065
 30
0.0
 11
1915.73
 21
336.163
 31
0.0
  0
LINE
  8
0
 62
     250
 10
1915.73
 20
336.163
 30
0.0
 11
1915.65
 21
326.194
 31
0.0
  0
LINE
  8
0
 62
     250
 10
1915.65
 20
326.194
 30
0.0
 11
1915.62
 21
316.766
 31
0.0
  0
LINE
  8
0
 62
     250
 10
1915.62
 20
316.766
 30
0.0
 11
1915.58
 21
307.847
 31
0.0
  0
LINE
  8
0
 62
     250
 10
1915.58
 20
307.847
 30
0.0
 11
1915.46
 21
299.413
 31
0.0
  0
LINE
  8
0
 62
     250
 10
1915.46
 20
299.413
 30
0.0
 11
1915.19
 21
291.436
 31
0.0
  0
LINE
  8
0
 62
     250
 10
1915.19
 20
291.436
 30
0.0
 11
1914.72
 21
283.887
 31
0.0
  0
LINE
  8
0
 62
     250
 10
1914.72
 20
283.887
 30
0.0
 11
1914.2
 21
278.521
 31
0.0
  0
LINE
  8
0
 62
     250
 10
1914.2
 20
278.521
 30
0.0
 11
1913.96
 21
276.739
 31
0.0
  0
LINE
  8
0
 62
     250
 10
1913.96
 20
276.739
 30
0.0
 11
1913.73
 21
274.941
 31
0.0
  0
LINE
  8
0
 62
     250
 10
1913.73
 20
274.941
 30
0.0
 11
1912.86
 21
269.562
 31
0.0
  0
LINE
  8
0
 62
     250
 10
1912.86
 20
269.562
 30
0.0
 11
1911.37
 21
261.977
 31
0.0
  0
LINE
  8
0
 62
     250
 10
1911.37
 20
261.977
 30
0.0
 11
1909.52
 21
254.033
 31
0.0
  0
LINE
  8
0
 62
     250
 10
1909.52
 20
254.033
 30
0.0
 11
1907.32
 21
245.781
 31
0.0
  0
LINE
  8
0
 62
     250
 10
1907.32
 20
245.781
 30
0.0
 11
1904.82
 21
237.269
 31
0.0
  0
LINE
  8
0
 62
     250
 10
1904.82
 20
237.269
 30
0.0
 11
1902.01
 21
228.55
 31
0.0
  0
LINE
  8
0
 62
     250
 10
1902.01
 20
228.55
 30
0.0
 11
1898.93
 21
219.672
 31
0.0
  0
LINE
  8
0
 62
     250
 10
1898.93
 20
219.672
 30
0.0
 11
1896.44
 21
212.922
 31
0.0
  0
LINE
  8
0
 62
     250
 10
1896.44
 20
212.922
 30
0.0
 11
1895.58
 21
210.684
 31
0.0
  0
LINE
  8
0
 62
     250
 10
1895.58
 20
210.684
 30
0.0
 11
1894.68
 21
208.329
 31
0.0
  0
LINE
  8
0
 62
     250
 10
1894.68
 20
208.329
 30
0.0
 11
1891.74
 21
201.352
 31
0.0
  0
LINE
  8
0
 62
     250
 10
1891.74
 20
201.352
 30
0.0
 11
1887.2
 21
191.509
 31
0.0
  0
LINE
  8
0
 62
     250
 10
1887.2
 20
191.509
 30
0.0
 11
1882.1
 21
181.317
 31
0.0
  0
LINE
  8
0
 62
     250
 10
1882.1
 20
181.317
 30
0.0
 11
1876.57
 21
170.935
 31
0.0
  0
LINE
  8
0
 62
     250
 10
1876.57
 20
170.935
 30
0.0
 11
1870.72
 21
160.521
 31
0.0
  0
LINE
  8
0
 62
     250
 10
1870.72
 20
160.521
 30
0.0
 11
1864.69
 21
150.236
 31
0.0
  0
LINE
  8
0
 62
     250
 10
1864.69
 20
150.236
 30
0.0
 11
1858.59
 21
140.24
 31
0.0
  0
LINE
  8
0
 62
     250
 10
1858.59
 20
140.24
 30
0.0
 11
1854.08
 21
133.066
 31
0.0
  0
LINE
  8
0
 62
     250
 10
1854.08
 20
133.066
 30
0.0
 11
1852.55
 21
130.69
 31
0.0
  0
LINE
  8
0
 62
     250
 10
1852.55
 20
130.69
 30
0.0
 11
1851
 21
128.286
 31
0.0
  0
LINE
  8
0
 62
     250
 10
1851
 20
128.286
 30
0.0
 11
1846.01
 21
121.292
 31
0.0
  0
LINE
  8
0
 62
     250
 10
1846.01
 20
121.292
 30
0.0
 11
1838.49
 21
111.795
 31
0.0
  0
LINE
  8
0
 62
     250
 10
1838.49
 20
111.795
 30
0.0
 11
1830.21
 21
102.434
 31
0.0
  0
LINE
  8
0
 62
     250
 10
1830.21
 20
102.434
 30
0.0
 11
1821.41
 21
93.4448
 31
0.0
  0
LINE
  8
0
 62
     250
 10
1821.41
 20
93.4448
 30
0.0
 11
1812.32
 21
85.0635
 31
0.0
  0
LINE
  8
0
 62
     250
 10
1812.32
 20
85.0635
 30
0.0
 11
1803.17
 21
77.5229
 31
0.0
  0
LINE
  8
0
 62
     250
 10
1803.17
 20
77.5229
 30
0.0
 11
1794.2
 21
71.06
 31
0.0
  0
LINE
  8
0
 62
     250
 10
1794.2
 20
71.06
 30
0.0
 11
1787.83
 21
67.0814
 31
0.0
  0
LINE
  8
0
 62
     250
 10
1787.83
 20
67.0814
 30
0.0
 11
1785.63
 21
65.9059
 31
0.0
  0
LINE
  8
0
 62
     250
 10
1785.63
 20
65.9059
 30
0.0
 11
1783.51
 21
64.7746
 31
0.0
  0
LINE
  8
0
 62
     250
 10
1783.51
 20
64.7746
 30
0.0
 11
1777.09
 21
61.4634
 31
0.0
  0
LINE
  8
0
 62
     250
 10
1777.09
 20
61.4634
 30
0.0
 11
1768.03
 21
57.0537
 31
0.0
  0
LINE
  8
0
 62
     250
 10
1768.03
 20
57.0537
 30
0.0
 11
1758.46
 21
52.7995
 31
0.0
  0
LINE
  8
0
 62
     250
 10
1758.46
 20
52.7995
 30
0.0
 11
1748.37
 21
48.8251
 31
0.0
  0
LINE
  8
0
 62
     250
 10
1748.37
 20
48.8251
 30
0.0
 11
1737.76
 21
45.2575
 31
0.0
  0
LINE
  8
0
 62
     250
 10
1737.76
 20
45.2575
 30
0.0
 11
1726.62
 21
42.2162
 31
0.0
  0
LINE
  8
0
 62
     250
 10
1726.62
 20
42.2162
 30
0.0
 11
1714.95
 21
39.8279
 31
0.0
  0
LINE
  8
0
 62
     250
 10
1714.95
 20
39.8279
 30
0.0
 11
1705.81
 21
38.505
 31
0.0
  0
LINE
  8
0
 62
     250
 10
1705.81
 20
38.505
 30
0.0
 11
1702.75
 21
38.2143
 31
0.0
  0
LINE
  8
0
 62
     250
 10
1702.75
 20
38.2143
 30
0.0
 11
1699.72
 21
37.9278
 31
0.0
  0
LINE
  8
0
 62
     250
 10
1699.72
 20
37.9278
 30
0.0
 11
1690.6
 21
37.2953
 31
0.0
  0
LINE
  8
0
 62
     250
 10
1690.6
 20
37.2953
 30
0.0
 11
1679.02
 21
36.8984
 31
0.0
  0
LINE
  8
0
 62
     250
 10
1679.02
 20
36.8984
 30
0.0
 11
1667.95
 21
37.0198
 31
0.0
  0
LINE
  8
0
 62
     250
 10
1667.95
 20
37.0198
 30
0.0
 11
1657.28
 21
37.652
 31
0.0
  0
LINE
  8
0
 62
     250
 10
1657.28
 20
37.652
 30
0.0
 11
1646.94
 21
38.7918
 31
0.0
  0
LINE
  8
0
 62
     250
 10
1646.94
 20
38.7918
 30
0.0
 11
1636.84
 21
40.4301
 31
0.0
  0
LINE
  8
0
 62
     250
 10
1636.84
 20
40.4301
 30
0.0
 11
1626.9
 21
42.5633
 31
0.0
  0
LINE
  8
0
 62
     250
 10
1626.9
 20
42.5633
 30
0.0
 11
1619.48
 21
44.4722
 31
0.0
  0
LINE
  8
0
 62
     250
 10
1619.48
 20
44.4722
 30
0.0
 11
1617.02
 21
45.1831
 31
0.0
  0
LINE
  8
0
 62
     250
 10
1617.02
 20
45.1831
 30
0.0
 11
1614.49
 21
45.9204
 31
0.0
  0
LINE
  8
0
 62
     250
 10
1614.49
 20
45.9204
 30
0.0
 11
1606.99
 21
48.5331
 31
0.0
  0
LINE
  8
0
 62
     250
 10
1606.99
 20
48.5331
 30
0.0
 11
1596.75
 21
52.7939
 31
0.0
  0
LINE
  8
0
 62
     250
 10
1596.75
 20
52.7939
 30
0.0
 11
1586.43
 21
57.8803
 31
0.0
  0
LINE
  8
0
 62
     250
 10
1586.43
 20
57.8803
 30
0.0
 11
1576.2
 21
63.7039
 31
0.0
  0
LINE
  8
0
 62
     250
 10
1576.2
 20
63.7039
 30
0.0
 11
1566.22
 21
70.1809
 31
0.0
  0
LINE
  8
0
 62
     250
 10
1566.22
 20
70.1809
 30
0.0
 11
1556.64
 21
77.2199
 31
0.0
  0
LINE
  8
0
 62
     250
 10
1556.64
 20
77.2199
 30
0.0
 11
1547.61
 21
84.7369
 31
0.0
  0
LINE
  8
0
 62
     250
 10
1547.61
 20
84.7369
 30
0.0
 11
1541.3
 21
90.5965
 31
0.0
  0
LINE
  8
0
 62
     250
 10
1541.3
 20
90.5965
 30
0.0
 11
1539.3
 21
92.6426
 31
0.0
  0
LINE
  8
0
 62
     250
 10
1539.3
 20
92.6426
 30
0.0
 11
1538.29
 21
93.6706
 31
0.0
  0
LINE
  8
0
 62
     250
 10
1538.29
 20
93.6706
 30
0.0
 11
1535.29
 21
96.7768
 31
0.0
  0
LINE
  8
0
 62
     250
 10
1535.29
 20
96.7768
 30
0.0
 11
1531.21
 21
101.079
 31
0.0
  0
LINE
  8
0
 62
     250
 10
1531.21
 20
101.079
 30
0.0
 11
1527.08
 21
105.507
 31
0.0
  0
LINE
  8
0
 62
     250
 10
1527.08
 20
105.507
 30
0.0
 11
1522.94
 21
110.02
 31
0.0
  0
LINE
  8
0
 62
     250
 10
1522.94
 20
110.02
 30
0.0
 11
1518.83
 21
114.578
 31
0.0
  0
LINE
  8
0
 62
     250
 10
1518.83
 20
114.578
 30
0.0
 11
1514.78
 21
119.14
 31
0.0
  0
LINE
  8
0
 62
     250
 10
1514.78
 20
119.14
 30
0.0
 11
1510.83
 21
123.665
 31
0.0
  0
LINE
  8
0
 62
     250
 10
1510.83
 20
123.665
 30
0.0
 11
1507.01
 21
128.113
 31
0.0
  0
LINE
  8
0
 62
     250
 10
1507.01
 20
128.113
 30
0.0
 11
1503.35
 21
132.443
 31
0.0
  0
LINE
  8
0
 62
     250
 10
1503.35
 20
132.443
 30
0.0
 11
1499.91
 21
136.613
 31
0.0
  0
LINE
  8
0
 62
     250
 10
1499.91
 20
136.613
 30
0.0
 11
1496.69
 21
140.583
 31
0.0
  0
LINE
  8
0
 62
     250
 10
1496.69
 20
140.583
 30
0.0
 11
1493.75
 21
144.314
 31
0.0
  0
LINE
  8
0
 62
     250
 10
1493.75
 20
144.314
 30
0.0
 11
1491.12
 21
147.762
 31
0.0
  0
LINE
  8
0
 62
     250
 10
1491.12
 20
147.762
 30
0.0
 11
1488.84
 21
150.887
 31
0.0
  0
LINE
  8
0
 62
     250
 10
1488.84
 20
150.887
 30
0.0
 11
1486.93
 21
153.65
 31
0.0
  0
LINE
  8
0
 62
     250
 10
1486.93
 20
153.65
 30
0.0
 11
1485.8
 21
155.408
 31
0.0
  0
LINE
  8
0
 62
     250
 10
1485.8
 20
155.408
 30
0.0
 11
1485.44
 21
156.008
 31
0.0
  0
LINE
  8
0
 62
     250
 10
1485.44
 20
156.008
 30
0.0
 11
1484.75
 21
157.175
 31
0.0
  0
LINE
  8
0
 62
     250
 10
1484.75
 20
157.175
 30
0.0
 11
1482.95
 21
160.836
 31
0.0
  0
LINE
  8
0
 62
     250
 10
1482.95
 20
160.836
 30
0.0
 11
1480.56
 21
166.526
 31
0.0
  0
LINE
  8
0
 62
     250
 10
1480.56
 20
166.526
 30
0.0
 11
1478.34
 21
172.743
 31
0.0
  0
LINE
  8
0
 62
     250
 10
1478.34
 20
172.743
 30
0.0
 11
1476.34
 21
179.149
 31
0.0
  0
LINE
  8
0
 62
     250
 10
1476.34
 20
179.149
 30
0.0
 11
1474.58
 21
185.414
 31
0.0
  0
LINE
  8
0
 62
     250
 10
1474.58
 20
185.414
 30
0.0
 11
1473.13
 21
191.198
 31
0.0
  0
LINE
  8
0
 62
     250
 10
1473.13
 20
191.198
 30
0.0
 11
1472.03
 21
196.172
 31
0.0
  0
LINE
  8
0
 62
     250
 10
1472.03
 20
196.172
 30
0.0
 11
1471.48
 21
199.035
 31
0.0
  0
LINE
  8
0
 62
     250
 10
1471.48
 20
199.035
 30
0.0
 11
1471.33
 21
199.995
 31
0.0
  0
LINE
  8
0
 62
     250
 10
1471.33
 20
199.995
 30
0.0
 11
1471.2
 21
200.822
 31
0.0
  0
LINE
  8
0
 62
     250
 10
1471.2
 20
200.822
 30
0.0
 11
1470.76
 21
203.295
 31
0.0
  0
LINE
  8
0
 62
     250
 10
1470.76
 20
203.295
 30
0.0
 11
1470.06
 21
206.827
 31
0.0
  0
LINE
  8
0
 62
     250
 10
1470.06
 20
206.827
 30
0.0
 11
1469.28
 21
210.451
 31
0.0
  0
LINE
  8
0
 62
     250
 10
1469.28
 20
210.451
 30
0.0
 11
1468.47
 21
214.03
 31
0.0
  0
LINE
  8
0
 62
     250
 10
1468.47
 20
214.03
 30
0.0
 11
1467.66
 21
217.428
 31
0.0
  0
LINE
  8
0
 62
     250
 10
1467.66
 20
217.428
 30
0.0
 11
1466.91
 21
220.506
 31
0.0
  0
LINE
  8
0
 62
     250
 10
1466.91
 20
220.506
 30
0.0
 11
1466.25
 21
223.124
 31
0.0
  0
LINE
  8
0
 62
     250
 10
1466.25
 20
223.124
 30
0.0
 11
1465.87
 21
224.641
 31
0.0
  0
LINE
  8
0
 62
     250
 10
1465.87
 20
224.641
 30
0.0
 11
1465.74
 21
225.145
 31
0.0
  0
LINE
  8
0
 62
     250
 10
1465.74
 20
225.145
 30
0.0
 11
1465.58
 21
225.765
 31
0.0
  0
LINE
  8
0
 62
     250
 10
1465.58
 20
225.765
 30
0.0
 11
1465.12
 21
227.626
 31
0.0
  0
LINE
  8
0
 62
     250
 10
1465.12
 20
227.626
 30
0.0
 11
1464.16
 21
231.512
 31
0.0
  0
LINE
  8
0
 62
     250
 10
1464.16
 20
231.512
 30
0.0
 11
1462.97
 21
236.504
 31
0.0
  0
LINE
  8
0
 62
     250
 10
1462.97
 20
236.504
 30
0.0
 11
1461.66
 21
242.303
 31
0.0
  0
LINE
  8
0
 62
     250
 10
1461.66
 20
242.303
 30
0.0
 11
1460.33
 21
248.612
 31
0.0
  0
LINE
  8
0
 62
     250
 10
1460.33
 20
248.612
 30
0.0
 11
1459.09
 21
255.129
 31
0.0
  0
LINE
  8
0
 62
     250
 10
1459.09
 20
255.129
 30
0.0
 11
1458.04
 21
261.556
 31
0.0
  0
LINE
  8
0
 62
     250
 10
1458.04
 20
261.556
 30
0.0
 11
1457.43
 21
266.081
 31
0.0
  0
LINE
  8
0
 62
     250
 10
1457.43
 20
266.081
 30
0.0
 11
1457.28
 21
267.594
 31
0.0
  0
LINE
  8
0
 62
     250
 10
1457.28
 20
267.594
 30
0.0
 11
1457.19
 21
268.399
 31
0.0
  0
LINE
  8
0
 62
     250
 10
1457.19
 20
268.399
 30
0.0
 11
1456.98
 21
270.815
 31
0.0
  0
LINE
  8
0
 62
     250
 10
1456.98
 20
270.815
 30
0.0
 11
1456.68
 21
274.68
 31
0.0
  0
LINE
  8
0
 62
     250
 10
1456.68
 20
274.68
 30
0.0
 11
1456.37
 21
279.116
 31
0.0
  0
LINE
  8
0
 62
     250
 10
1456.37
 20
279.116
 30
0.0
 11
1456.06
 21
284.047
 31
0.0
  0
LINE
  8
0
 62
     250
 10
1456.06
 20
284.047
 30
0.0
 11
1455.76
 21
289.398
 31
0.0
  0
LINE
  8
0
 62
     250
 10
1455.76
 20
289.398
 30
0.0
 11
1455.47
 21
295.094
 31
0.0
  0
LINE
  8
0
 62
     250
 10
1455.47
 20
295.094
 30
0.0
 11
1455.2
 21
301.063
 31
0.0
  0
LINE
  8
0
 62
     250
 10
1455.2
 20
301.063
 30
0.0
 11
1454.95
 21
307.228
 31
0.0
  0
LINE
  8
0
 62
     250
 10
1454.95
 20
307.228
 30
0.0
 11
1454.72
 21
313.513
 31
0.0
  0
LINE
  8
0
 62
     250
 10
1454.72
 20
313.513
 30
0.0
 11
1454.53
 21
319.845
 31
0.0
  0
LINE
  8
0
 62
     250
 10
1454.53
 20
319.845
 30
0.0
 11
1454.37
 21
326.15
 31
0.0
  0
LINE
  8
0
 62
     250
 10
1454.37
 20
326.15
 30
0.0
 11
1454.25
 21
332.351
 31
0.0
  0
LINE
  8
0
 62
     250
 10
1454.25
 20
332.351
 30
0.0
 11
1454.17
 21
338.375
 31
0.0
  0
LINE
  8
0
 62
     250
 10
1454.17
 20
338.375
 30
0.0
 11
1454.15
 21
344.146
 31
0.0
  0
LINE
  8
0
 62
     250
 10
1454.15
 20
344.146
 30
0.0
 11
1454.19
 21
349.589
 31
0.0
  0
LINE
  8
0
 62
     250
 10
1454.19
 20
349.589
 30
0.0
 11
1454.25
 21
353.37
 31
0.0
  0
LINE
  8
0
 62
     250
 10
1454.25
 20
353.37
 30
0.0
 11
1454.28
 21
354.63
 31
0.0
  0
LINE
  8
0
 62
     250
 10
1454.28
 20
354.63
 30
0.0
 11
1454.31
 21
355.907
 31
0.0
  0
LINE
  8
0
 62
     250
 10
1454.31
 20
355.907
 30
0.0
 11
1454.45
 21
359.738
 31
0.0
  0
LINE
  8
0
 62
     250
 10
1454.45
 20
359.738
 30
0.0
 11
1454.7
 21
365.375
 31
0.0
  0
LINE
  8
0
 62
     250
 10
1454.7
 20
365.375
 30
0.0
 11
1455.02
 21
371.45
 31
0.0
  0
LINE
  8
0
 62
     250
 10
1455.02
 20
371.45
 30
0.0
 11
1455.41
 21
377.864
 31
0.0
  0
LINE
  8
0
 62
     250
 10
1455.41
 20
377.864
 30
0.0
 11
1455.85
 21
384.528
 31
0.0
  0
LINE
  8
0
 62
     250
 10
1455.85
 20
384.528
 30
0.0
 11
1456.34
 21
391.354
 31
0.0
  0
LINE
  8
0
 62
     250
 10
1456.34
 20
391.354
 30
0.0
 11
1456.88
 21
398.244
 31
0.0
  0
LINE
  8
0
 62
     250
 10
1456.88
 20
398.244
 30
0.0
 11
1457.46
 21
405.109
 31
0.0
  0
LINE
  8
0
 62
     250
 10
1457.46
 20
405.109
 30
0.0
 11
1458.06
 21
411.854
 31
0.0
  0
LINE
  8
0
 62
     250
 10
1458.06
 20
411.854
 30
0.0
 11
1458.68
 21
418.394
 31
0.0
  0
LINE
  8
0
 62
     250
 10
1458.68
 20
418.394
 30
0.0
 11
1459.31
 21
424.628
 31
0.0
  0
LINE
  8
0
 62
     250
 10
1459.31
 20
424.628
 30
0.0
 11
1459.95
 21
430.47
 31
0.0
  0
LINE
  8
0
 62
     250
 10
1459.95
 20
430.47
 30
0.0
 11
1460.59
 21
435.822
 31
0.0
  0
LINE
  8
0
 62
     250
 10
1460.59
 20
435.822
 30
0.0
 11
1461.22
 21
440.595
 31
0.0
  0
LINE
  8
0
 62
     250
 10
1461.22
 20
440.595
 30
0.0
 11
1461.83
 21
444.701
 31
0.0
  0
LINE
  8
0
 62
     250
 10
1461.83
 20
444.701
 30
0.0
 11
1462.25
 21
447.209
 31
0.0
  0
LINE
  8
0
 62
     250
 10
1462.25
 20
447.209
 30
0.0
 11
1462.42
 21
448.042
 31
0.0
  0
LINE
  8
0
 62
     250
 10
1462.42
 20
448.042
 30
0.0
 11
1462.94
 21
450.719
 31
0.0
  0
LINE
  8
0
 62
     250
 10
1462.94
 20
450.719
 30
0.0
 11
1464.55
 21
458.749
 31
0.0
  0
LINE
  8
0
 62
     250
 10
1464.55
 20
458.749
 30
0.0
 11
1466.43
 21
467.575
 31
0.0
  0
LINE
  8
0
 62
     250
 10
1466.43
 20
467.575
 30
0.0
 11
1468.11
 21
474.712
 31
0.0
  0
LINE
  8
0
 62
     250
 10
1468.11
 20
474.712
 30
0.0
 11
1469.22
 21
478.956
 31
0.0
  0
LINE
  8
0
 62
     250
 10
1469.22
 20
478.956
 30
0.0
 11
1469.64
 21
480.356
 31
0.0
  0
LINE
  8
0
 62
     250
 10
1469.64
 20
480.356
 30
0.0
 11
1470.06
 21
481.76
 31
0.0
  0
LINE
  8
0
 62
     250
 10
1470.06
 20
481.76
 30
0.0
 11
1471.29
 21
485.983
 31
0.0
  0
LINE
  8
0
 62
     250
 10
1471.29
 20
485.983
 30
0.0
 11
1473.1
 21
492.404
 31
0.0
  0
LINE
  8
0
 62
     250
 10
1473.1
 20
492.404
 30
0.0
 11
1474.83
 21
498.796
 31
0.0
  0
LINE
  8
0
 62
     250
 10
1474.83
 20
498.796
 30
0.0
 11
1475.9
 21
502.959
 31
0.0
  0
LINE
  8
0
 62
     250
 10
1475.9
 20
502.959
 30
0.0
 11
1476.24
 21
504.352
 31
0.0
  0
LINE
  8
0
 62
     250
 10
1493.79
 20
543.945
 30
0.0
 11
1493.79
 21
543.945
 31
0.0
  0
LINE
  8
0
 62
     250
 10
1493.79
 20
543.945
 30
0.0
 11
1494.25
 21
543.359
 31
0.0
  0
LINE
  8
0
 62
     250
 10
1494.25
 20
543.359
 30
0.0
 11
1495.54
 21
541.697
 31
0.0
  0
LINE
  8
0
 62
     250
 10
1495.54
 20
541.697
 30
0.0
 11
1497.55
 21
539.115
 31
0.0
  0
LINE
  8
0
 62
     250
 10
1497.55
 20
539.115
 30
0.0
 11
1500.13
 21
535.757
 31
0.0
  0
LINE
  8
0
 62
     250
 10
1500.13
 20
535.757
 30
0.0
 11
1503.16
 21
531.774
 31
0.0
  0
LINE
  8
0
 62
     250
 10
1503.16
 20
531.774
 30
0.0
 11
1506.51
 21
527.322
 31
0.0
  0
LINE
  8
0
 62
     250
 10
1506.51
 20
527.322
 30
0.0
 11
1510.04
 21
522.541
 31
0.0
  0
LINE
  8
0
 62
     250
 10
1510.04
 20
522.541
 30
0.0
 11
1512.75
 21
518.83
 31
0.0
  0
LINE
  8
0
 62
     250
 10
1512.75
 20
518.83
 30
0.0
 11
1513.64
 21
517.589
 31
0.0
  0
LINE
  8
0
 62
     250
 10
1513.64
 20
517.589
 30
0.0
 11
1514.57
 21
516.287
 31
0.0
  0
LINE
  8
0
 62
     250
 10
1514.57
 20
516.287
 30
0.0
 11
1517.28
 21
512.322
 31
0.0
  0
LINE
  8
0
 62
     250
 10
1517.28
 20
512.322
 30
0.0
 11
1521
 21
506.603
 31
0.0
  0
LINE
  8
0
 62
     250
 10
1521
 20
506.603
 30
0.0
 11
1524.73
 21
500.57
 31
0.0
  0
LINE
  8
0
 62
     250
 10
1524.73
 20
500.57
 30
0.0
 11
1528.38
 21
494.362
 31
0.0
  0
LINE
  8
0
 62
     250
 10
1528.38
 20
494.362
 30
0.0
 11
1531.89
 21
488.117
 31
0.0
  0
LINE
  8
0
 62
     250
 10
1531.89
 20
488.117
 30
0.0
 11
1535.18
 21
481.979
 31
0.0
  0
LINE
  8
0
 62
     250
 10
1535.18
 20
481.979
 30
0.0
 11
1538.18
 21
476.084
 31
0.0
  0
LINE
  8
0
 62
     250
 10
1538.18
 20
476.084
 30
0.0
 11
1540.17
 21
471.96
 31
0.0
  0
LINE
  8
0
 62
     250
 10
1540.17
 20
471.96
 30
0.0
 11
1540.81
 21
470.574
 31
0.0
  0
LINE
  8
0
 62
     250
 10
1540.81
 20
470.574
 30
0.0
 11
1542.12
 21
467.748
 31
0.0
  0
LINE
  8
0
 62
     250
 10
1542.12
 20
467.748
 30
0.0
 11
1545.59
 21
459.07
 31
0.0
  0
LINE
  8
0
 62
     250
 10
1545.59
 20
459.07
 30
0.0
 11
1550.15
 21
445.707
 31
0.0
  0
LINE
  8
0
 62
     250
 10
1550.15
 20
445.707
 30
0.0
 11
1554.47
 21
430.562
 31
0.0
  0
LINE
  8
0
 62
     250
 10
1554.47
 20
430.562
 30
0.0
 11
1557.56
 21
417.943
 31
0.0
  0
LINE
  8
0
 62
     250
 10
1557.56
 20
417.943
 30
0.0
 11
1558.48
 21
413.713
 31
0.0
  0
LINE
  8
0
 62
     250
 10
1558.48
 20
413.713
 30
0.0
 11
1558.95
 21
411.522
 31
0.0
  0
LINE
  8
0
 62
     250
 10
1558.95
 20
411.522
 30
0.0
 11
1560.17
 21
404.894
 31
0.0
  0
LINE
  8
0
 62
     250
 10
1560.17
 20
404.894
 30
0.0
 11
1561.47
 21
396.162
 31
0.0
  0
LINE
  8
0
 62
     250
 10
1561.47
 20
396.162
 30
0.0
 11
1562.39
 21
387.615
 31
0.0
  0
LINE
  8
0
 62
     250
 10
1562.39
 20
387.615
 30
0.0
 11
1563.01
 21
379.331
 31
0.0
  0
LINE
  8
0
 62
     250
 10
1563.01
 20
379.331
 30
0.0
 11
1563.37
 21
371.401
 31
0.0
  0
LINE
  8
0
 62
     250
 10
1563.37
 20
371.401
 30
0.0
 11
1563.53
 21
363.911
 31
0.0
  0
LINE
  8
0
 62
     250
 10
1563.53
 20
363.911
 30
0.0
 11
1563.51
 21
356.955
 31
0.0
  0
LINE
  8
0
 62
     250
 10
1563.51
 20
356.955
 30
0.0
 11
1563.44
 21
352.197
 31
0.0
  0
LINE
  8
0
 62
     250
 10
1563.44
 20
352.197
 30
0.0
 11
1563.39
 21
350.611
 31
0.0
  0
LINE
  8
0
 62
     250
 10
1563.39
 20
350.611
 30
0.0
 11
1563.35
 21
348.97
 31
0.0
  0
LINE
  8
0
 62
     250
 10
1563.35
 20
348.97
 30
0.0
 11
1563.15
 21
344.048
 31
0.0
  0
LINE
  8
0
 62
     250
 10
1563.15
 20
344.048
 30
0.0
 11
1562.75
 21
336.571
 31
0.0
  0
LINE
  8
0
 62
     250
 10
1562.75
 20
336.571
 30
0.0
 11
1562.2
 21
328.5
 31
0.0
  0
LINE
  8
0
 62
     250
 10
1562.2
 20
328.5
 30
0.0
 11
1561.5
 21
320.149
 31
0.0
  0
LINE
  8
0
 62
     250
 10
1561.5
 20
320.149
 30
0.0
 11
1560.67
 21
311.838
 31
0.0
  0
LINE
  8
0
 62
     250
 10
1560.67
 20
311.838
 30
0.0
 11
1559.71
 21
303.88
 31
0.0
  0
LINE
  8
0
 62
     250
 10
1559.71
 20
303.88
 30
0.0
 11
1558.64
 21
296.594
 31
0.0
  0
LINE
  8
0
 62
     250
 10
1558.64
 20
296.594
 30
0.0
 11
1557.81
 21
291.862
 31
0.0
  0
LINE
  8
0
 62
     250
 10
1557.81
 20
291.862
 30
0.0
 11
1557.47
 21
290.296
 31
0.0
  0
LINE
  8
0
 62
     250
 10
1557.47
 20
290.296
 30
0.0
 11
1557.15
 21
288.827
 31
0.0
  0
LINE
  8
0
 62
     250
 10
1557.15
 20
288.827
 30
0.0
 11
1556.11
 21
284.441
 31
0.0
  0
LINE
  8
0
 62
     250
 10
1556.11
 20
284.441
 30
0.0
 11
1554.51
 21
278.351
 31
0.0
  0
LINE
  8
0
 62
     250
 10
1554.51
 20
278.351
 30
0.0
 11
1552.73
 21
272.151
 31
0.0
  0
LINE
  8
0
 62
     250
 10
1552.73
 20
272.151
 30
0.0
 11
1550.83
 21
265.966
 31
0.0
  0
LINE
  8
0
 62
     250
 10
1550.83
 20
265.966
 30
0.0
 11
1548.87
 21
259.915
 31
0.0
  0
LINE
  8
0
 62
     250
 10
1548.87
 20
259.915
 30
0.0
 11
1546.91
 21
254.123
 31
0.0
  0
LINE
  8
0
 62
     250
 10
1546.91
 20
254.123
 30
0.0
 11
1545
 21
248.715
 31
0.0
  0
LINE
  8
0
 62
     250
 10
1545
 20
248.715
 30
0.0
 11
1543.66
 21
245.036
 31
0.0
  0
LINE
  8
0
 62
     250
 10
1543.66
 20
245.036
 30
0.0
 11
1543.21
 21
243.812
 31
0.0
  0
LINE
  8
0
 62
     250
 10
1543.21
 20
243.812
 30
0.0
 11
1542.76
 21
242.602
 31
0.0
  0
LINE
  8
0
 62
     250
 10
1542.76
 20
242.602
 30
0.0
 11
1541.27
 21
239.018
 31
0.0
  0
LINE
  8
0
 62
     250
 10
1541.27
 20
239.018
 30
0.0
 11
1538.98
 21
233.951
 31
0.0
  0
LINE
  8
0
 62
     250
 10
1538.98
 20
233.951
 30
0.0
 11
1536.42
 21
228.76
 31
0.0
  0
LINE
  8
0
 62
     250
 10
1536.42
 20
228.76
 30
0.0
 11
1533.7
 21
223.595
 31
0.0
  0
LINE
  8
0
 62
     250
 10
1533.7
 20
223.595
 30
0.0
 11
1530.95
 21
218.605
 31
0.0
  0
LINE
  8
0
 62
     250
 10
1530.95
 20
218.605
 30
0.0
 11
1528.24
 21
213.94
 31
0.0
  0
LINE
  8
0
 62
     250
 10
1528.24
 20
213.94
 30
0.0
 11
1525.71
 21
209.747
 31
0.0
  0
LINE
  8
0
 62
     250
 10
1525.71
 20
209.747
 30
0.0
 11
1524.02
 21
207.061
 31
0.0
  0
LINE
  8
0
 62
     250
 10
1524.02
 20
207.061
 30
0.0
 11
1523.44
 21
206.177
 31
0.0
  0
LINE
  8
0
 62
     250
 10
1502.55
 20
546.4
 30
0.0
 11
1502.55
 21
546.4
 31
0.0
  0
LINE
  8
0
 62
     250
 10
1502.55
 20
546.4
 30
0.0
 11
1502.55
 21
546.185
 31
0.0
  0
LINE
  8
0
 62
     250
 10
1502.55
 20
546.185
 30
0.0
 11
1502.6
 21
545.543
 31
0.0
  0
LINE
  8
0
 62
     250
 10
1502.6
 20
545.543
 30
0.0
 11
1502.79
 21
544.474
 31
0.0
  0
LINE
  8
0
 62
     250
 10
1502.79
 20
544.474
 30
0.0
 11
1503.2
 21
542.992
 31
0.0
  0
LINE
  8
0
 62
     250
 10
1503.2
 20
542.992
 30
0.0
 11
1503.91
 21
541.098
 31
0.0
  0
LINE
  8
0
 62
     250
 10
1503.91
 20
541.098
 30
0.0
 11
1505.01
 21
538.798
 31
0.0
  0
LINE
  8
0
 62
     250
 10
1505.01
 20
538.798
 30
0.0
 11
1506.57
 21
536.095
 31
0.0
  0
LINE
  8
0
 62
     250
 10
1506.57
 20
536.095
 30
0.0
 11
1508.12
 21
533.753
 31
0.0
  0
LINE
  8
0
 62
     250
 10
1508.12
 20
533.753
 30
0.0
 11
1508.68
 21
532.998
 31
0.0
  0
LINE
  8
0
 62
     250
 10
1508.68
 20
532.998
 30
0.0
 11
1509.34
 21
532.095
 31
0.0
  0
LINE
  8
0
 62
     250
 10
1509.34
 20
532.095
 30
0.0
 11
1511.48
 21
529.488
 31
0.0
  0
LINE
  8
0
 62
     250
 10
1511.48
 20
529.488
 30
0.0
 11
1514.93
 21
525.621
 31
0.0
  0
LINE
  8
0
 62
     250
 10
1514.93
 20
525.621
 30
0.0
 11
1518.84
 21
521.508
 31
0.0
  0
LINE
  8
0
 62
     250
 10
1518.84
 20
521.508
 30
0.0
 11
1523.01
 21
517.275
 31
0.0
  0
LINE
  8
0
 62
     250
 10
1523.01
 20
517.275
 30
0.0
 11
1527.25
 21
513.027
 31
0.0
  0
LINE
  8
0
 62
     250
 10
1527.25
 20
513.027
 30
0.0
 11
1531.35
 21
508.885
 31
0.0
  0
LINE
  8
0
 62
     250
 10
1531.35
 20
508.885
 30
0.0
 11
1535.13
 21
504.963
 31
0.0
  0
LINE
  8
0
 62
     250
 10
1535.13
 20
504.963
 30
0.0
 11
1537.59
 21
502.296
 31
0.0
  0
LINE
  8
0
 62
     250
 10
1537.59
 20
502.296
 30
0.0
 11
1538.38
 21
501.382
 31
0.0
  0
LINE
  8
0
 62
     250
 10
1538.38
 20
501.382
 30
0.0
 11
1539.22
 21
500.415
 31
0.0
  0
LINE
  8
0
 62
     250
 10
1539.22
 20
500.415
 30
0.0
 11
1541.6
 21
497.378
 31
0.0
  0
LINE
  8
0
 62
     250
 10
1541.6
 20
497.378
 30
0.0
 11
1545.29
 21
492.27
 31
0.0
  0
LINE
  8
0
 62
     250
 10
1545.29
 20
492.27
 30
0.0
 11
1549.33
 21
486.279
 31
0.0
  0
LINE
  8
0
 62
     250
 10
1549.33
 20
486.279
 30
0.0
 11
1553.57
 21
479.626
 31
0.0
  0
LINE
  8
0
 62
     250
 10
1553.57
 20
479.626
 30
0.0
 11
1557.89
 21
472.532
 31
0.0
  0
LINE
  8
0
 62
     250
 10
1557.89
 20
472.532
 30
0.0
 11
1562.14
 21
465.219
 31
0.0
  0
LINE
  8
0
 62
     250
 10
1562.14
 20
465.219
 30
0.0
 11
1566.19
 21
457.913
 31
0.0
  0
LINE
  8
0
 62
     250
 10
1566.19
 20
457.913
 30
0.0
 11
1569
 21
452.61
 31
0.0
  0
LINE
  8
0
 62
     250
 10
1569
 20
452.61
 30
0.0
 11
1569.9
 21
450.825
 31
0.0
  0
LINE
  8
0
 62
     250
 10
1569.9
 20
450.825
 30
0.0
 11
1570.77
 21
449.104
 31
0.0
  0
LINE
  8
0
 62
     250
 10
1570.77
 20
449.104
 30
0.0
 11
1573.21
 21
443.847
 31
0.0
  0
LINE
  8
0
 62
     250
 10
1573.21
 20
443.847
 30
0.0
 11
1576.18
 21
436.661
 31
0.0
  0
LINE
  8
0
 62
     250
 10
1576.18
 20
436.661
 30
0.0
 11
1578.84
 21
429.196
 31
0.0
  0
LINE
  8
0
 62
     250
 10
1578.84
 20
429.196
 30
0.0
 11
1581.24
 21
421.382
 31
0.0
  0
LINE
  8
0
 62
     250
 10
1581.24
 20
421.382
 30
0.0
 11
1583.41
 21
413.149
 31
0.0
  0
LINE
  8
0
 62
     250
 10
1583.41
 20
413.149
 30
0.0
 11
1585.41
 21
404.424
 31
0.0
  0
LINE
  8
0
 62
     250
 10
1585.41
 20
404.424
 30
0.0
 11
1587.26
 21
395.139
 31
0.0
  0
LINE
  8
0
 62
     250
 10
1587.26
 20
395.139
 30
0.0
 11
1588.59
 21
387.706
 31
0.0
  0
LINE
  8
0
 62
     250
 10
1588.59
 20
387.706
 30
0.0
 11
1589
 21
385.223
 31
0.0
  0
LINE
  8
0
 62
     250
 10
1589
 20
385.223
 30
0.0
 11
1589.43
 21
382.69
 31
0.0
  0
LINE
  8
0
 62
     250
 10
1589.43
 20
382.69
 30
0.0
 11
1590.36
 21
375.02
 31
0.0
  0
LINE
  8
0
 62
     250
 10
1590.36
 20
375.02
 30
0.0
 11
1591.11
 21
365.058
 31
0.0
  0
LINE
  8
0
 62
     250
 10
1591.11
 20
365.058
 30
0.0
 11
1591.35
 21
355.54
 31
0.0
  0
LINE
  8
0
 62
     250
 10
1591.35
 20
355.54
 30
0.0
 11
1591.21
 21
346.666
 31
0.0
  0
LINE
  8
0
 62
     250
 10
1591.21
 20
346.666
 30
0.0
 11
1590.81
 21
338.641
 31
0.0
  0
LINE
  8
0
 62
     250
 10
1590.81
 20
338.641
 30
0.0
 11
1590.26
 21
331.669
 31
0.0
  0
LINE
  8
0
 62
     250
 10
1590.26
 20
331.669
 30
0.0
 11
1589.68
 21
325.951
 31
0.0
  0
LINE
  8
0
 62
     250
 10
1589.68
 20
325.951
 30
0.0
 11
1589.31
 21
322.757
 31
0.0
  0
LINE
  8
0
 62
     250
 10
1589.31
 20
322.757
 30
0.0
 11
1589.19
 21
321.692
 31
0.0
  0
LINE
  8
0
 62
     250
 10
1589.19
 20
321.692
 30
0.0
 11
1589.07
 21
320.653
 31
0.0
  0
LINE
  8
0
 62
     250
 10
1589.07
 20
320.653
 30
0.0
 11
1588.56
 21
317.552
 31
0.0
  0
LINE
  8
0
 62
     250
 10
1588.56
 20
317.552
 30
0.0
 11
1587.52
 21
312.252
 31
0.0
  0
LINE
  8
0
 62
     250
 10
1587.52
 20
312.252
 30
0.0
 11
1586.13
 21
306.09
 31
0.0
  0
LINE
  8
0
 62
     250
 10
1586.13
 20
306.09
 30
0.0
 11
1584.44
 21
299.359
 31
0.0
  0
LINE
  8
0
 62
     250
 10
1584.44
 20
299.359
 30
0.0
 11
1582.53
 21
292.358
 31
0.0
  0
LINE
  8
0
 62
     250
 10
1582.53
 20
292.358
 30
0.0
 11
1580.44
 21
285.381
 31
0.0
  0
LINE
  8
0
 62
     250
 10
1580.44
 20
285.381
 30
0.0
 11
1578.23
 21
278.722
 31
0.0
  0
LINE
  8
0
 62
     250
 10
1578.23
 20
278.722
 30
0.0
 11
1576.58
 21
274.176
 31
0.0
  0
LINE
  8
0
 62
     250
 10
1576.58
 20
274.176
 30
0.0
 11
1575.97
 21
272.679
 31
0.0
  0
LINE
  8
0
 62
     250
 10
1575.97
 20
272.679
 30
0.0
 11
1575.37
 21
271.187
 31
0.0
  0
LINE
  8
0
 62
     250
 10
1575.37
 20
271.187
 30
0.0
 11
1573.43
 21
266.763
 31
0.0
  0
LINE
  8
0
 62
     250
 10
1573.43
 20
266.763
 30
0.0
 11
1570.43
 21
260.434
 31
0.0
  0
LINE
  8
0
 62
     250
 10
1570.43
 20
260.434
 30
0.0
 11
1567.08
 21
253.913
 31
0.0
  0
LINE
  8
0
 62
     250
 10
1567.08
 20
253.913
 30
0.0
 11
1563.53
 21
247.424
 31
0.0
  0
LINE
  8
0
 62
     250
 10
1563.53
 20
247.424
 30
0.0
 11
1559.9
 21
241.189
 31
0.0
  0
LINE
  8
0
 62
     250
 10
1559.9
 20
241.189
 30
0.0
 11
1556.33
 21
235.429
 31
0.0
  0
LINE
  8
0
 62
     250
 10
1556.33
 20
235.429
 30
0.0
 11
1552.94
 21
230.368
 31
0.0
  0
LINE
  8
0
 62
     250
 10
1552.94
 20
230.368
 30
0.0
 11
1550.67
 21
227.236
 31
0.0
  0
LINE
  8
0
 62
     250
 10
1550.67
 20
227.236
 30
0.0
 11
1549.87
 21
226.227
 31
0.0
  0
LINE
  8
0
 62
     250
 10
1549.87
 20
226.227
 30
0.0
 11
1549.48
 21
225.738
 31
0.0
  0
LINE
  8
0
 62
     250
 10
1549.48
 20
225.738
 30
0.0
 11
1548.3
 21
224.277
 31
0.0
  0
LINE
  8
0
 62
     250
 10
1548.3
 20
224.277
 30
0.0
 11
1546.48
 21
222.061
 31
0.0
  0
LINE
  8
0
 62
     250
 10
1546.48
 20
222.061
 30
0.0
 11
1544.44
 21
219.624
 31
0.0
  0
LINE
  8
0
 62
     250
 10
1544.44
 20
219.624
 30
0.0
 11
1542.25
 21
217.005
 31
0.0
  0
LINE
  8
0
 62
     250
 10
1542.25
 20
217.005
 30
0.0
 11
1539.92
 21
214.252
 31
0.0
  0
LINE
  8
0
 62
     250
 10
1539.92
 20
214.252
 30
0.0
 11
1537.51
 21
211.408
 31
0.0
  0
LINE
  8
0
 62
     250
 10
1537.51
 20
211.408
 30
0.0
 11
1535.05
 21
208.512
 31
0.0
  0
LINE
  8
0
 62
     250
 10
1535.05
 20
208.512
 30
0.0
 11
1532.59
 21
205.613
 31
0.0
  0
LINE
  8
0
 62
     250
 10
1532.59
 20
205.613
 30
0.0
 11
1530.16
 21
202.752
 31
0.0
  0
LINE
  8
0
 62
     250
 10
1530.16
 20
202.752
 30
0.0
 11
1527.81
 21
199.973
 31
0.0
  0
LINE
  8
0
 62
     250
 10
1527.81
 20
199.973
 30
0.0
 11
1525.57
 21
197.318
 31
0.0
  0
LINE
  8
0
 62
     250
 10
1525.57
 20
197.318
 30
0.0
 11
1523.5
 21
194.831
 31
0.0
  0
LINE
  8
0
 62
     250
 10
1523.5
 20
194.831
 30
0.0
 11
1521.62
 21
192.557
 31
0.0
  0
LINE
  8
0
 62
     250
 10
1521.62
 20
192.557
 30
0.0
 11
1519.98
 21
190.537
 31
0.0
  0
LINE
  8
0
 62
     250
 10
1519.98
 20
190.537
 30
0.0
 11
1518.62
 21
188.817
 31
0.0
  0
LINE
  8
0
 62
     250
 10
1518.62
 20
188.817
 30
0.0
 11
1517.84
 21
187.788
 31
0.0
  0
LINE
  8
0
 62
     250
 10
1517.84
 20
187.788
 30
0.0
 11
1517.59
 21
187.438
 31
0.0
  0
LINE
  8
0
 62
     250
 10
1517.59
 20
187.438
 30
0.0
 11
1517.12
 21
186.801
 31
0.0
  0
LINE
  8
0
 62
     250
 10
1517.12
 20
186.801
 30
0.0
 11
1515.75
 21
184.88
 31
0.0
  0
LINE
  8
0
 62
     250
 10
1515.75
 20
184.88
 30
0.0
 11
1513.75
 21
182.073
 31
0.0
  0
LINE
  8
0
 62
     250
 10
1513.75
 20
182.073
 30
0.0
 11
1511.7
 21
179.159
 31
0.0
  0
LINE
  8
0
 62
     250
 10
1511.7
 20
179.159
 30
0.0
 11
1509.67
 21
176.28
 31
0.0
  0
LINE
  8
0
 62
     250
 10
1509.67
 20
176.28
 30
0.0
 11
1507.78
 21
173.579
 31
0.0
  0
LINE
  8
0
 62
     250
 10
1507.78
 20
173.579
 30
0.0
 11
1506.11
 21
171.202
 31
0.0
  0
LINE
  8
0
 62
     250
 10
1506.11
 20
171.202
 30
0.0
 11
1504.77
 21
169.288
 31
0.0
  0
LINE
  8
0
 62
     250
 10
1504.77
 20
169.288
 30
0.0
 11
1504.08
 21
168.307
 31
0.0
  0
LINE
  8
0
 62
     250
 10
1504.08
 20
168.307
 30
0.0
 11
1503.85
 21
167.981
 31
0.0
  0
LINE
  8
0
 62
     250
 10
1503.85
 20
167.981
 30
0.0
 11
1503.55
 21
167.561
 31
0.0
  0
LINE
  8
0
 62
     250
 10
1503.55
 20
167.561
 30
0.0
 11
1502.83
 21
166.163
 31
0.0
  0
LINE
  8
0
 62
     250
 10
1502.83
 20
166.163
 30
0.0
 11
1502.55
 21
164.358
 31
0.0
  0
LINE
  8
0
 62
     250
 10
1502.55
 20
164.358
 30
0.0
 11
1503.02
 21
162.326
 31
0.0
  0
LINE
  8
0
 62
     250
 10
1503.02
 20
162.326
 30
0.0
 11
1503.92
 21
160.424
 31
0.0
  0
LINE
  8
0
 62
     250
 10
1503.92
 20
160.424
 30
0.0
 11
1504.28
 21
159.821
 31
0.0
  0
LINE
  8
0
 62
     250
 10
1504.28
 20
159.821
 30
0.0
 11
1504.6
 21
159.27
 31
0.0
  0
LINE
  8
0
 62
     250
 10
1504.6
 20
159.27
 30
0.0
 11
1505.67
 21
157.668
 31
0.0
  0
LINE
  8
0
 62
     250
 10
1505.67
 20
157.668
 30
0.0
 11
1508.07
 21
154.214
 31
0.0
  0
LINE
  8
0
 62
     250
 10
1508.07
 20
154.214
 30
0.0
 11
1511.32
 21
149.732
 31
0.0
  0
LINE
  8
0
 62
     250
 10
1511.32
 20
149.732
 30
0.0
 11
1515.26
 21
144.497
 31
0.0
  0
LINE
  8
0
 62
     250
 10
1515.26
 20
144.497
 30
0.0
 11
1519.72
 21
138.783
 31
0.0
  0
LINE
  8
0
 62
     250
 10
1519.72
 20
138.783
 30
0.0
 11
1524.55
 21
132.868
 31
0.0
  0
LINE
  8
0
 62
     250
 10
1524.55
 20
132.868
 30
0.0
 11
1529.57
 21
127.021
 31
0.0
  0
LINE
  8
0
 62
     250
 10
1529.57
 20
127.021
 30
0.0
 11
1533.35
 21
122.867
 31
0.0
  0
LINE
  8
0
 62
     250
 10
1533.35
 20
122.867
 30
0.0
 11
1534.64
 21
121.52
 31
0.0
  0
LINE
  8
0
 62
     250
 10
1534.64
 20
121.52
 30
0.0
 11
1535.96
 21
120.153
 31
0.0
  0
LINE
  8
0
 62
     250
 10
1535.96
 20
120.153
 30
0.0
 11
1539.92
 21
116.07
 31
0.0
  0
LINE
  8
0
 62
     250
 10
1539.92
 20
116.07
 30
0.0
 11
1545.69
 21
110.278
 31
0.0
  0
LINE
  8
0
 62
     250
 10
1545.69
 20
110.278
 30
0.0
 11
1551.9
 21
104.279
 31
0.0
  0
LINE
  8
0
 62
     250
 10
1551.9
 20
104.279
 30
0.0
 11
1558.54
 21
98.2059
 31
0.0
  0
LINE
  8
0
 62
     250
 10
1558.54
 20
98.2059
 30
0.0
 11
1565.57
 21
92.1921
 31
0.0
  0
LINE
  8
0
 62
     250
 10
1565.57
 20
92.1921
 30
0.0
 11
1572.98
 21
86.3699
 31
0.0
  0
LINE
  8
0
 62
     250
 10
1572.98
 20
86.3699
 30
0.0
 11
1580.72
 21
80.8729
 31
0.0
  0
LINE
  8
0
 62
     250
 10
1580.72
 20
80.8729
 30
0.0
 11
1586.72
 21
77.0283
 31
0.0
  0
LINE
  8
0
 62
     250
 10
1586.72
 20
77.0283
 30
0.0
 11
1588.77
 21
75.8349
 31
0.0
  0
LINE
  8
0
 62
     250
 10
1588.77
 20
75.8349
 30
0.0
 11
1590.82
 21
74.6485
 31
0.0
  0
LINE
  8
0
 62
     250
 10
1590.82
 20
74.6485
 30
0.0
 11
1597.03
 21
71.2212
 31
0.0
  0
LINE
  8
0
 62
     250
 10
1597.03
 20
71.2212
 30
0.0
 11
1605.35
 21
66.9368
 31
0.0
  0
LINE
  8
0
 62
     250
 10
1605.35
 20
66.9368
 30
0.0
 11
1613.66
 21
63.0301
 31
0.0
  0
LINE
  8
0
 62
     250
 10
1613.66
 20
63.0301
 30
0.0
 11
1621.89
 21
59.5492
 31
0.0
  0
LINE
  8
0
 62
     250
 10
1621.89
 20
59.5492
 30
0.0
 11
1629.95
 21
56.5422
 31
0.0
  0
LINE
  8
0
 62
     250
 10
1629.95
 20
56.5422
 30
0.0
 11
1637.77
 21
54.0551
 31
0.0
  0
LINE
  8
0
 62
     250
 10
1637.77
 20
54.0551
 30
0.0
 11
1645.29
 21
52.1353
 31
0.0
  0
LINE
  8
0
 62
     250
 10
1645.29
 20
52.1353
 30
0.0
 11
1650.63
 21
51.0854
 31
0.0
  0
LINE
  8
0
 62
     250
 10
1650.63
 20
51.0854
 30
0.0
 11
1652.42
 21
50.8303
 31
0.0
  0
LINE
  8
0
 62
     250
 10
1652.42
 20
50.8303
 30
0.0
 11
1654.27
 21
50.57
 31
0.0
  0
LINE
  8
0
 62
     250
 10
1654.27
 20
50.57
 30
0.0
 11
1659.82
 21
49.9389
 31
0.0
  0
LINE
  8
0
 62
     250
 10
1659.82
 20
49.9389
 30
0.0
 11
1668.02
 21
49.2471
 31
0.0
  0
LINE
  8
0
 62
     250
 10
1668.02
 20
49.2471
 30
0.0
 11
1676.76
 21
48.7938
 31
0.0
  0
LINE
  8
0
 62
     250
 10
1676.76
 20
48.7938
 30
0.0
 11
1685.77
 21
48.6145
 31
0.0
  0
LINE
  8
0
 62
     250
 10
1685.77
 20
48.6145
 30
0.0
 11
1694.8
 21
48.7482
 31
0.0
  0
LINE
  8
0
 62
     250
 10
1694.8
 20
48.7482
 30
0.0
 11
1703.58
 21
49.2305
 31
0.0
  0
LINE
  8
0
 62
     250
 10
1703.58
 20
49.2305
 30
0.0
 11
1711.84
 21
50.1001
 31
0.0
  0
LINE
  8
0
 62
     250
 10
1711.84
 20
50.1001
 30
0.0
 11
1717.47
 21
50.9916
 31
0.0
  0
LINE
  8
0
 62
     250
 10
1717.47
 20
50.9916
 30
0.0
 11
1719.33
 21
51.3927
 31
0.0
  0
LINE
  8
0
 62
     250
 10
1719.33
 20
51.3927
 30
0.0
 11
1721.19
 21
51.7962
 31
0.0
  0
LINE
  8
0
 62
     250
 10
1721.19
 20
51.7962
 30
0.0
 11
1726.74
 21
53.1594
 31
0.0
  0
LINE
  8
0
 62
     250
 10
1726.74
 20
53.1594
 30
0.0
 11
1734.82
 21
55.4316
 31
0.0
  0
LINE
  8
0
 62
     250
 10
1734.82
 20
55.4316
 30
0.0
 11
1743.36
 21
58.2316
 31
0.0
  0
LINE
  8
0
 62
     250
 10
1743.36
 20
58.2316
 30
0.0
 11
1752.14
 21
61.5763
 31
0.0
  0
LINE
  8
0
 62
     250
 10
1752.14
 20
61.5763
 30
0.0
 11
1760.96
 21
65.4844
 31
0.0
  0
LINE
  8
0
 62
     250
 10
1760.96
 20
65.4844
 30
0.0
 11
1769.62
 21
69.9742
 31
0.0
  0
LINE
  8
0
 62
     250
 10
1769.62
 20
69.9742
 30
0.0
 11
1777.9
 21
75.063
 31
0.0
  0
LINE
  8
0
 62
     250
 10
1777.9
 20
75.063
 30
0.0
 11
1783.75
 21
79.2536
 31
0.0
  0
LINE
  8
0
 62
     250
 10
1783.75
 20
79.2536
 30
0.0
 11
1785.6
 21
80.7709
 31
0.0
  0
LINE
  8
0
 62
     250
 10
1785.6
 20
80.7709
 30
0.0
 11
1787.49
 21
82.3225
 31
0.0
  0
LINE
  8
0
 62
     250
 10
1787.49
 20
82.3225
 30
0.0
 11
1792.97
 21
87.2049
 31
0.0
  0
LINE
  8
0
 62
     250
 10
1792.97
 20
87.2049
 30
0.0
 11
1800.33
 21
94.3448
 31
0.0
  0
LINE
  8
0
 62
     250
 10
1800.33
 20
94.3448
 30
0.0
 11
1807.57
 21
102.027
 31
0.0
  0
LINE
  8
0
 62
     250
 10
1807.57
 20
102.027
 30
0.0
 11
1814.58
 21
110.085
 31
0.0
  0
LINE
  8
0
 62
     250
 10
1814.58
 20
110.085
 30
0.0
 11
1821.23
 21
118.351
 31
0.0
  0
LINE
  8
0
 62
     250
 10
1821.23
 20
118.351
 30
0.0
 11
1827.43
 21
126.66
 31
0.0
  0
LINE
  8
0
 62
     250
 10
1827.43
 20
126.66
 30
0.0
 11
1833.07
 21
134.845
 31
0.0
  0
LINE
  8
0
 62
     250
 10
1833.07
 20
134.845
 30
0.0
 11
1836.83
 21
140.738
 31
0.0
  0
LINE
  8
0
 62
     250
 10
1836.83
 20
140.738
 30
0.0
 11
1838.02
 21
142.738
 31
0.0
  0
LINE
  8
0
 62
     250
 10
1838.02
 20
142.738
 30
0.0
 11
1838.64
 21
143.778
 31
0.0
  0
LINE
  8
0
 62
     250
 10
1838.64
 20
143.778
 30
0.0
 11
1840.39
 21
146.95
 31
0.0
  0
LINE
  8
0
 62
     250
 10
1840.39
 20
146.95
 30
0.0
 11
1842.91
 21
151.805
 31
0.0
  0
LINE
  8
0
 62
     250
 10
1842.91
 20
151.805
 30
0.0
 11
1845.54
 21
157.176
 31
0.0
  0
LINE
  8
0
 62
     250
 10
1845.54
 20
157.176
 30
0.0
 11
1848.23
 21
162.939
 31
0.0
  0
LINE
  8
0
 62
     250
 10
1848.23
 20
162.939
 30
0.0
 11
1850.95
 21
168.967
 31
0.0
  0
LINE
  8
0
 62
     250
 10
1850.95
 20
168.967
 30
0.0
 11
1853.65
 21
175.132
 31
0.0
  0
LINE
  8
0
 62
     250
 10
1853.65
 20
175.132
 30
0.0
 11
1856.28
 21
181.311
 31
0.0
  0
LINE
  8
0
 62
     250
 10
1856.28
 20
181.311
 30
0.0
 11
1858.82
 21
187.375
 31
0.0
  0
LINE
  8
0
 62
     250
 10
1858.82
 20
187.375
 30
0.0
 11
1861.21
 21
193.198
 31
0.0
  0
LINE
  8
0
 62
     250
 10
1861.21
 20
193.198
 30
0.0
 11
1863.43
 21
198.655
 31
0.0
  0
LINE
  8
0
 62
     250
 10
1863.43
 20
198.655
 30
0.0
 11
1865.41
 21
203.618
 31
0.0
  0
LINE
  8
0
 62
     250
 10
1865.41
 20
203.618
 30
0.0
 11
1867.12
 21
207.963
 31
0.0
  0
LINE
  8
0
 62
     250
 10
1867.12
 20
207.963
 30
0.0
 11
1868.53
 21
211.562
 31
0.0
  0
LINE
  8
0
 62
     250
 10
1868.53
 20
211.562
 30
0.0
 11
1869.58
 21
214.288
 31
0.0
  0
LINE
  8
0
 62
     250
 10
1869.58
 20
214.288
 30
0.0
 11
1870.25
 21
216.017
 31
0.0
  0
LINE
  8
0
 62
     250
 10
1870.25
 20
216.017
 30
0.0
 11
1870.48
 21
216.621
 31
0.0
  0
LINE
  8
0
 62
     250
 10
1870.48
 20
216.621
 30
0.0
 11
1870.48
 21
216.621
 31
0.0
  0
LINE
  8
0
 62
     250
 10
1866.14
 20
209.788
 30
0.0
 11
1866.14
 21
209.788
 31
0.0
  0
LINE
  8
0
 62
     250
 10
1866.14
 20
209.788
 30
0.0
 11
1865.96
 21
209.518
 31
0.0
  0
LINE
  8
0
 62
     250
 10
1865.96
 20
209.518
 30
0.0
 11
1865.44
 21
208.74
 31
0.0
  0
LINE
  8
0
 62
     250
 10
1865.44
 20
208.74
 30
0.0
 11
1864.61
 21
207.502
 31
0.0
  0
LINE
  8
0
 62
     250
 10
1864.61
 20
207.502
 30
0.0
 11
1863.49
 21
205.851
 31
0.0
  0
LINE
  8
0
 62
     250
 10
1863.49
 20
205.851
 30
0.0
 11
1862.12
 21
203.84
 31
0.0
  0
LINE
  8
0
 62
     250
 10
1862.12
 20
203.84
 30
0.0
 11
1860.51
 21
201.513
 31
0.0
  0
LINE
  8
0
 62
     250
 10
1860.51
 20
201.513
 30
0.0
 11
1858.69
 21
198.921
 31
0.0
  0
LINE
  8
0
 62
     250
 10
1858.69
 20
198.921
 30
0.0
 11
1856.69
 21
196.111
 31
0.0
  0
LINE
  8
0
 62
     250
 10
1856.69
 20
196.111
 30
0.0
 11
1854.54
 21
193.133
 31
0.0
  0
LINE
  8
0
 62
     250
 10
1854.54
 20
193.133
 30
0.0
 11
1852.26
 21
190.036
 31
0.0
  0
LINE
  8
0
 62
     250
 10
1852.26
 20
190.036
 30
0.0
 11
1849.88
 21
186.867
 31
0.0
  0
LINE
  8
0
 62
     250
 10
1849.88
 20
186.867
 30
0.0
 11
1847.42
 21
183.674
 31
0.0
  0
LINE
  8
0
 62
     250
 10
1847.42
 20
183.674
 30
0.0
 11
1844.92
 21
180.509
 31
0.0
  0
LINE
  8
0
 62
     250
 10
1844.92
 20
180.509
 30
0.0
 11
1842.4
 21
177.417
 31
0.0
  0
LINE
  8
0
 62
     250
 10
1842.4
 20
177.417
 30
0.0
 11
1839.87
 21
174.447
 31
0.0
  0
LINE
  8
0
 62
     250
 10
1839.87
 20
174.447
 30
0.0
 11
1838.02
 21
172.34
 31
0.0
  0
LINE
  8
0
 62
     250
 10
1838.02
 20
172.34
 30
0.0
 11
1837.39
 21
171.649
 31
0.0
  0
LINE
  8
0
 62
     250
 10
1837.39
 20
171.649
 30
0.0
 11
1836.15
 21
170.296
 31
0.0
  0
LINE
  8
0
 62
     250
 10
1836.15
 20
170.296
 30
0.0
 11
1832.21
 21
166.444
 31
0.0
  0
LINE
  8
0
 62
     250
 10
1832.21
 20
166.444
 30
0.0
 11
1826.58
 21
161.601
 31
0.0
  0
LINE
  8
0
 62
     250
 10
1826.58
 20
161.601
 30
0.0
 11
1820.56
 21
157.107
 31
0.0
  0
LINE
  8
0
 62
     250
 10
1820.56
 20
157.107
 30
0.0
 11
1814.21
 21
152.949
 31
0.0
  0
LINE
  8
0
 62
     250
 10
1814.21
 20
152.949
 30
0.0
 11
1807.57
 21
149.109
 31
0.0
  0
LINE
  8
0
 62
     250
 10
1807.57
 20
149.109
 30
0.0
 11
1800.72
 21
145.574
 31
0.0
  0
LINE
  8
0
 62
     250
 10
1800.72
 20
145.574
 30
0.0
 11
1793.7
 21
142.332
 31
0.0
  0
LINE
  8
0
 62
     250
 10
1793.7
 20
142.332
 30
0.0
 11
1788.37
 21
140.075
 31
0.0
  0
LINE
  8
0
 62
     250
 10
1788.37
 20
140.075
 30
0.0
 11
1786.58
 21
139.364
 31
0.0
  0
LINE
  8
0
 62
     250
 10
1786.58
 20
139.364
 30
0.0
 11
1784.83
 21
138.672
 31
0.0
  0
LINE
  8
0
 62
     250
 10
1784.83
 20
138.672
 30
0.0
 11
1779.52
 21
136.747
 31
0.0
  0
LINE
  8
0
 62
     250
 10
1779.52
 20
136.747
 30
0.0
 11
1772.68
 21
134.546
 31
0.0
  0
LINE
  8
0
 62
     250
 10
1772.68
 20
134.546
 30
0.0
 11
1766.11
 21
132.742
 31
0.0
  0
LINE
  8
0
 62
     250
 10
1766.11
 20
132.742
 30
0.0
 11
1759.86
 21
131.313
 31
0.0
  0
LINE
  8
0
 62
     250
 10
1759.86
 20
131.313
 30
0.0
 11
1753.99
 21
130.24
 31
0.0
  0
LINE
  8
0
 62
     250
 10
1753.99
 20
130.24
 30
0.0
 11
1748.54
 21
129.501
 31
0.0
  0
LINE
  8
0
 62
     250
 10
1748.54
 20
129.501
 30
0.0
 11
1743.57
 21
129.074
 31
0.0
  0
LINE
  8
0
 62
     250
 10
1743.57
 20
129.074
 30
0.0
 11
1740.23
 21
128.939
 31
0.0
  0
LINE
  8
0
 62
     250
 10
1740.23
 20
128.939
 30
0.0
 11
1739.12
 21
128.939
 31
0.0
  0
LINE
  8
0
 62
     250
 10
1739.12
 20
128.939
 30
0.0
 11
1738.13
 21
128.94
 31
0.0
  0
LINE
  8
0
 62
     250
 10
1738.13
 20
128.94
 30
0.0
 11
1735.14
 21
129.037
 31
0.0
  0
LINE
  8
0
 62
     250
 10
1735.14
 20
129.037
 30
0.0
 11
1731.45
 21
129.341
 31
0.0
  0
LINE
  8
0
 62
     250
 10
1731.45
 20
129.341
 30
0.0
 11
1727.96
 21
129.887
 31
0.0
  0
LINE
  8
0
 62
     250
 10
1727.96
 20
129.887
 30
0.0
 11
1724.56
 21
130.711
 31
0.0
  0
LINE
  8
0
 62
     250
 10
1724.56
 20
130.711
 30
0.0
 11
1721.16
 21
131.848
 31
0.0
  0
LINE
  8
0
 62
     250
 10
1721.16
 20
131.848
 30
0.0
 11
1717.65
 21
133.332
 31
0.0
  0
LINE
  8
0
 62
     250
 10
1717.65
 20
133.332
 30
0.0
 11
1713.94
 21
135.199
 31
0.0
  0
LINE
  8
0
 62
     250
 10
1713.94
 20
135.199
 30
0.0
 11
1710.92
 21
136.893
 31
0.0
  0
LINE
  8
0
 62
     250
 10
1710.92
 20
136.893
 30
0.0
 11
1709.92
 21
137.484
 31
0.0
  0
LINE
  8
0
 62
     250
 10
1709.92
 20
137.484
 30
0.0
 11
1708.88
 21
138.105
 31
0.0
  0
LINE
  8
0
 62
     250
 10
1708.88
 20
138.105
 30
0.0
 11
1705.72
 21
139.892
 31
0.0
  0
LINE
  8
0
 62
     250
 10
1705.72
 20
139.892
 30
0.0
 11
1701.48
 21
142.069
 31
0.0
  0
LINE
  8
0
 62
     250
 10
1701.48
 20
142.069
 30
0.0
 11
1697.2
 21
143.966
 31
0.0
  0
LINE
  8
0
 62
     250
 10
1697.2
 20
143.966
 30
0.0
 11
1692.85
 21
145.537
 31
0.0
  0
LINE
  8
0
 62
     250
 10
1692.85
 20
145.537
 30
0.0
 11
1688.42
 21
146.734
 31
0.0
  0
LINE
  8
0
 62
     250
 10
1688.42
 20
146.734
 30
0.0
 11
1683.88
 21
147.505
 31
0.0
  0
LINE
  8
0
 62
     250
 10
1683.88
 20
147.505
 30
0.0
 11
1679.2
 21
147.804
 31
0.0
  0
LINE
  8
0
 62
     250
 10
1679.2
 20
147.804
 30
0.0
 11
1675.58
 21
147.705
 31
0.0
  0
LINE
  8
0
 62
     250
 10
1675.58
 20
147.705
 30
0.0
 11
1674.38
 21
147.584
 31
0.0
  0
LINE
  8
0
 62
     250
 10
1674.38
 20
147.584
 30
0.0
 11
1673.23
 21
147.468
 31
0.0
  0
LINE
  8
0
 62
     250
 10
1673.23
 20
147.468
 30
0.0
 11
1669.8
 21
146.859
 31
0.0
  0
LINE
  8
0
 62
     250
 10
1669.8
 20
146.859
 30
0.0
 11
1665.78
 21
145.73
 31
0.0
  0
LINE
  8
0
 62
     250
 10
1665.78
 20
145.73
 30
0.0
 11
1662.19
 21
144.285
 31
0.0
  0
LINE
  8
0
 62
     250
 10
1662.19
 20
144.285
 30
0.0
 11
1658.92
 21
142.606
 31
0.0
  0
LINE
  8
0
 62
     250
 10
1658.92
 20
142.606
 30
0.0
 11
1655.82
 21
140.781
 31
0.0
  0
LINE
  8
0
 62
     250
 10
1655.82
 20
140.781
 30
0.0
 11
1652.76
 21
138.891
 31
0.0
  0
LINE
  8
0
 62
     250
 10
1652.76
 20
138.891
 30
0.0
 11
1649.64
 21
137.024
 31
0.0
  0
LINE
  8
0
 62
     250
 10
1649.64
 20
137.024
 30
0.0
 11
1647.15
 21
135.672
 31
0.0
  0
LINE
  8
0
 62
     250
 10
1647.15
 20
135.672
 30
0.0
 11
1646.3
 21
135.261
 31
0.0
  0
LINE
  8
0
 62
     250
 10
1646.3
 20
135.261
 30
0.0
 11
1645.42
 21
134.833
 31
0.0
  0
LINE
  8
0
 62
     250
 10
1645.42
 20
134.833
 30
0.0
 11
1642.72
 21
133.622
 31
0.0
  0
LINE
  8
0
 62
     250
 10
1642.72
 20
133.622
 30
0.0
 11
1638.9
 21
132.102
 31
0.0
  0
LINE
  8
0
 62
     250
 10
1638.9
 20
132.102
 30
0.0
 11
1634.83
 21
130.763
 31
0.0
  0
LINE
  8
0
 62
     250
 10
1634.83
 20
130.763
 30
0.0
 11
1630.48
 21
129.669
 31
0.0
  0
LINE
  8
0
 62
     250
 10
1630.48
 20
129.669
 30
0.0
 11
1625.82
 21
128.884
 31
0.0
  0
LINE
  8
0
 62
     250
 10
1625.82
 20
128.884
 30
0.0
 11
1620.83
 21
128.468
 31
0.0
  0
LINE
  8
0
 62
     250
 10
1620.83
 20
128.468
 30
0.0
 11
1615.5
 21
128.484
 31
0.0
  0
LINE
  8
0
 62
     250
 10
1615.5
 20
128.484
 30
0.0
 11
1611.2
 21
128.809
 31
0.0
  0
LINE
  8
0
 62
     250
 10
1611.2
 20
128.809
 30
0.0
 11
1609.78
 21
128.995
 31
0.0
  0
LINE
  8
0
 62
     250
 10
1609.78
 20
128.995
 30
0.0
 11
1608.1
 21
129.217
 31
0.0
  0
LINE
  8
0
 62
     250
 10
1608.1
 20
129.217
 30
0.0
 11
1603.09
 21
130.04
 31
0.0
  0
LINE
  8
0
 62
     250
 10
1603.09
 20
130.04
 30
0.0
 11
1595.14
 21
131.534
 31
0.0
  0
LINE
  8
0
 62
     250
 10
1595.14
 20
131.534
 30
0.0
 11
1586.37
 21
133.361
 31
0.0
  0
LINE
  8
0
 62
     250
 10
1586.37
 20
133.361
 30
0.0
 11
1577.23
 21
135.406
 31
0.0
  0
LINE
  8
0
 62
     250
 10
1577.23
 20
135.406
 30
0.0
 11
1568.15
 21
137.554
 31
0.0
  0
LINE
  8
0
 62
     250
 10
1568.15
 20
137.554
 30
0.0
 11
1559.59
 21
139.689
 31
0.0
  0
LINE
  8
0
 62
     250
 10
1559.59
 20
139.689
 30
0.0
 11
1551.98
 21
141.694
 31
0.0
  0
LINE
  8
0
 62
     250
 10
1551.98
 20
141.694
 30
0.0
 11
1547.31
 21
142.994
 31
0.0
  0
LINE
  8
0
 62
     250
 10
1547.31
 20
142.994
 30
0.0
 11
1545.76
 21
143.454
 31
0.0
  0
LINE
  8
0
 62
     250
 10
1545.76
 20
143.454
 30
0.0
 11
1545.06
 21
143.662
 31
0.0
  0
LINE
  8
0
 62
     250
 10
1545.06
 20
143.662
 30
0.0
 11
1542.98
 21
144.33
 31
0.0
  0
LINE
  8
0
 62
     250
 10
1542.98
 20
144.33
 30
0.0
 11
1540.02
 21
145.342
 31
0.0
  0
LINE
  8
0
 62
     250
 10
1540.02
 20
145.342
 30
0.0
 11
1536.95
 21
146.462
 31
0.0
  0
LINE
  8
0
 62
     250
 10
1536.95
 20
146.462
 30
0.0
 11
1533.8
 21
147.665
 31
0.0
  0
LINE
  8
0
 62
     250
 10
1533.8
 20
147.665
 30
0.0
 11
1530.63
 21
148.924
 31
0.0
  0
LINE
  8
0
 62
     250
 10
1530.63
 20
148.924
 30
0.0
 11
1527.48
 21
150.213
 31
0.0
  0
LINE
  8
0
 62
     250
 10
1527.48
 20
150.213
 30
0.0
 11
1524.4
 21
151.504
 31
0.0
  0
LINE
  8
0
 62
     250
 10
1524.4
 20
151.504
 30
0.0
 11
1521.44
 21
152.774
 31
0.0
  0
LINE
  8
0
 62
     250
 10
1521.44
 20
152.774
 30
0.0
 11
1518.65
 21
153.992
 31
0.0
  0
LINE
  8
0
 62
     250
 10
1518.65
 20
153.992
 30
0.0
 11
1516.08
 21
155.133
 31
0.0
  0
LINE
  8
0
 62
     250
 10
1516.08
 20
155.133
 30
0.0
 11
1513.77
 21
156.172
 31
0.0
  0
LINE
  8
0
 62
     250
 10
1513.77
 20
156.172
 30
0.0
 11
1511.77
 21
157.081
 31
0.0
  0
LINE
  8
0
 62
     250
 10
1511.77
 20
157.081
 30
0.0
 11
1510.14
 21
157.835
 31
0.0
  0
LINE
  8
0
 62
     250
 10
1510.14
 20
157.835
 30
0.0
 11
1508.9
 21
158.405
 31
0.0
  0
LINE
  8
0
 62
     250
 10
1508.9
 20
158.405
 30
0.0
 11
1508.13
 21
158.768
 31
0.0
  0
LINE
  8
0
 62
     250
 10
1508.13
 20
158.768
 30
0.0
 11
1507.86
 21
158.893
 31
0.0
  0
LINE
  8
0
 62
     250
 10
1507.86
 20
158.893
 30
0.0
 11
1507.86
 21
158.893
 31
0.0
  0
LINE
  8
0
 62
     250
 10
1658.97
 20
99.4392
 30
0.0
 11
1659.02
 21
100.685
 31
0.0
  0
LINE
  8
0
 62
     250
 10
1659.02
 20
100.685
 30
0.0
 11
1659.66
 21
104.4
 31
0.0
  0
LINE
  8
0
 62
     250
 10
1659.66
 20
104.4
 30
0.0
 11
1661.28
 21
108.99
 31
0.0
  0
LINE
  8
0
 62
     250
 10
1661.28
 20
108.99
 30
0.0
 11
1663.7
 21
113.115
 31
0.0
  0
LINE
  8
0
 62
     250
 10
1663.7
 20
113.115
 30
0.0
 11
1666.85
 21
116.68
 31
0.0
  0
LINE
  8
0
 62
     250
 10
1666.85
 20
116.68
 30
0.0
 11
1670.61
 21
119.587
 31
0.0
  0
LINE
  8
0
 62
     250
 10
1670.61
 20
119.587
 30
0.0
 11
1674.88
 21
121.745
 31
0.0
  0
LINE
  8
0
 62
     250
 10
1674.88
 20
121.745
 30
0.0
 11
1679.57
 21
123.056
 31
0.0
  0
LINE
  8
0
 62
     250
 10
1679.57
 20
123.056
 30
0.0
 11
1683.33
 21
123.457
 31
0.0
  0
LINE
  8
0
 62
     250
 10
1683.33
 20
123.457
 30
0.0
 11
1684.58
 21
123.424
 31
0.0
  0
LINE
  8
0
 62
     250
 10
1684.58
 20
123.424
 30
0.0
 11
1685.83
 21
123.392
 31
0.0
  0
LINE
  8
0
 62
     250
 10
1685.83
 20
123.392
 30
0.0
 11
1689.59
 21
122.785
 31
0.0
  0
LINE
  8
0
 62
     250
 10
1689.59
 20
122.785
 30
0.0
 11
1694.24
 21
121.207
 31
0.0
  0
LINE
  8
0
 62
     250
 10
1694.24
 20
121.207
 30
0.0
 11
1698.42
 21
118.791
 31
0.0
  0
LINE
  8
0
 62
     250
 10
1698.42
 20
118.791
 30
0.0
 11
1702.03
 21
115.644
 31
0.0
  0
LINE
  8
0
 62
     250
 10
1702.03
 20
115.644
 30
0.0
 11
1704.99
 21
111.865
 31
0.0
  0
LINE
  8
0
 62
     250
 10
1704.99
 20
111.865
 30
0.0
 11
1707.18
 21
107.561
 31
0.0
  0
LINE
  8
0
 62
     250
 10
1707.18
 20
107.561
 30
0.0
 11
1708.51
 21
102.832
 31
0.0
  0
LINE
  8
0
 62
     250
 10
1708.51
 20
102.832
 30
0.0
 11
1708.92
 21
99.0424
 31
0.0
  0
LINE
  8
0
 62
     250
 10
1708.92
 20
99.0424
 30
0.0
 11
1708.88
 21
97.7829
 31
0.0
  0
LINE
  8
0
 62
     250
 10
1708.88
 20
97.7829
 30
0.0
 11
1708.85
 21
96.5246
 31
0.0
  0
LINE
  8
0
 62
     250
 10
1708.85
 20
96.5246
 30
0.0
 11
1708.25
 21
92.7612
 31
0.0
  0
LINE
  8
0
 62
     250
 10
1708.25
 20
92.7612
 30
0.0
 11
1706.67
 21
88.1091
 31
0.0
  0
LINE
  8
0
 62
     250
 10
1706.67
 20
88.1091
 30
0.0
 11
1704.26
 21
83.9251
 31
0.0
  0
LINE
  8
0
 62
     250
 10
1704.26
 20
83.9251
 30
0.0
 11
1701.11
 21
80.3081
 31
0.0
  0
LINE
  8
0
 62
     250
 10
1701.11
 20
80.3081
 30
0.0
 11
1697.34
 21
77.3536
 31
0.0
  0
LINE
  8
0
 62
     250
 10
1697.34
 20
77.3536
 30
0.0
 11
1693.04
 21
75.1611
 31
0.0
  0
LINE
  8
0
 62
     250
 10
1693.04
 20
75.1611
 30
0.0
 11
1688.31
 21
73.8283
 31
0.0
  0
LINE
  8
0
 62
     250
 10
1688.31
 20
73.8283
 30
0.0
 11
1684.52
 21
73.4205
 31
0.0
  0
LINE
  8
0
 62
     250
 10
1684.52
 20
73.4205
 30
0.0
 11
1683.27
 21
73.4522
 31
0.0
  0
LINE
  8
0
 62
     250
 10
1683.27
 20
73.4522
 30
0.0
 11
1682.19
 21
73.4811
 31
0.0
  0
LINE
  8
0
 62
     250
 10
1682.19
 20
73.4811
 30
0.0
 11
1678.95
 21
73.9401
 31
0.0
  0
LINE
  8
0
 62
     250
 10
1678.95
 20
73.9401
 30
0.0
 11
1674.89
 21
75.1293
 31
0.0
  0
LINE
  8
0
 62
     250
 10
1674.89
 20
75.1293
 30
0.0
 11
1671.15
 21
76.9539
 31
0.0
  0
LINE
  8
0
 62
     250
 10
1671.15
 20
76.9539
 30
0.0
 11
1667.8
 21
79.3475
 31
0.0
  0
LINE
  8
0
 62
     250
 10
1667.8
 20
79.3475
 30
0.0
 11
1664.9
 21
82.2494
 31
0.0
  0
LINE
  8
0
 62
     250
 10
1664.9
 20
82.2494
 30
0.0
 11
1662.5
 21
85.5913
 31
0.0
  0
LINE
  8
0
 62
     250
 10
1662.5
 20
85.5913
 30
0.0
 11
1660.67
 21
89.3092
 31
0.0
  0
LINE
  8
0
 62
     250
 10
1660.67
 20
89.3092
 30
0.0
 11
1659.68
 21
92.3135
 31
0.0
  0
LINE
  8
0
 62
     250
 10
1659.68
 20
92.3135
 30
0.0
 11
1659.47
 21
93.3372
 31
0.0
  0
LINE
  8
0
 62
     250
 10
1651.74
 20
98.7033
 30
0.0
 11
1651.44
 21
98.6786
 31
0.0
  0
LINE
  8
0
 62
     250
 10
1651.44
 20
98.6786
 30
0.0
 11
1650.57
 21
98.3753
 31
0.0
  0
LINE
  8
0
 62
     250
 10
1650.57
 20
98.3753
 30
0.0
 11
1649.64
 21
97.6644
 31
0.0
  0
LINE
  8
0
 62
     250
 10
1649.64
 20
97.6644
 30
0.0
 11
1649.05
 21
96.6639
 31
0.0
  0
LINE
  8
0
 62
     250
 10
1649.05
 20
96.6639
 30
0.0
 11
1648.86
 21
95.7626
 31
0.0
  0
LINE
  8
0
 62
     250
 10
1648.86
 20
95.7626
 30
0.0
 11
1648.88
 21
95.4663
 31
0.0
  0
LINE
  8
0
 62
     250
 10
1648.88
 20
95.4663
 30
0.0
 11
1648.9
 21
95.1699
 31
0.0
  0
LINE
  8
0
 62
     250
 10
1648.9
 20
95.1699
 30
0.0
 11
1649.19
 21
94.295
 31
0.0
  0
LINE
  8
0
 62
     250
 10
1649.19
 20
94.295
 30
0.0
 11
1649.9
 21
93.3662
 31
0.0
  0
LINE
  8
0
 62
     250
 10
1649.9
 20
93.3662
 30
0.0
 11
1650.91
 21
92.7724
 31
0.0
  0
LINE
  8
0
 62
     250
 10
1650.91
 20
92.7724
 30
0.0
 11
1651.81
 21
92.5862
 31
0.0
  0
LINE
  8
0
 62
     250
 10
1651.81
 20
92.5862
 30
0.0
 11
1652.11
 21
92.6042
 31
0.0
  0
LINE
  8
0
 62
     250
 10
1652.11
 20
92.6042
 30
0.0
 11
1652.11
 21
92.6042
 31
0.0
  0
LINE
  8
0
 62
     250
 10
1652.11
 20
92.6042
 30
0.0
 11
1652.53
 21
92.6483
 31
0.0
  0
LINE
  8
0
 62
     250
 10
1652.53
 20
92.6483
 30
0.0
 11
1653.63
 21
92.7626
 31
0.0
  0
LINE
  8
0
 62
     250
 10
1653.63
 20
92.7626
 30
0.0
 11
1655.21
 21
92.9266
 31
0.0
  0
LINE
  8
0
 62
     250
 10
1655.21
 20
92.9266
 30
0.0
 11
1657.02
 21
93.1182
 31
0.0
  0
LINE
  8
0
 62
     250
 10
1657.02
 20
93.1182
 30
0.0
 11
1658.87
 21
93.3168
 31
0.0
  0
LINE
  8
0
 62
     250
 10
1658.87
 20
93.3168
 30
0.0
 11
1660.52
 21
93.497
 31
0.0
  0
LINE
  8
0
 62
     250
 10
1660.52
 20
93.497
 30
0.0
 11
1661.76
 21
93.6417
 31
0.0
  0
LINE
  8
0
 62
     250
 10
1661.76
 20
93.6417
 30
0.0
 11
1662.21
 21
93.6942
 31
0.0
  0
LINE
  8
0
 62
     250
 10
1662.21
 20
93.6942
 30
0.0
 11
1662.36
 21
93.7246
 31
0.0
  0
LINE
  8
0
 62
     250
 10
1662.36
 20
93.7246
 30
0.0
 11
1662.45
 21
93.7451
 31
0.0
  0
LINE
  8
0
 62
     250
 10
1662.45
 20
93.7451
 30
0.0
 11
1662.65
 21
94.0978
 31
0.0
  0
LINE
  8
0
 62
     250
 10
1662.65
 20
94.0978
 30
0.0
 11
1662.75
 21
94.8863
 31
0.0
  0
LINE
  8
0
 62
     250
 10
1662.75
 20
94.8863
 30
0.0
 11
1662.72
 21
95.8744
 31
0.0
  0
LINE
  8
0
 62
     250
 10
1662.72
 20
95.8744
 30
0.0
 11
1662.67
 21
96.6004
 31
0.0
  0
LINE
  8
0
 62
     250
 10
1662.67
 20
96.6004
 30
0.0
 11
1662.65
 21
96.8417
 31
0.0
  0
LINE
  8
0
 62
     250
 10
1662.65
 20
96.8417
 30
0.0
 11
1662.62
 21
97.0746
 31
0.0
  0
LINE
  8
0
 62
     250
 10
1662.62
 20
97.0746
 30
0.0
 11
1662.51
 21
97.7692
 31
0.0
  0
LINE
  8
0
 62
     250
 10
1662.51
 20
97.7692
 30
0.0
 11
1662.29
 21
98.6578
 31
0.0
  0
LINE
  8
0
 62
     250
 10
1662.29
 20
98.6578
 30
0.0
 11
1662.02
 21
99.3401
 31
0.0
  0
LINE
  8
0
 62
     250
 10
1662.02
 20
99.3401
 30
0.0
 11
1661.83
 21
99.6266
 31
0.0
  0
LINE
  8
0
 62
     250
 10
1661.83
 20
99.6266
 30
0.0
 11
1661.75
 21
99.6446
 31
0.0
  0
LINE
  8
0
 62
     250
 10
1661.75
 20
99.6446
 30
0.0
 11
1661.66
 21
99.664
 31
0.0
  0
LINE
  8
0
 62
     250
 10
1661.66
 20
99.664
 30
0.0
 11
1661.24
 21
99.628
 31
0.0
  0
LINE
  8
0
 62
     250
 10
1661.24
 20
99.628
 30
0.0
 11
1660.1
 21
99.5355
 31
0.0
  0
LINE
  8
0
 62
     250
 10
1660.1
 20
99.5355
 30
0.0
 11
1658.54
 21
99.3909
 31
0.0
  0
LINE
  8
0
 62
     250
 10
1658.54
 20
99.3909
 30
0.0
 11
1656.77
 21
99.2159
 31
0.0
  0
LINE
  8
0
 62
     250
 10
1656.77
 20
99.2159
 30
0.0
 11
1655
 21
99.0367
 31
0.0
  0
LINE
  8
0
 62
     250
 10
1655
 20
99.0367
 30
0.0
 11
1653.43
 21
98.8769
 31
0.0
  0
LINE
  8
0
 62
     250
 10
1653.43
 20
98.8769
 30
0.0
 11
1652.28
 21
98.757
 31
0.0
  0
LINE
  8
0
 62
     250
 10
1652.28
 20
98.757
 30
0.0
 11
1651.84
 21
98.7129
 31
0.0
  0
LINE
  8
0
 62
     250
 10
1651.84
 20
98.7129
 30
0.0
 11
1651.74
 21
98.7033
 31
0.0
  0
LINE
  8
0
 62
     250
 10
1684.65
 20
83.8331
 30
0.0
 11
1683.92
 21
83.8521
 31
0.0
  0
LINE
  8
0
 62
     250
 10
1683.92
 20
83.8521
 30
0.0
 11
1681.75
 21
84.2038
 31
0.0
  0
LINE
  8
0
 62
     250
 10
1681.75
 20
84.2038
 30
0.0
 11
1679.06
 21
85.1158
 31
0.0
  0
LINE
  8
0
 62
     250
 10
1679.06
 20
85.1158
 30
0.0
 11
1676.65
 21
86.5106
 31
0.0
  0
LINE
  8
0
 62
     250
 10
1676.65
 20
86.5106
 30
0.0
 11
1674.56
 21
88.3296
 31
0.0
  0
LINE
  8
0
 62
     250
 10
1674.56
 20
88.3296
 30
0.0
 11
1672.85
 21
90.5122
 31
0.0
  0
LINE
  8
0
 62
     250
 10
1672.85
 20
90.5122
 30
0.0
 11
1671.59
 21
92.9996
 31
0.0
  0
LINE
  8
0
 62
     250
 10
1671.59
 20
92.9996
 30
0.0
 11
1670.82
 21
95.7322
 31
0.0
  0
LINE
  8
0
 62
     250
 10
1670.82
 20
95.7322
 30
0.0
 11
1670.59
 21
97.9219
 31
0.0
  0
LINE
  8
0
 62
     250
 10
1670.59
 20
97.9219
 30
0.0
 11
1670.6
 21
98.6483
 31
0.0
  0
LINE
  8
0
 62
     250
 10
1670.6
 20
98.6483
 30
0.0
 11
1670.62
 21
99.3757
 31
0.0
  0
LINE
  8
0
 62
     250
 10
1670.62
 20
99.3757
 30
0.0
 11
1670.97
 21
101.55
 31
0.0
  0
LINE
  8
0
 62
     250
 10
1670.97
 20
101.55
 30
0.0
 11
1671.88
 21
104.239
 31
0.0
  0
LINE
  8
0
 62
     250
 10
1671.88
 20
104.239
 30
0.0
 11
1673.28
 21
106.656
 31
0.0
  0
LINE
  8
0
 62
     250
 10
1673.28
 20
106.656
 30
0.0
 11
1675.09
 21
108.747
 31
0.0
  0
LINE
  8
0
 62
     250
 10
1675.09
 20
108.747
 30
0.0
 11
1677.27
 21
110.453
 31
0.0
  0
LINE
  8
0
 62
     250
 10
1677.27
 20
110.453
 30
0.0
 11
1679.76
 21
111.72
 31
0.0
  0
LINE
  8
0
 62
     250
 10
1679.76
 20
111.72
 30
0.0
 11
1682.49
 21
112.491
 31
0.0
  0
LINE
  8
0
 62
     250
 10
1682.49
 20
112.491
 30
0.0
 11
1684.68
 21
112.726
 31
0.0
  0
LINE
  8
0
 62
     250
 10
1684.68
 20
112.726
 30
0.0
 11
1685.41
 21
112.707
 31
0.0
  0
LINE
  8
0
 62
     250
 10
1685.41
 20
112.707
 30
0.0
 11
1686.13
 21
112.689
 31
0.0
  0
LINE
  8
0
 62
     250
 10
1686.13
 20
112.689
 30
0.0
 11
1688.3
 21
112.338
 31
0.0
  0
LINE
  8
0
 62
     250
 10
1688.3
 20
112.338
 30
0.0
 11
1690.99
 21
111.426
 31
0.0
  0
LINE
  8
0
 62
     250
 10
1690.99
 20
111.426
 30
0.0
 11
1693.4
 21
110.031
 31
0.0
  0
LINE
  8
0
 62
     250
 10
1693.4
 20
110.031
 30
0.0
 11
1695.49
 21
108.212
 31
0.0
  0
LINE
  8
0
 62
     250
 10
1695.49
 20
108.212
 30
0.0
 11
1697.2
 21
106.029
 31
0.0
  0
LINE
  8
0
 62
     250
 10
1697.2
 20
106.029
 30
0.0
 11
1698.46
 21
103.542
 31
0.0
  0
LINE
  8
0
 62
     250
 10
1698.46
 20
103.542
 30
0.0
 11
1699.23
 21
100.809
 31
0.0
  0
LINE
  8
0
 62
     250
 10
1699.23
 20
100.809
 30
0.0
 11
1699.47
 21
98.6194
 31
0.0
  0
LINE
  8
0
 62
     250
 10
1699.47
 20
98.6194
 30
0.0
 11
1699.45
 21
97.8916
 31
0.0
  0
LINE
  8
0
 62
     250
 10
1699.45
 20
97.8916
 30
0.0
 11
1699.43
 21
97.1656
 31
0.0
  0
LINE
  8
0
 62
     250
 10
1699.43
 20
97.1656
 30
0.0
 11
1699.08
 21
94.9911
 31
0.0
  0
LINE
  8
0
 62
     250
 10
1699.08
 20
94.9911
 30
0.0
 11
1698.17
 21
92.3025
 31
0.0
  0
LINE
  8
0
 62
     250
 10
1698.17
 20
92.3025
 30
0.0
 11
1696.78
 21
89.8853
 31
0.0
  0
LINE
  8
0
 62
     250
 10
1696.78
 20
89.8853
 30
0.0
 11
1694.96
 21
87.7947
 31
0.0
  0
LINE
  8
0
 62
     250
 10
1694.96
 20
87.7947
 30
0.0
 11
1692.78
 21
86.0887
 31
0.0
  0
LINE
  8
0
 62
     250
 10
1692.78
 20
86.0887
 30
0.0
 11
1690.29
 21
84.8212
 31
0.0
  0
LINE
  8
0
 62
     250
 10
1690.29
 20
84.8212
 30
0.0
 11
1687.56
 21
84.0507
 31
0.0
  0
LINE
  8
0
 62
     250
 10
1687.56
 20
84.0507
 30
0.0
 11
1685.38
 21
83.8151
 31
0.0
  0
LINE
  8
0
 62
     250
 10
1685.38
 20
83.8151
 30
0.0
 11
1684.65
 21
83.8331
 31
0.0
  0
LINE
  8
0
 62
     250
 10
1501.7
 20
352.968
 30
0.0
 11
1501.65
 21
351.094
 31
0.0
  0
LINE
  8
0
 62
     250
 10
1501.65
 20
351.094
 30
0.0
 11
1501.55
 21
345.463
 31
0.0
  0
LINE
  8
0
 62
     250
 10
1501.55
 20
345.463
 30
0.0
 11
1501.5
 21
338.078
 31
0.0
  0
LINE
  8
0
 62
     250
 10
1501.5
 20
338.078
 30
0.0
 11
1501.52
 21
331.028
 31
0.0
  0
LINE
  8
0
 62
     250
 10
1501.52
 20
331.028
 30
0.0
 11
1501.62
 21
324.531
 31
0.0
  0
LINE
  8
0
 62
     250
 10
1501.62
 20
324.531
 30
0.0
 11
1501.77
 21
318.801
 31
0.0
  0
LINE
  8
0
 62
     250
 10
1501.77
 20
318.801
 30
0.0
 11
1501.97
 21
314.052
 31
0.0
  0
LINE
  8
0
 62
     250
 10
1501.97
 20
314.052
 30
0.0
 11
1502.21
 21
310.501
 31
0.0
  0
LINE
  8
0
 62
     250
 10
1502.21
 20
310.501
 30
0.0
 11
1502.37
 21
308.889
 31
0.0
  0
LINE
  8
0
 62
     250
 10
1502.37
 20
308.889
 30
0.0
 11
1502.48
 21
308.361
 31
0.0
  0
LINE
  8
0
 62
     250
 10
1502.48
 20
308.361
 30
0.0
 11
1502.59
 21
307.786
 31
0.0
  0
LINE
  8
0
 62
     250
 10
1502.59
 20
307.786
 30
0.0
 11
1503.54
 21
306.181
 31
0.0
  0
LINE
  8
0
 62
     250
 10
1503.54
 20
306.181
 30
0.0
 11
1505.3
 21
304.919
 31
0.0
  0
LINE
  8
0
 62
     250
 10
1505.3
 20
304.919
 30
0.0
 11
1507.29
 21
304.329
 31
0.0
  0
LINE
  8
0
 62
     250
 10
1507.29
 20
304.329
 30
0.0
 11
1508.59
 21
304.173
 31
0.0
  0
LINE
  8
0
 62
     250
 10
1508.59
 20
304.173
 30
0.0
 11
1509.03
 21
304.161
 31
0.0
  0
LINE
  8
0
 62
     250
 10
1509.03
 20
304.161
 30
0.0
 11
1509.44
 21
304.151
 31
0.0
  0
LINE
  8
0
 62
     250
 10
1509.44
 20
304.151
 30
0.0
 11
1510.68
 21
304.473
 31
0.0
  0
LINE
  8
0
 62
     250
 10
1510.68
 20
304.473
 30
0.0
 11
1512.53
 21
305.459
 31
0.0
  0
LINE
  8
0
 62
     250
 10
1512.53
 20
305.459
 30
0.0
 11
1514.3
 21
307.07
 31
0.0
  0
LINE
  8
0
 62
     250
 10
1514.3
 20
307.07
 30
0.0
 11
1515.42
 21
308.679
 31
0.0
  0
LINE
  8
0
 62
     250
 10
1515.42
 20
308.679
 30
0.0
 11
1515.69
 21
309.265
 31
0.0
  0
LINE
  8
0
 62
     250
 10
1515.69
 20
309.265
 30
0.0
 11
1515.92
 21
309.789
 31
0.0
  0
LINE
  8
0
 62
     250
 10
1515.92
 20
309.789
 30
0.0
 11
1516.5
 21
311.413
 31
0.0
  0
LINE
  8
0
 62
     250
 10
1516.5
 20
311.413
 30
0.0
 11
1517.72
 21
315.152
 31
0.0
  0
LINE
  8
0
 62
     250
 10
1517.72
 20
315.152
 30
0.0
 11
1519.21
 21
320.139
 31
0.0
  0
LINE
  8
0
 62
     250
 10
1519.21
 20
320.139
 30
0.0
 11
1520.81
 21
326.026
 31
0.0
  0
LINE
  8
0
 62
     250
 10
1520.81
 20
326.026
 30
0.0
 11
1522.35
 21
332.467
 31
0.0
  0
LINE
  8
0
 62
     250
 10
1522.35
 20
332.467
 30
0.0
 11
1523.69
 21
339.117
 31
0.0
  0
LINE
  8
0
 62
     250
 10
1523.69
 20
339.117
 30
0.0
 11
1524.66
 21
345.631
 31
0.0
  0
LINE
  8
0
 62
     250
 10
1524.66
 20
345.631
 30
0.0
 11
1525.08
 21
350.153
 31
0.0
  0
LINE
  8
0
 62
     250
 10
1525.08
 20
350.153
 30
0.0
 11
1525.12
 21
351.662
 31
0.0
  0
LINE
  8
0
 62
     250
 10
1525.12
 20
351.662
 30
0.0
 11
1525.14
 21
352.41
 31
0.0
  0
LINE
  8
0
 62
     250
 10
1525.14
 20
352.41
 30
0.0
 11
1525.1
 21
354.655
 31
0.0
  0
LINE
  8
0
 62
     250
 10
1525.1
 20
354.655
 30
0.0
 11
1524.92
 21
357.918
 31
0.0
  0
LINE
  8
0
 62
     250
 10
1524.92
 20
357.918
 30
0.0
 11
1524.59
 21
361.386
 31
0.0
  0
LINE
  8
0
 62
     250
 10
1524.59
 20
361.386
 30
0.0
 11
1524.13
 21
365.002
 31
0.0
  0
LINE
  8
0
 62
     250
 10
1524.13
 20
365.002
 30
0.0
 11
1523.57
 21
368.702
 31
0.0
  0
LINE
  8
0
 62
     250
 10
1523.57
 20
368.702
 30
0.0
 11
1522.92
 21
372.431
 31
0.0
  0
LINE
  8
0
 62
     250
 10
1522.92
 20
372.431
 30
0.0
 11
1522.22
 21
376.121
 31
0.0
  0
LINE
  8
0
 62
     250
 10
1522.22
 20
376.121
 30
0.0
 11
1521.48
 21
379.712
 31
0.0
  0
LINE
  8
0
 62
     250
 10
1521.48
 20
379.712
 30
0.0
 11
1520.72
 21
383.145
 31
0.0
  0
LINE
  8
0
 62
     250
 10
1520.72
 20
383.145
 30
0.0
 11
1519.97
 21
386.359
 31
0.0
  0
LINE
  8
0
 62
     250
 10
1519.97
 20
386.359
 30
0.0
 11
1519.24
 21
389.29
 31
0.0
  0
LINE
  8
0
 62
     250
 10
1519.24
 20
389.29
 30
0.0
 11
1518.56
 21
391.88
 31
0.0
  0
LINE
  8
0
 62
     250
 10
1518.56
 20
391.88
 30
0.0
 11
1517.95
 21
394.063
 31
0.0
  0
LINE
  8
0
 62
     250
 10
1517.95
 20
394.063
 30
0.0
 11
1517.43
 21
395.785
 31
0.0
  0
LINE
  8
0
 62
     250
 10
1517.43
 20
395.785
 30
0.0
 11
1517.02
 21
396.977
 31
0.0
  0
LINE
  8
0
 62
     250
 10
1517.02
 20
396.977
 30
0.0
 11
1516.84
 21
397.45
 31
0.0
  0
LINE
  8
0
 62
     250
 10
1516.84
 20
397.45
 30
0.0
 11
1516.74
 21
397.581
 31
0.0
  0
LINE
  8
0
 62
     250
 10
1516.74
 20
397.581
 30
0.0
 11
1516.52
 21
397.902
 31
0.0
  0
LINE
  8
0
 62
     250
 10
1516.52
 20
397.902
 30
0.0
 11
1515.84
 21
398.836
 31
0.0
  0
LINE
  8
0
 62
     250
 10
1515.84
 20
398.836
 30
0.0
 11
1514.62
 21
400.085
 31
0.0
  0
LINE
  8
0
 62
     250
 10
1514.62
 20
400.085
 30
0.0
 11
1512.93
 21
401.062
 31
0.0
  0
LINE
  8
0
 62
     250
 10
1512.93
 20
401.062
 30
0.0
 11
1511.19
 21
401.479
 31
0.0
  0
LINE
  8
0
 62
     250
 10
1511.19
 20
401.479
 30
0.0
 11
1510.6
 21
401.493
 31
0.0
  0
LINE
  8
0
 62
     250
 10
1510.6
 20
401.493
 30
0.0
 11
1510.26
 21
401.503
 31
0.0
  0
LINE
  8
0
 62
     250
 10
1510.26
 20
401.503
 30
0.0
 11
1509.23
 21
401.309
 31
0.0
  0
LINE
  8
0
 62
     250
 10
1509.23
 20
401.309
 30
0.0
 11
1507.85
 21
400.724
 31
0.0
  0
LINE
  8
0
 62
     250
 10
1507.85
 20
400.724
 30
0.0
 11
1506.51
 21
399.814
 31
0.0
  0
LINE
  8
0
 62
     250
 10
1506.51
 20
399.814
 30
0.0
 11
1505.29
 21
398.646
 31
0.0
  0
LINE
  8
0
 62
     250
 10
1505.29
 20
398.646
 30
0.0
 11
1504.23
 21
397.291
 31
0.0
  0
LINE
  8
0
 62
     250
 10
1504.23
 20
397.291
 30
0.0
 11
1503.39
 21
395.824
 31
0.0
  0
LINE
  8
0
 62
     250
 10
1503.39
 20
395.824
 30
0.0
 11
1502.83
 21
394.307
 31
0.0
  0
LINE
  8
0
 62
     250
 10
1502.83
 20
394.307
 30
0.0
 11
1502.61
 21
393.188
 31
0.0
  0
LINE
  8
0
 62
     250
 10
1502.61
 20
393.188
 30
0.0
 11
1502.6
 21
392.811
 31
0.0
  0
LINE
  8
0
 62
     250
 10
1502.6
 20
392.811
 30
0.0
 11
1502.6
 21
392.539
 31
0.0
  0
LINE
  8
0
 62
     250
 10
1502.6
 20
392.539
 30
0.0
 11
1502.58
 21
391.724
 31
0.0
  0
LINE
  8
0
 62
     250
 10
1502.58
 20
391.724
 30
0.0
 11
1502.53
 21
389.985
 31
0.0
  0
LINE
  8
0
 62
     250
 10
1502.53
 20
389.985
 30
0.0
 11
1502.48
 21
387.692
 31
0.0
  0
LINE
  8
0
 62
     250
 10
1502.48
 20
387.692
 30
0.0
 11
1502.42
 21
384.948
 31
0.0
  0
LINE
  8
0
 62
     250
 10
1502.42
 20
384.948
 30
0.0
 11
1502.35
 21
381.85
 31
0.0
  0
LINE
  8
0
 62
     250
 10
1502.35
 20
381.85
 30
0.0
 11
1502.27
 21
378.499
 31
0.0
  0
LINE
  8
0
 62
     250
 10
1502.27
 20
378.499
 30
0.0
 11
1502.19
 21
374.992
 31
0.0
  0
LINE
  8
0
 62
     250
 10
1502.19
 20
374.992
 30
0.0
 11
1502.11
 21
371.433
 31
0.0
  0
LINE
  8
0
 62
     250
 10
1502.11
 20
371.433
 30
0.0
 11
1502.03
 21
367.923
 31
0.0
  0
LINE
  8
0
 62
     250
 10
1502.03
 20
367.923
 30
0.0
 11
1501.96
 21
364.554
 31
0.0
  0
LINE
  8
0
 62
     250
 10
1501.96
 20
364.554
 30
0.0
 11
1501.89
 21
361.428
 31
0.0
  0
LINE
  8
0
 62
     250
 10
1501.89
 20
361.428
 30
0.0
 11
1501.83
 21
358.648
 31
0.0
  0
LINE
  8
0
 62
     250
 10
1501.83
 20
358.648
 30
0.0
 11
1501.78
 21
356.313
 31
0.0
  0
LINE
  8
0
 62
     250
 10
1501.78
 20
356.313
 30
0.0
 11
1501.74
 21
354.524
 31
0.0
  0
LINE
  8
0
 62
     250
 10
1501.74
 20
354.524
 30
0.0
 11
1501.71
 21
353.374
 31
0.0
  0
LINE
  8
0
 62
     250
 10
1501.71
 20
353.374
 30
0.0
 11
1501.7
 21
352.968
 31
0.0
  0
LINE
  8
0
 62
     250
 10
1501.7
 20
352.968
 30
0.0
 11
1501.7
 21
352.968
 31
0.0
  0
LINE
  8
0
 62
     250
 10
1490.11
 20
355.635
 30
0.0
 11
1490.07
 21
354.009
 31
0.0
  0
LINE
  8
0
 62
     250
 10
1490.07
 20
354.009
 30
0.0
 11
1490.04
 21
349.127
 31
0.0
  0
LINE
  8
0
 62
     250
 10
1490.04
 20
349.127
 30
0.0
 11
1490.13
 21
342.119
 31
0.0
  0
LINE
  8
0
 62
     250
 10
1490.13
 20
342.119
 30
0.0
 11
1490.34
 21
334.963
 31
0.0
  0
LINE
  8
0
 62
     250
 10
1490.34
 20
334.963
 30
0.0
 11
1490.66
 21
328.013
 31
0.0
  0
LINE
  8
0
 62
     250
 10
1490.66
 20
328.013
 30
0.0
 11
1491.04
 21
321.623
 31
0.0
  0
LINE
  8
0
 62
     250
 10
1491.04
 20
321.623
 30
0.0
 11
1491.48
 21
316.141
 31
0.0
  0
LINE
  8
0
 62
     250
 10
1491.48
 20
316.141
 30
0.0
 11
1491.93
 21
311.923
 31
0.0
  0
LINE
  8
0
 62
     250
 10
1491.93
 20
311.923
 30
0.0
 11
1492.21
 21
309.958
 31
0.0
  0
LINE
  8
0
 62
     250
 10
1492.21
 20
309.958
 30
0.0
 11
1492.37
 21
309.32
 31
0.0
  0
LINE
  8
0
 62
     250
 10
1492.37
 20
309.32
 30
0.0
 11
1492.48
 21
308.875
 31
0.0
  0
LINE
  8
0
 62
     250
 10
1492.48
 20
308.875
 30
0.0
 11
1493
 21
307.581
 31
0.0
  0
LINE
  8
0
 62
     250
 10
1493
 20
307.581
 30
0.0
 11
1494.01
 21
305.774
 31
0.0
  0
LINE
  8
0
 62
     250
 10
1494.01
 20
305.774
 30
0.0
 11
1495.35
 21
303.992
 31
0.0
  0
LINE
  8
0
 62
     250
 10
1495.35
 20
303.992
 30
0.0
 11
1496.94
 21
302.325
 31
0.0
  0
LINE
  8
0
 62
     250
 10
1496.94
 20
302.325
 30
0.0
 11
1498.73
 21
300.86
 31
0.0
  0
LINE
  8
0
 62
     250
 10
1498.73
 20
300.86
 30
0.0
 11
1500.67
 21
299.688
 31
0.0
  0
LINE
  8
0
 62
     250
 10
1500.67
 20
299.688
 30
0.0
 11
1502.68
 21
298.898
 31
0.0
  0
LINE
  8
0
 62
     250
 10
1502.68
 20
298.898
 30
0.0
 11
1504.21
 21
298.592
 31
0.0
  0
LINE
  8
0
 62
     250
 10
1504.21
 20
298.592
 30
0.0
 11
1504.72
 21
298.578
 31
0.0
  0
LINE
  8
0
 62
     250
 10
1504.72
 20
298.578
 30
0.0
 11
1505.7
 21
298.553
 31
0.0
  0
LINE
  8
0
 62
     250
 10
1505.7
 20
298.553
 30
0.0
 11
1508.65
 21
298.87
 31
0.0
  0
LINE
  8
0
 62
     250
 10
1508.65
 20
298.87
 30
0.0
 11
1512.2
 21
300.084
 31
0.0
  0
LINE
  8
0
 62
     250
 10
1512.2
 20
300.084
 30
0.0
 11
1515.18
 21
302.406
 31
0.0
  0
LINE
  8
0
 62
     250
 10
1515.18
 20
302.406
 30
0.0
 11
1517
 21
305.055
 31
0.0
  0
LINE
  8
0
 62
     250
 10
1517
 20
305.055
 30
0.0
 11
1517.4
 21
306.024
 31
0.0
  0
LINE
  8
0
 62
     250
 10
1517.4
 20
306.024
 30
0.0
 11
1517.7
 21
306.75
 31
0.0
  0
LINE
  8
0
 62
     250
 10
1517.7
 20
306.75
 30
0.0
 11
1518.46
 21
308.98
 31
0.0
  0
LINE
  8
0
 62
     250
 10
1518.46
 20
308.98
 30
0.0
 11
1519.79
 21
313.333
 31
0.0
  0
LINE
  8
0
 62
     250
 10
1519.79
 20
313.333
 30
0.0
 11
1521.26
 21
318.816
 31
0.0
  0
LINE
  8
0
 62
     250
 10
1521.26
 20
318.816
 30
0.0
 11
1522.76
 21
325.158
 31
0.0
  0
LINE
  8
0
 62
     250
 10
1522.76
 20
325.158
 30
0.0
 11
1524.17
 21
332.088
 31
0.0
  0
LINE
  8
0
 62
     250
 10
1524.17
 20
332.088
 30
0.0
 11
1525.38
 21
339.336
 31
0.0
  0
LINE
  8
0
 62
     250
 10
1525.38
 20
339.336
 30
0.0
 11
1526.26
 21
346.632
 31
0.0
  0
LINE
  8
0
 62
     250
 10
1526.26
 20
346.632
 30
0.0
 11
1526.65
 21
351.934
 31
0.0
  0
LINE
  8
0
 62
     250
 10
1526.65
 20
351.934
 30
0.0
 11
1526.7
 21
353.706
 31
0.0
  0
LINE
  8
0
 62
     250
 10
1526.7
 20
353.706
 30
0.0
 11
1526.74
 21
355.452
 31
0.0
  0
LINE
  8
0
 62
     250
 10
1526.74
 20
355.452
 30
0.0
 11
1526.57
 21
360.701
 31
0.0
  0
LINE
  8
0
 62
     250
 10
1526.57
 20
360.701
 30
0.0
 11
1525.9
 21
367.796
 31
0.0
  0
LINE
  8
0
 62
     250
 10
1525.9
 20
367.796
 30
0.0
 11
1524.84
 21
374.756
 31
0.0
  0
LINE
  8
0
 62
     250
 10
1524.84
 20
374.756
 30
0.0
 11
1523.5
 21
381.346
 31
0.0
  0
LINE
  8
0
 62
     250
 10
1523.5
 20
381.346
 30
0.0
 11
1522.04
 21
387.332
 31
0.0
  0
LINE
  8
0
 62
     250
 10
1522.04
 20
387.332
 30
0.0
 11
1520.57
 21
392.483
 31
0.0
  0
LINE
  8
0
 62
     250
 10
1520.57
 20
392.483
 30
0.0
 11
1519.24
 21
396.568
 31
0.0
  0
LINE
  8
0
 62
     250
 10
1519.24
 20
396.568
 30
0.0
 11
1518.47
 21
398.667
 31
0.0
  0
LINE
  8
0
 62
     250
 10
1518.47
 20
398.667
 30
0.0
 11
1518.18
 21
399.352
 31
0.0
  0
LINE
  8
0
 62
     250
 10
1518.18
 20
399.352
 30
0.0
 11
1517.76
 21
400.329
 31
0.0
  0
LINE
  8
0
 62
     250
 10
1517.76
 20
400.329
 30
0.0
 11
1515.98
 21
403.038
 31
0.0
  0
LINE
  8
0
 62
     250
 10
1515.98
 20
403.038
 30
0.0
 11
1513.04
 21
405.821
 31
0.0
  0
LINE
  8
0
 62
     250
 10
1513.04
 20
405.821
 30
0.0
 11
1509.5
 21
407.607
 31
0.0
  0
LINE
  8
0
 62
     250
 10
1509.5
 20
407.607
 30
0.0
 11
1506.51
 21
408.27
 31
0.0
  0
LINE
  8
0
 62
     250
 10
1506.51
 20
408.27
 30
0.0
 11
1505.51
 21
408.294
 31
0.0
  0
LINE
  8
0
 62
     250
 10
1505.51
 20
408.294
 30
0.0
 11
1504.99
 21
408.309
 31
0.0
  0
LINE
  8
0
 62
     250
 10
1504.99
 20
408.309
 30
0.0
 11
1503.43
 21
408.132
 31
0.0
  0
LINE
  8
0
 62
     250
 10
1503.43
 20
408.132
 30
0.0
 11
1501.42
 21
407.585
 31
0.0
  0
LINE
  8
0
 62
     250
 10
1501.42
 20
407.585
 30
0.0
 11
1499.5
 21
406.718
 31
0.0
  0
LINE
  8
0
 62
     250
 10
1499.5
 20
406.718
 30
0.0
 11
1497.73
 21
405.599
 31
0.0
  0
LINE
  8
0
 62
     250
 10
1497.73
 20
405.599
 30
0.0
 11
1496.17
 21
404.301
 31
0.0
  0
LINE
  8
0
 62
     250
 10
1496.17
 20
404.301
 30
0.0
 11
1494.86
 21
402.89
 31
0.0
  0
LINE
  8
0
 62
     250
 10
1494.86
 20
402.89
 30
0.0
 11
1493.86
 21
401.436
 31
0.0
  0
LINE
  8
0
 62
     250
 10
1493.86
 20
401.436
 30
0.0
 11
1493.34
 21
400.375
 31
0.0
  0
LINE
  8
0
 62
     250
 10
1493.34
 20
400.375
 30
0.0
 11
1493.22
 21
400.004
 31
0.0
  0
LINE
  8
0
 62
     250
 10
1493.22
 20
400.004
 30
0.0
 11
1493.13
 21
399.736
 31
0.0
  0
LINE
  8
0
 62
     250
 10
1493.13
 20
399.736
 30
0.0
 11
1492.98
 21
398.893
 31
0.0
  0
LINE
  8
0
 62
     250
 10
1492.98
 20
398.893
 30
0.0
 11
1492.74
 21
397.03
 31
0.0
  0
LINE
  8
0
 62
     250
 10
1492.74
 20
397.03
 30
0.0
 11
1492.48
 21
394.529
 31
0.0
  0
LINE
  8
0
 62
     250
 10
1492.48
 20
394.529
 30
0.0
 11
1492.22
 21
391.502
 31
0.0
  0
LINE
  8
0
 62
     250
 10
1492.22
 20
391.502
 30
0.0
 11
1491.96
 21
388.066
 31
0.0
  0
LINE
  8
0
 62
     250
 10
1491.96
 20
388.066
 30
0.0
 11
1491.7
 21
384.334
 31
0.0
  0
LINE
  8
0
 62
     250
 10
1491.7
 20
384.334
 30
0.0
 11
1491.45
 21
380.414
 31
0.0
  0
LINE
  8
0
 62
     250
 10
1491.45
 20
380.414
 30
0.0
 11
1491.21
 21
376.428
 31
0.0
  0
LINE
  8
0
 62
     250
 10
1491.21
 20
376.428
 30
0.0
 11
1490.98
 21
372.48
 31
0.0
  0
LINE
  8
0
 62
     250
 10
1490.98
 20
372.48
 30
0.0
 11
1490.78
 21
368.695
 31
0.0
  0
LINE
  8
0
 62
     250
 10
1490.78
 20
368.695
 30
0.0
 11
1490.59
 21
365.178
 31
0.0
  0
LINE
  8
0
 62
     250
 10
1490.59
 20
365.178
 30
0.0
 11
1490.43
 21
362.045
 31
0.0
  0
LINE
  8
0
 62
     250
 10
1490.43
 20
362.045
 30
0.0
 11
1490.3
 21
359.414
 31
0.0
  0
LINE
  8
0
 62
     250
 10
1490.3
 20
359.414
 30
0.0
 11
1490.2
 21
357.389
 31
0.0
  0
LINE
  8
0
 62
     250
 10
1490.2
 20
357.389
 30
0.0
 11
1490.13
 21
356.094
 31
0.0
  0
LINE
  8
0
 62
     250
 10
1490.13
 20
356.094
 30
0.0
 11
1490.11
 21
355.635
 31
0.0
  0
LINE
  8
0
 62
     250
 10
1490.11
 20
355.635
 30
0.0
 11
1490.11
 21
355.635
 31
0.0
  0
LINE
  8
0
 62
     250
 10
1717.43
 20
307.588
 30
0.0
 11
1716.33
 21
307.617
 31
0.0
  0
LINE
  8
0
 62
     250
 10
1716.33
 20
307.617
 30
0.0
 11
1713.06
 21
307.925
 31
0.0
  0
LINE
  8
0
 62
     250
 10
1713.06
 20
307.925
 30
0.0
 11
1708.84
 21
308.689
 31
0.0
  0
LINE
  8
0
 62
     250
 10
1708.84
 20
308.689
 30
0.0
 11
1704.77
 21
309.856
 31
0.0
  0
LINE
  8
0
 62
     250
 10
1704.77
 20
309.856
 30
0.0
 11
1700.89
 21
311.406
 31
0.0
  0
LINE
  8
0
 62
     250
 10
1700.89
 20
311.406
 30
0.0
 11
1697.2
 21
313.316
 31
0.0
  0
LINE
  8
0
 62
     250
 10
1697.2
 20
313.316
 30
0.0
 11
1693.74
 21
315.564
 31
0.0
  0
LINE
  8
0
 62
     250
 10
1693.74
 20
315.564
 30
0.0
 11
1690.51
 21
318.127
 31
0.0
  0
LINE
  8
0
 62
     250
 10
1690.51
 20
318.127
 30
0.0
 11
1687.55
 21
320.985
 31
0.0
  0
LINE
  8
0
 62
     250
 10
1687.55
 20
320.985
 30
0.0
 11
1684.87
 21
324.113
 31
0.0
  0
LINE
  8
0
 62
     250
 10
1684.87
 20
324.113
 30
0.0
 11
1682.5
 21
327.489
 31
0.0
  0
LINE
  8
0
 62
     250
 10
1682.5
 20
327.489
 30
0.0
 11
1680.46
 21
331.094
 31
0.0
  0
LINE
  8
0
 62
     250
 10
1680.46
 20
331.094
 30
0.0
 11
1678.76
 21
334.903
 31
0.0
  0
LINE
  8
0
 62
     250
 10
1678.76
 20
334.903
 30
0.0
 11
1677.42
 21
338.894
 31
0.0
  0
LINE
  8
0
 62
     250
 10
1677.42
 20
338.894
 30
0.0
 11
1676.48
 21
343.046
 31
0.0
  0
LINE
  8
0
 62
     250
 10
1676.48
 20
343.046
 30
0.0
 11
1675.94
 21
347.336
 31
0.0
  0
LINE
  8
0
 62
     250
 10
1675.94
 20
347.336
 30
0.0
 11
1675.81
 21
350.642
 31
0.0
  0
LINE
  8
0
 62
     250
 10
1675.81
 20
350.642
 30
0.0
 11
1675.84
 21
351.74
 31
0.0
  0
LINE
  8
0
 62
     250
 10
1675.84
 20
351.74
 30
0.0
 11
1675.86
 21
352.841
 31
0.0
  0
LINE
  8
0
 62
     250
 10
1675.86
 20
352.841
 30
0.0
 11
1676.17
 21
356.136
 31
0.0
  0
LINE
  8
0
 62
     250
 10
1676.17
 20
356.136
 30
0.0
 11
1676.93
 21
360.391
 31
0.0
  0
LINE
  8
0
 62
     250
 10
1676.93
 20
360.391
 30
0.0
 11
1678.09
 21
364.486
 31
0.0
  0
LINE
  8
0
 62
     250
 10
1678.09
 20
364.486
 30
0.0
 11
1679.63
 21
368.402
 31
0.0
  0
LINE
  8
0
 62
     250
 10
1679.63
 20
368.402
 30
0.0
 11
1681.53
 21
372.117
 31
0.0
  0
LINE
  8
0
 62
     250
 10
1681.53
 20
372.117
 30
0.0
 11
1683.76
 21
375.61
 31
0.0
  0
LINE
  8
0
 62
     250
 10
1683.76
 20
375.61
 30
0.0
 11
1686.31
 21
378.859
 31
0.0
  0
LINE
  8
0
 62
     250
 10
1686.31
 20
378.859
 30
0.0
 11
1689.15
 21
381.84
 31
0.0
  0
LINE
  8
0
 62
     250
 10
1689.15
 20
381.84
 30
0.0
 11
1692.25
 21
384.538
 31
0.0
  0
LINE
  8
0
 62
     250
 10
1692.25
 20
384.538
 30
0.0
 11
1695.6
 21
386.93
 31
0.0
  0
LINE
  8
0
 62
     250
 10
1695.6
 20
386.93
 30
0.0
 11
1699.18
 21
388.994
 31
0.0
  0
LINE
  8
0
 62
     250
 10
1699.18
 20
388.994
 30
0.0
 11
1702.96
 21
390.708
 31
0.0
  0
LINE
  8
0
 62
     250
 10
1702.96
 20
390.708
 30
0.0
 11
1706.93
 21
392.049
 31
0.0
  0
LINE
  8
0
 62
     250
 10
1706.93
 20
392.049
 30
0.0
 11
1711.05
 21
393.005
 31
0.0
  0
LINE
  8
0
 62
     250
 10
1711.05
 20
393.005
 30
0.0
 11
1715.3
 21
393.545
 31
0.0
  0
LINE
  8
0
 62
     250
 10
1715.3
 20
393.545
 30
0.0
 11
1718.59
 21
393.682
 31
0.0
  0
LINE
  8
0
 62
     250
 10
1718.59
 20
393.682
 30
0.0
 11
1719.68
 21
393.651
 31
0.0
  0
LINE
  8
0
 62
     250
 10
1719.68
 20
393.651
 30
0.0
 11
1720.77
 21
393.626
 31
0.0
  0
LINE
  8
0
 62
     250
 10
1720.77
 20
393.626
 30
0.0
 11
1724.04
 21
393.315
 31
0.0
  0
LINE
  8
0
 62
     250
 10
1724.04
 20
393.315
 30
0.0
 11
1728.27
 21
392.553
 31
0.0
  0
LINE
  8
0
 62
     250
 10
1728.27
 20
392.553
 30
0.0
 11
1732.33
 21
391.386
 31
0.0
  0
LINE
  8
0
 62
     250
 10
1732.33
 20
391.386
 30
0.0
 11
1736.22
 21
389.837
 31
0.0
  0
LINE
  8
0
 62
     250
 10
1736.22
 20
389.837
 30
0.0
 11
1739.9
 21
387.925
 31
0.0
  0
LINE
  8
0
 62
     250
 10
1739.9
 20
387.925
 30
0.0
 11
1743.37
 21
385.678
 31
0.0
  0
LINE
  8
0
 62
     250
 10
1743.37
 20
385.678
 30
0.0
 11
1746.59
 21
383.113
 31
0.0
  0
LINE
  8
0
 62
     250
 10
1746.59
 20
383.113
 30
0.0
 11
1749.55
 21
380.256
 31
0.0
  0
LINE
  8
0
 62
     250
 10
1749.55
 20
380.256
 30
0.0
 11
1752.23
 21
377.13
 31
0.0
  0
LINE
  8
0
 62
     250
 10
1752.23
 20
377.13
 30
0.0
 11
1754.6
 21
373.754
 31
0.0
  0
LINE
  8
0
 62
     250
 10
1754.6
 20
373.754
 30
0.0
 11
1756.65
 21
370.149
 31
0.0
  0
LINE
  8
0
 62
     250
 10
1756.65
 20
370.149
 30
0.0
 11
1758.35
 21
366.339
 31
0.0
  0
LINE
  8
0
 62
     250
 10
1758.35
 20
366.339
 30
0.0
 11
1759.68
 21
362.349
 31
0.0
  0
LINE
  8
0
 62
     250
 10
1759.68
 20
362.349
 30
0.0
 11
1760.63
 21
358.196
 31
0.0
  0
LINE
  8
0
 62
     250
 10
1760.63
 20
358.196
 30
0.0
 11
1761.16
 21
353.907
 31
0.0
  0
LINE
  8
0
 62
     250
 10
1761.16
 20
353.907
 30
0.0
 11
1761.3
 21
350.6
 31
0.0
  0
LINE
  8
0
 62
     250
 10
1761.3
 20
350.6
 30
0.0
 11
1761.27
 21
349.501
 31
0.0
  0
LINE
  8
0
 62
     250
 10
1761.27
 20
349.501
 30
0.0
 11
1761.24
 21
348.401
 31
0.0
  0
LINE
  8
0
 62
     250
 10
1761.24
 20
348.401
 30
0.0
 11
1760.93
 21
345.108
 31
0.0
  0
LINE
  8
0
 62
     250
 10
1760.93
 20
345.108
 30
0.0
 11
1760.17
 21
340.852
 31
0.0
  0
LINE
  8
0
 62
     250
 10
1760.17
 20
340.852
 30
0.0
 11
1759.01
 21
336.755
 31
0.0
  0
LINE
  8
0
 62
     250
 10
1759.01
 20
336.755
 30
0.0
 11
1757.47
 21
332.839
 31
0.0
  0
LINE
  8
0
 62
     250
 10
1757.47
 20
332.839
 30
0.0
 11
1755.57
 21
329.125
 31
0.0
  0
LINE
  8
0
 62
     250
 10
1755.57
 20
329.125
 30
0.0
 11
1753.34
 21
325.633
 31
0.0
  0
LINE
  8
0
 62
     250
 10
1753.34
 20
325.633
 30
0.0
 11
1750.8
 21
322.385
 31
0.0
  0
LINE
  8
0
 62
     250
 10
1750.8
 20
322.385
 30
0.0
 11
1747.96
 21
319.402
 31
0.0
  0
LINE
  8
0
 62
     250
 10
1747.96
 20
319.402
 30
0.0
 11
1744.85
 21
316.703
 31
0.0
  0
LINE
  8
0
 62
     250
 10
1744.85
 20
316.703
 30
0.0
 11
1741.5
 21
314.313
 31
0.0
  0
LINE
  8
0
 62
     250
 10
1741.5
 20
314.313
 30
0.0
 11
1737.92
 21
312.25
 31
0.0
  0
LINE
  8
0
 62
     250
 10
1737.92
 20
312.25
 30
0.0
 11
1734.14
 21
310.535
 31
0.0
  0
LINE
  8
0
 62
     250
 10
1734.14
 20
310.535
 30
0.0
 11
1730.18
 21
309.19
 31
0.0
  0
LINE
  8
0
 62
     250
 10
1730.18
 20
309.19
 30
0.0
 11
1726.06
 21
308.237
 31
0.0
  0
LINE
  8
0
 62
     250
 10
1726.06
 20
308.237
 30
0.0
 11
1721.8
 21
307.697
 31
0.0
  0
LINE
  8
0
 62
     250
 10
1721.8
 20
307.697
 30
0.0
 11
1718.52
 21
307.56
 31
0.0
  0
LINE
  8
0
 62
     250
 10
1718.52
 20
307.56
 30
0.0
 11
1717.43
 21
307.588
 31
0.0
  0
LINE
  8
0
 62
     250
 10
1716.32
 20
310.087
 30
0.0
 11
1715.22
 21
310.116
 31
0.0
  0
LINE
  8
0
 62
     250
 10
1715.22
 20
310.116
 30
0.0
 11
1711.96
 21
310.425
 31
0.0
  0
LINE
  8
0
 62
     250
 10
1711.96
 20
310.425
 30
0.0
 11
1707.73
 21
311.188
 31
0.0
  0
LINE
  8
0
 62
     250
 10
1707.73
 20
311.188
 30
0.0
 11
1703.67
 21
312.356
 31
0.0
  0
LINE
  8
0
 62
     250
 10
1703.67
 20
312.356
 30
0.0
 11
1699.78
 21
313.906
 31
0.0
  0
LINE
  8
0
 62
     250
 10
1699.78
 20
313.906
 30
0.0
 11
1696.09
 21
315.816
 31
0.0
  0
LINE
  8
0
 62
     250
 10
1696.09
 20
315.816
 30
0.0
 11
1692.63
 21
318.064
 31
0.0
  0
LINE
  8
0
 62
     250
 10
1692.63
 20
318.064
 30
0.0
 11
1689.4
 21
320.627
 31
0.0
  0
LINE
  8
0
 62
     250
 10
1689.4
 20
320.627
 30
0.0
 11
1686.44
 21
323.483
 31
0.0
  0
LINE
  8
0
 62
     250
 10
1686.44
 20
323.483
 30
0.0
 11
1683.77
 21
326.612
 31
0.0
  0
LINE
  8
0
 62
     250
 10
1683.77
 20
326.612
 30
0.0
 11
1681.39
 21
329.989
 31
0.0
  0
LINE
  8
0
 62
     250
 10
1681.39
 20
329.989
 30
0.0
 11
1679.35
 21
333.593
 31
0.0
  0
LINE
  8
0
 62
     250
 10
1679.35
 20
333.593
 30
0.0
 11
1677.65
 21
337.402
 31
0.0
  0
LINE
  8
0
 62
     250
 10
1677.65
 20
337.402
 30
0.0
 11
1676.31
 21
341.394
 31
0.0
  0
LINE
  8
0
 62
     250
 10
1676.31
 20
341.394
 30
0.0
 11
1675.37
 21
345.544
 31
0.0
  0
LINE
  8
0
 62
     250
 10
1675.37
 20
345.544
 30
0.0
 11
1674.83
 21
349.834
 31
0.0
  0
LINE
  8
0
 62
     250
 10
1674.83
 20
349.834
 30
0.0
 11
1674.7
 21
353.141
 31
0.0
  0
LINE
  8
0
 62
     250
 10
1674.7
 20
353.141
 30
0.0
 11
1674.73
 21
354.238
 31
0.0
  0
LINE
  8
0
 62
     250
 10
1674.73
 20
354.238
 30
0.0
 11
1674.76
 21
355.342
 31
0.0
  0
LINE
  8
0
 62
     250
 10
1674.76
 20
355.342
 30
0.0
 11
1675.06
 21
358.634
 31
0.0
  0
LINE
  8
0
 62
     250
 10
1675.06
 20
358.634
 30
0.0
 11
1675.82
 21
362.888
 31
0.0
  0
LINE
  8
0
 62
     250
 10
1675.82
 20
362.888
 30
0.0
 11
1676.98
 21
366.988
 31
0.0
  0
LINE
  8
0
 62
     250
 10
1676.98
 20
366.988
 30
0.0
 11
1678.52
 21
370.904
 31
0.0
  0
LINE
  8
0
 62
     250
 10
1678.52
 20
370.904
 30
0.0
 11
1680.42
 21
374.618
 31
0.0
  0
LINE
  8
0
 62
     250
 10
1680.42
 20
374.618
 30
0.0
 11
1682.65
 21
378.107
 31
0.0
  0
LINE
  8
0
 62
     250
 10
1682.65
 20
378.107
 30
0.0
 11
1685.2
 21
381.356
 31
0.0
  0
LINE
  8
0
 62
     250
 10
1685.2
 20
381.356
 30
0.0
 11
1688.03
 21
384.341
 31
0.0
  0
LINE
  8
0
 62
     250
 10
1688.03
 20
384.341
 30
0.0
 11
1691.14
 21
387.04
 31
0.0
  0
LINE
  8
0
 62
     250
 10
1691.14
 20
387.04
 30
0.0
 11
1694.49
 21
389.428
 31
0.0
  0
LINE
  8
0
 62
     250
 10
1694.49
 20
389.428
 30
0.0
 11
1698.07
 21
391.492
 31
0.0
  0
LINE
  8
0
 62
     250
 10
1698.07
 20
391.492
 30
0.0
 11
1701.85
 21
393.206
 31
0.0
  0
LINE
  8
0
 62
     250
 10
1701.85
 20
393.206
 30
0.0
 11
1705.81
 21
394.55
 31
0.0
  0
LINE
  8
0
 62
     250
 10
1705.81
 20
394.55
 30
0.0
 11
1709.94
 21
395.503
 31
0.0
  0
LINE
  8
0
 62
     250
 10
1709.94
 20
395.503
 30
0.0
 11
1714.19
 21
396.042
 31
0.0
  0
LINE
  8
0
 62
     250
 10
1714.19
 20
396.042
 30
0.0
 11
1717.47
 21
396.18
 31
0.0
  0
LINE
  8
0
 62
     250
 10
1717.47
 20
396.18
 30
0.0
 11
1718.57
 21
396.152
 31
0.0
  0
LINE
  8
0
 62
     250
 10
1718.57
 20
396.152
 30
0.0
 11
1719.66
 21
396.124
 31
0.0
  0
LINE
  8
0
 62
     250
 10
1719.66
 20
396.124
 30
0.0
 11
1722.93
 21
395.817
 31
0.0
  0
LINE
  8
0
 62
     250
 10
1722.93
 20
395.817
 30
0.0
 11
1727.15
 21
395.051
 31
0.0
  0
LINE
  8
0
 62
     250
 10
1727.15
 20
395.051
 30
0.0
 11
1731.22
 21
393.883
 31
0.0
  0
LINE
  8
0
 62
     250
 10
1731.22
 20
393.883
 30
0.0
 11
1735.11
 21
392.335
 31
0.0
  0
LINE
  8
0
 62
     250
 10
1735.11
 20
392.335
 30
0.0
 11
1738.79
 21
390.423
 31
0.0
  0
LINE
  8
0
 62
     250
 10
1738.79
 20
390.423
 30
0.0
 11
1742.26
 21
388.175
 31
0.0
  0
LINE
  8
0
 62
     250
 10
1742.26
 20
388.175
 30
0.0
 11
1745.48
 21
385.614
 31
0.0
  0
LINE
  8
0
 62
     250
 10
1745.48
 20
385.614
 30
0.0
 11
1748.44
 21
382.757
 31
0.0
  0
LINE
  8
0
 62
     250
 10
1748.44
 20
382.757
 30
0.0
 11
1751.12
 21
379.628
 31
0.0
  0
LINE
  8
0
 62
     250
 10
1751.12
 20
379.628
 30
0.0
 11
1753.49
 21
376.252
 31
0.0
  0
LINE
  8
0
 62
     250
 10
1753.49
 20
376.252
 30
0.0
 11
1755.54
 21
372.646
 31
0.0
  0
LINE
  8
0
 62
     250
 10
1755.54
 20
372.646
 30
0.0
 11
1757.24
 21
368.84
 31
0.0
  0
LINE
  8
0
 62
     250
 10
1757.24
 20
368.84
 30
0.0
 11
1758.57
 21
364.846
 31
0.0
  0
LINE
  8
0
 62
     250
 10
1758.57
 20
364.846
 30
0.0
 11
1759.52
 21
360.698
 31
0.0
  0
LINE
  8
0
 62
     250
 10
1759.52
 20
360.698
 30
0.0
 11
1760.05
 21
356.408
 31
0.0
  0
LINE
  8
0
 62
     250
 10
1760.05
 20
356.408
 30
0.0
 11
1760.18
 21
353.099
 31
0.0
  0
LINE
  8
0
 62
     250
 10
1760.18
 20
353.099
 30
0.0
 11
1760.16
 21
352.001
 31
0.0
  0
LINE
  8
0
 62
     250
 10
1760.16
 20
352.001
 30
0.0
 11
1760.13
 21
350.901
 31
0.0
  0
LINE
  8
0
 62
     250
 10
1760.13
 20
350.901
 30
0.0
 11
1759.82
 21
347.607
 31
0.0
  0
LINE
  8
0
 62
     250
 10
1759.82
 20
347.607
 30
0.0
 11
1759.06
 21
343.352
 31
0.0
  0
LINE
  8
0
 62
     250
 10
1759.06
 20
343.352
 30
0.0
 11
1757.9
 21
339.255
 31
0.0
  0
LINE
  8
0
 62
     250
 10
1757.9
 20
339.255
 30
0.0
 11
1756.36
 21
335.339
 31
0.0
  0
LINE
  8
0
 62
     250
 10
1756.36
 20
335.339
 30
0.0
 11
1754.47
 21
331.625
 31
0.0
  0
LINE
  8
0
 62
     250
 10
1754.47
 20
331.625
 30
0.0
 11
1752.23
 21
328.133
 31
0.0
  0
LINE
  8
0
 62
     250
 10
1752.23
 20
328.133
 30
0.0
 11
1749.69
 21
324.885
 31
0.0
  0
LINE
  8
0
 62
     250
 10
1749.69
 20
324.885
 30
0.0
 11
1746.85
 21
321.9
 31
0.0
  0
LINE
  8
0
 62
     250
 10
1746.85
 20
321.9
 30
0.0
 11
1743.75
 21
319.203
 31
0.0
  0
LINE
  8
0
 62
     250
 10
1743.75
 20
319.203
 30
0.0
 11
1740.39
 21
316.811
 31
0.0
  0
LINE
  8
0
 62
     250
 10
1740.39
 20
316.811
 30
0.0
 11
1736.81
 21
314.748
 31
0.0
  0
LINE
  8
0
 62
     250
 10
1736.81
 20
314.748
 30
0.0
 11
1733.03
 21
313.034
 31
0.0
  0
LINE
  8
0
 62
     250
 10
1733.03
 20
313.034
 30
0.0
 11
1729.07
 21
311.69
 31
0.0
  0
LINE
  8
0
 62
     250
 10
1729.07
 20
311.69
 30
0.0
 11
1724.95
 21
310.737
 31
0.0
  0
LINE
  8
0
 62
     250
 10
1724.95
 20
310.737
 30
0.0
 11
1720.69
 21
310.196
 31
0.0
  0
LINE
  8
0
 62
     250
 10
1720.69
 20
310.196
 30
0.0
 11
1717.41
 21
310.06
 31
0.0
  0
LINE
  8
0
 62
     250
 10
1717.41
 20
310.06
 30
0.0
 11
1716.32
 21
310.087
 31
0.0
  0
LINE
  8
0
 62
     250
 10
1713.59
 20
320.697
 30
0.0
 11
1712.02
 21
320.738
 31
0.0
  0
LINE
  8
0
 62
     250
 10
1712.02
 20
320.738
 30
0.0
 11
1707.32
 21
321.517
 31
0.0
  0
LINE
  8
0
 62
     250
 10
1707.32
 20
321.517
 30
0.0
 11
1701.51
 21
323.547
 31
0.0
  0
LINE
  8
0
 62
     250
 10
1701.51
 20
323.547
 30
0.0
 11
1696.29
 21
326.656
 31
0.0
  0
LINE
  8
0
 62
     250
 10
1696.29
 20
326.656
 30
0.0
 11
1691.78
 21
330.708
 31
0.0
  0
LINE
  8
0
 62
     250
 10
1691.78
 20
330.708
 30
0.0
 11
1688.09
 21
335.576
 31
0.0
  0
LINE
  8
0
 62
     250
 10
1688.09
 20
335.576
 30
0.0
 11
1685.36
 21
341.121
 31
0.0
  0
LINE
  8
0
 62
     250
 10
1685.36
 20
341.121
 30
0.0
 11
1683.7
 21
347.214
 31
0.0
  0
LINE
  8
0
 62
     250
 10
1683.7
 20
347.214
 30
0.0
 11
1683.19
 21
352.098
 31
0.0
  0
LINE
  8
0
 62
     250
 10
1683.19
 20
352.098
 30
0.0
 11
1683.23
 21
353.72
 31
0.0
  0
LINE
  8
0
 62
     250
 10
1683.23
 20
353.72
 30
0.0
 11
1683.27
 21
355.342
 31
0.0
  0
LINE
  8
0
 62
     250
 10
1683.27
 20
355.342
 30
0.0
 11
1684.03
 21
360.193
 31
0.0
  0
LINE
  8
0
 62
     250
 10
1684.03
 20
360.193
 30
0.0
 11
1686.01
 21
366.19
 31
0.0
  0
LINE
  8
0
 62
     250
 10
1686.01
 20
366.19
 30
0.0
 11
1689.03
 21
371.588
 31
0.0
  0
LINE
  8
0
 62
     250
 10
1689.03
 20
371.588
 30
0.0
 11
1692.97
 21
376.252
 31
0.0
  0
LINE
  8
0
 62
     250
 10
1692.97
 20
376.252
 30
0.0
 11
1697.69
 21
380.065
 31
0.0
  0
LINE
  8
0
 62
     250
 10
1697.69
 20
380.065
 30
0.0
 11
1703.07
 21
382.894
 31
0.0
  0
LINE
  8
0
 62
     250
 10
1703.07
 20
382.894
 30
0.0
 11
1708.97
 21
384.616
 31
0.0
  0
LINE
  8
0
 62
     250
 10
1708.97
 20
384.616
 30
0.0
 11
1713.71
 21
385.149
 31
0.0
  0
LINE
  8
0
 62
     250
 10
1713.71
 20
385.149
 30
0.0
 11
1715.28
 21
385.106
 31
0.0
  0
LINE
  8
0
 62
     250
 10
1715.28
 20
385.106
 30
0.0
 11
1716.85
 21
385.068
 31
0.0
  0
LINE
  8
0
 62
     250
 10
1716.85
 20
385.068
 30
0.0
 11
1721.55
 21
384.288
 31
0.0
  0
LINE
  8
0
 62
     250
 10
1721.55
 20
384.288
 30
0.0
 11
1727.36
 21
382.259
 31
0.0
  0
LINE
  8
0
 62
     250
 10
1727.36
 20
382.259
 30
0.0
 11
1732.58
 21
379.148
 31
0.0
  0
LINE
  8
0
 62
     250
 10
1732.58
 20
379.148
 30
0.0
 11
1737.1
 21
375.098
 31
0.0
  0
LINE
  8
0
 62
     250
 10
1737.1
 20
375.098
 30
0.0
 11
1740.78
 21
370.23
 31
0.0
  0
LINE
  8
0
 62
     250
 10
1740.78
 20
370.23
 30
0.0
 11
1743.52
 21
364.684
 31
0.0
  0
LINE
  8
0
 62
     250
 10
1743.52
 20
364.684
 30
0.0
 11
1745.18
 21
358.592
 31
0.0
  0
LINE
  8
0
 62
     250
 10
1745.18
 20
358.592
 30
0.0
 11
1745.68
 21
353.709
 31
0.0
  0
LINE
  8
0
 62
     250
 10
1745.68
 20
353.709
 30
0.0
 11
1745.64
 21
352.085
 31
0.0
  0
LINE
  8
0
 62
     250
 10
1745.64
 20
352.085
 30
0.0
 11
1745.6
 21
350.463
 31
0.0
  0
LINE
  8
0
 62
     250
 10
1745.6
 20
350.463
 30
0.0
 11
1744.84
 21
345.612
 31
0.0
  0
LINE
  8
0
 62
     250
 10
1744.84
 20
345.612
 30
0.0
 11
1742.86
 21
339.614
 31
0.0
  0
LINE
  8
0
 62
     250
 10
1742.86
 20
339.614
 30
0.0
 11
1739.84
 21
334.218
 31
0.0
  0
LINE
  8
0
 62
     250
 10
1739.84
 20
334.218
 30
0.0
 11
1735.91
 21
329.552
 31
0.0
  0
LINE
  8
0
 62
     250
 10
1735.91
 20
329.552
 30
0.0
 11
1731.19
 21
325.741
 31
0.0
  0
LINE
  8
0
 62
     250
 10
1731.19
 20
325.741
 30
0.0
 11
1725.81
 21
322.91
 31
0.0
  0
LINE
  8
0
 62
     250
 10
1725.81
 20
322.91
 30
0.0
 11
1719.9
 21
321.188
 31
0.0
  0
LINE
  8
0
 62
     250
 10
1719.9
 20
321.188
 30
0.0
 11
1715.17
 21
320.657
 31
0.0
  0
LINE
  8
0
 62
     250
 10
1715.17
 20
320.657
 30
0.0
 11
1713.59
 21
320.697
 31
0.0
  0
LINE
  8
0
 62
     250
 10
1870.45
 20
335.104
 30
0.0
 11
1870.98
 21
334.561
 31
0.0
  0
LINE
  8
0
 62
     250
 10
1870.98
 20
334.561
 30
0.0
 11
1872.66
 21
333.017
 31
0.0
  0
LINE
  8
0
 62
     250
 10
1872.66
 20
333.017
 30
0.0
 11
1875.49
 21
330.604
 31
0.0
  0
LINE
  8
0
 62
     250
 10
1875.49
 20
330.604
 30
0.0
 11
1878.69
 21
328.035
 31
0.0
  0
LINE
  8
0
 62
     250
 10
1878.69
 20
328.035
 30
0.0
 11
1882.01
 21
325.479
 31
0.0
  0
LINE
  8
0
 62
     250
 10
1882.01
 20
325.479
 30
0.0
 11
1885.21
 21
323.1
 31
0.0
  0
LINE
  8
0
 62
     250
 10
1885.21
 20
323.1
 30
0.0
 11
1888.05
 21
321.068
 31
0.0
  0
LINE
  8
0
 62
     250
 10
1888.05
 20
321.068
 30
0.0
 11
1890.29
 21
319.549
 31
0.0
  0
LINE
  8
0
 62
     250
 10
1890.29
 20
319.549
 30
0.0
 11
1891.31
 21
318.895
 31
0.0
  0
LINE
  8
0
 62
     250
 10
1891.31
 20
318.895
 30
0.0
 11
1891.67
 21
318.713
 31
0.0
  0
LINE
  8
0
 62
     250
 10
1891.67
 20
318.713
 30
0.0
 11
1892.12
 21
318.488
 31
0.0
  0
LINE
  8
0
 62
     250
 10
1892.12
 20
318.488
 30
0.0
 11
1893.63
 21
318.148
 31
0.0
  0
LINE
  8
0
 62
     250
 10
1893.63
 20
318.148
 30
0.0
 11
1895.94
 21
318.341
 31
0.0
  0
LINE
  8
0
 62
     250
 10
1895.94
 20
318.341
 30
0.0
 11
1898.46
 21
319.492
 31
0.0
  0
LINE
  8
0
 62
     250
 10
1898.46
 20
319.492
 30
0.0
 11
1900.48
 21
321.153
 31
0.0
  0
LINE
  8
0
 62
     250
 10
1900.48
 20
321.153
 30
0.0
 11
1901.05
 21
321.801
 31
0.0
  0
LINE
  8
0
 62
     250
 10
1901.05
 20
321.801
 30
0.0
 11
1901.42
 21
322.223
 31
0.0
  0
LINE
  8
0
 62
     250
 10
1901.42
 20
322.223
 30
0.0
 11
1902.37
 21
323.616
 31
0.0
  0
LINE
  8
0
 62
     250
 10
1902.37
 20
323.616
 30
0.0
 11
1903.71
 21
326.08
 31
0.0
  0
LINE
  8
0
 62
     250
 10
1903.71
 20
326.08
 30
0.0
 11
1905.03
 21
329.153
 31
0.0
  0
LINE
  8
0
 62
     250
 10
1905.03
 20
329.153
 30
0.0
 11
1906.26
 21
332.795
 31
0.0
  0
LINE
  8
0
 62
     250
 10
1906.26
 20
332.795
 30
0.0
 11
1907.35
 21
336.969
 31
0.0
  0
LINE
  8
0
 62
     250
 10
1907.35
 20
336.969
 30
0.0
 11
1908.24
 21
341.635
 31
0.0
  0
LINE
  8
0
 62
     250
 10
1908.24
 20
341.635
 30
0.0
 11
1908.87
 21
346.754
 31
0.0
  0
LINE
  8
0
 62
     250
 10
1908.87
 20
346.754
 30
0.0
 11
1909.16
 21
350.902
 31
0.0
  0
LINE
  8
0
 62
     250
 10
1909.16
 20
350.902
 30
0.0
 11
1909.2
 21
352.286
 31
0.0
  0
LINE
  8
0
 62
     250
 10
1909.2
 20
352.286
 30
0.0
 11
1909.24
 21
353.677
 31
0.0
  0
LINE
  8
0
 62
     250
 10
1909.24
 20
353.677
 30
0.0
 11
1909.09
 21
357.861
 31
0.0
  0
LINE
  8
0
 62
     250
 10
1909.09
 20
357.861
 30
0.0
 11
1908.53
 21
363.16
 31
0.0
  0
LINE
  8
0
 62
     250
 10
1908.53
 20
363.16
 30
0.0
 11
1907.63
 21
368.085
 31
0.0
  0
LINE
  8
0
 62
     250
 10
1907.63
 20
368.085
 30
0.0
 11
1906.49
 21
372.533
 31
0.0
  0
LINE
  8
0
 62
     250
 10
1906.49
 20
372.533
 30
0.0
 11
1905.2
 21
376.4
 31
0.0
  0
LINE
  8
0
 62
     250
 10
1905.2
 20
376.4
 30
0.0
 11
1903.89
 21
379.578
 31
0.0
  0
LINE
  8
0
 62
     250
 10
1903.89
 20
379.578
 30
0.0
 11
1902.63
 21
381.967
 31
0.0
  0
LINE
  8
0
 62
     250
 10
1902.63
 20
381.967
 30
0.0
 11
1901.86
 21
383.131
 31
0.0
  0
LINE
  8
0
 62
     250
 10
1901.86
 20
383.131
 30
0.0
 11
1901.55
 21
383.462
 31
0.0
  0
LINE
  8
0
 62
     250
 10
1901.55
 20
383.462
 30
0.0
 11
1901.11
 21
383.928
 31
0.0
  0
LINE
  8
0
 62
     250
 10
1901.11
 20
383.928
 30
0.0
 11
1899.62
 21
385.173
 31
0.0
  0
LINE
  8
0
 62
     250
 10
1899.62
 20
385.173
 30
0.0
 11
1897.67
 21
386.221
 31
0.0
  0
LINE
  8
0
 62
     250
 10
1897.67
 20
386.221
 30
0.0
 11
1895.7
 21
386.567
 31
0.0
  0
LINE
  8
0
 62
     250
 10
1895.7
 20
386.567
 30
0.0
 11
1894.18
 21
386.352
 31
0.0
  0
LINE
  8
0
 62
     250
 10
1894.18
 20
386.352
 30
0.0
 11
1893.71
 21
386.168
 31
0.0
  0
LINE
  8
0
 62
     250
 10
1893.71
 20
386.168
 30
0.0
 11
1893.32
 21
386.016
 31
0.0
  0
LINE
  8
0
 62
     250
 10
1893.32
 20
386.016
 30
0.0
 11
1892.2
 21
385.441
 31
0.0
  0
LINE
  8
0
 62
     250
 10
1892.2
 20
385.441
 30
0.0
 11
1889.85
 21
384.147
 31
0.0
  0
LINE
  8
0
 62
     250
 10
1889.85
 20
384.147
 30
0.0
 11
1886.94
 21
382.446
 31
0.0
  0
LINE
  8
0
 62
     250
 10
1886.94
 20
382.446
 30
0.0
 11
1883.73
 21
380.492
 31
0.0
  0
LINE
  8
0
 62
     250
 10
1883.73
 20
380.492
 30
0.0
 11
1880.5
 21
378.449
 31
0.0
  0
LINE
  8
0
 62
     250
 10
1880.5
 20
378.449
 30
0.0
 11
1877.51
 21
376.474
 31
0.0
  0
LINE
  8
0
 62
     250
 10
1877.51
 20
376.474
 30
0.0
 11
1875.05
 21
374.728
 31
0.0
  0
LINE
  8
0
 62
     250
 10
1875.05
 20
374.728
 30
0.0
 11
1873.78
 21
373.736
 31
0.0
  0
LINE
  8
0
 62
     250
 10
1873.78
 20
373.736
 30
0.0
 11
1873.39
 21
373.366
 31
0.0
  0
LINE
  8
0
 62
     250
 10
1874.58
 20
371.937
 30
0.0
 11
1874.63
 21
371.937
 31
0.0
  0
LINE
  8
0
 62
     250
 10
1874.63
 20
371.937
 30
0.0
 11
1875.11
 21
371.934
 31
0.0
  0
LINE
  8
0
 62
     250
 10
1875.11
 20
371.934
 30
0.0
 11
1875.16
 21
371.93
 31
0.0
  0
LINE
  8
0
 62
     250
 10
1875.16
 20
371.93
 30
0.0
 11
1876.05
 21
371.909
 31
0.0
  0
LINE
  8
0
 62
     250
 10
1876.05
 20
371.909
 30
0.0
 11
1878.71
 21
371.479
 31
0.0
  0
LINE
  8
0
 62
     250
 10
1878.71
 20
371.479
 30
0.0
 11
1882
 21
370.36
 31
0.0
  0
LINE
  8
0
 62
     250
 10
1882
 20
370.36
 30
0.0
 11
1884.97
 21
368.649
 31
0.0
  0
LINE
  8
0
 62
     250
 10
1884.97
 20
368.649
 30
0.0
 11
1887.52
 21
366.42
 31
0.0
  0
LINE
  8
0
 62
     250
 10
1887.52
 20
366.42
 30
0.0
 11
1889.62
 21
363.746
 31
0.0
  0
LINE
  8
0
 62
     250
 10
1889.62
 20
363.746
 30
0.0
 11
1891.17
 21
360.694
 31
0.0
  0
LINE
  8
0
 62
     250
 10
1891.17
 20
360.694
 30
0.0
 11
1892.11
 21
357.346
 31
0.0
  0
LINE
  8
0
 62
     250
 10
1892.11
 20
357.346
 30
0.0
 11
1892.4
 21
354.662
 31
0.0
  0
LINE
  8
0
 62
     250
 10
1892.4
 20
354.662
 30
0.0
 11
1892.38
 21
353.769
 31
0.0
  0
LINE
  8
0
 62
     250
 10
1892.38
 20
353.769
 30
0.0
 11
1892.35
 21
352.88
 31
0.0
  0
LINE
  8
0
 62
     250
 10
1892.35
 20
352.88
 30
0.0
 11
1891.92
 21
350.212
 31
0.0
  0
LINE
  8
0
 62
     250
 10
1891.92
 20
350.212
 30
0.0
 11
1890.81
 21
346.917
 31
0.0
  0
LINE
  8
0
 62
     250
 10
1890.81
 20
346.917
 30
0.0
 11
1889.1
 21
343.953
 31
0.0
  0
LINE
  8
0
 62
     250
 10
1889.1
 20
343.953
 30
0.0
 11
1886.87
 21
341.39
 31
0.0
  0
LINE
  8
0
 62
     250
 10
1886.87
 20
341.39
 30
0.0
 11
1884.2
 21
339.298
 31
0.0
  0
LINE
  8
0
 62
     250
 10
1884.2
 20
339.298
 30
0.0
 11
1881.15
 21
337.745
 31
0.0
  0
LINE
  8
0
 62
     250
 10
1881.15
 20
337.745
 30
0.0
 11
1877.8
 21
336.801
 31
0.0
  0
LINE
  8
0
 62
     250
 10
1877.8
 20
336.801
 30
0.0
 11
1875.12
 21
336.512
 31
0.0
  0
LINE
  8
0
 62
     250
 10
1875.12
 20
336.512
 30
0.0
 11
1874.23
 21
336.533
 31
0.0
  0
LINE
  8
0
 62
     250
 10
1874.23
 20
336.533
 30
0.0
 11
1874.12
 21
336.538
 31
0.0
  0
LINE
  8
0
 62
     250
 10
1874.12
 20
336.538
 30
0.0
 11
1873
 21
336.608
 31
0.0
  0
LINE
  8
0
 62
     250
 10
1873
 20
336.608
 30
0.0
 11
1872.89
 21
336.619
 31
0.0
  0
LINE
  8
0
 62
     250
 10
1881.94
 20
355.085
 30
0.0
 11
1881.92
 21
354.475
 31
0.0
  0
LINE
  8
0
 62
     250
 10
1881.92
 20
354.475
 30
0.0
 11
1881.69
 21
352.644
 31
0.0
  0
LINE
  8
0
 62
     250
 10
1881.69
 20
352.644
 30
0.0
 11
1881.13
 21
350.167
 31
0.0
  0
LINE
  8
0
 62
     250
 10
1881.13
 20
350.167
 30
0.0
 11
1880.34
 21
347.733
 31
0.0
  0
LINE
  8
0
 62
     250
 10
1880.34
 20
347.733
 30
0.0
 11
1879.41
 21
345.427
 31
0.0
  0
LINE
  8
0
 62
     250
 10
1879.41
 20
345.427
 30
0.0
 11
1878.41
 21
343.333
 31
0.0
  0
LINE
  8
0
 62
     250
 10
1878.41
 20
343.333
 30
0.0
 11
1877.42
 21
341.529
 31
0.0
  0
LINE
  8
0
 62
     250
 10
1877.42
 20
341.529
 30
0.0
 11
1876.53
 21
340.101
 31
0.0
  0
LINE
  8
0
 62
     250
 10
1876.53
 20
340.101
 30
0.0
 11
1876.02
 21
339.363
 31
0.0
  0
LINE
  8
0
 62
     250
 10
1876.02
 20
339.363
 30
0.0
 11
1875.83
 21
339.131
 31
0.0
  0
LINE
  8
0
 62
     250
 10
1875.83
 20
339.131
 30
0.0
 11
1875.49
 21
338.72
 31
0.0
  0
LINE
  8
0
 62
     250
 10
1875.49
 20
338.72
 30
0.0
 11
1874.26
 21
337.658
 31
0.0
  0
LINE
  8
0
 62
     250
 10
1874.26
 20
337.658
 30
0.0
 11
1872.04
 21
336.28
 31
0.0
  0
LINE
  8
0
 62
     250
 10
1872.04
 20
336.28
 30
0.0
 11
1869.36
 21
335.277
 31
0.0
  0
LINE
  8
0
 62
     250
 10
1869.36
 20
335.277
 30
0.0
 11
1867.15
 21
334.914
 31
0.0
  0
LINE
  8
0
 62
     250
 10
1867.15
 20
334.914
 30
0.0
 11
1866.42
 21
334.932
 31
0.0
  0
LINE
  8
0
 62
     250
 10
1866.42
 20
334.932
 30
0.0
 11
1865.76
 21
334.95
 31
0.0
  0
LINE
  8
0
 62
     250
 10
1865.76
 20
334.95
 30
0.0
 11
1863.77
 21
335.002
 31
0.0
  0
LINE
  8
0
 62
     250
 10
1863.77
 20
335.002
 30
0.0
 11
1859.27
 21
335.121
 31
0.0
  0
LINE
  8
0
 62
     250
 10
1859.27
 20
335.121
 30
0.0
 11
1853.58
 21
335.27
 31
0.0
  0
LINE
  8
0
 62
     250
 10
1853.58
 20
335.27
 30
0.0
 11
1847.33
 21
335.434
 31
0.0
  0
LINE
  8
0
 62
     250
 10
1847.33
 20
335.434
 30
0.0
 11
1841.18
 21
335.595
 31
0.0
  0
LINE
  8
0
 62
     250
 10
1841.18
 20
335.595
 30
0.0
 11
1835.78
 21
335.737
 31
0.0
  0
LINE
  8
0
 62
     250
 10
1835.78
 20
335.737
 30
0.0
 11
1831.77
 21
335.842
 31
0.0
  0
LINE
  8
0
 62
     250
 10
1831.77
 20
335.842
 30
0.0
 11
1830.29
 21
335.88
 31
0.0
  0
LINE
  8
0
 62
     250
 10
1830.29
 20
335.88
 30
0.0
 11
1829.81
 21
335.893
 31
0.0
  0
LINE
  8
0
 62
     250
 10
1829.81
 20
335.893
 30
0.0
 11
1829.58
 21
335.898
 31
0.0
  0
LINE
  8
0
 62
     250
 10
1829.58
 20
335.898
 30
0.0
 11
1828.93
 21
336.146
 31
0.0
  0
LINE
  8
0
 62
     250
 10
1828.93
 20
336.146
 30
0.0
 11
1827.82
 21
336.824
 31
0.0
  0
LINE
  8
0
 62
     250
 10
1827.82
 20
336.824
 30
0.0
 11
1826.59
 21
337.859
 31
0.0
  0
LINE
  8
0
 62
     250
 10
1826.59
 20
337.859
 30
0.0
 11
1825.35
 21
339.188
 31
0.0
  0
LINE
  8
0
 62
     250
 10
1825.35
 20
339.188
 30
0.0
 11
1824.2
 21
340.739
 31
0.0
  0
LINE
  8
0
 62
     250
 10
1824.2
 20
340.739
 30
0.0
 11
1823.26
 21
342.452
 31
0.0
  0
LINE
  8
0
 62
     250
 10
1823.26
 20
342.452
 30
0.0
 11
1822.64
 21
344.256
 31
0.0
  0
LINE
  8
0
 62
     250
 10
1822.64
 20
344.256
 30
0.0
 11
1822.43
 21
345.631
 31
0.0
  0
LINE
  8
0
 62
     250
 10
1822.43
 20
345.631
 30
0.0
 11
1822.44
 21
346.086
 31
0.0
  0
LINE
  8
0
 62
     250
 10
1822.44
 20
346.086
 30
0.0
 11
1822.45
 21
346.612
 31
0.0
  0
LINE
  8
0
 62
     250
 10
1822.45
 20
346.612
 30
0.0
 11
1822.49
 21
348.192
 31
0.0
  0
LINE
  8
0
 62
     250
 10
1822.49
 20
348.192
 30
0.0
 11
1822.56
 21
350.741
 31
0.0
  0
LINE
  8
0
 62
     250
 10
1822.56
 20
350.741
 30
0.0
 11
1822.63
 21
353.557
 31
0.0
  0
LINE
  8
0
 62
     250
 10
1822.63
 20
353.557
 30
0.0
 11
1822.71
 21
356.464
 31
0.0
  0
LINE
  8
0
 62
     250
 10
1822.71
 20
356.464
 30
0.0
 11
1822.79
 21
359.276
 31
0.0
  0
LINE
  8
0
 62
     250
 10
1822.79
 20
359.276
 30
0.0
 11
1822.85
 21
361.819
 31
0.0
  0
LINE
  8
0
 62
     250
 10
1822.85
 20
361.819
 30
0.0
 11
1822.91
 21
363.915
 31
0.0
  0
LINE
  8
0
 62
     250
 10
1822.91
 20
363.915
 30
0.0
 11
1822.93
 21
365.016
 31
0.0
  0
LINE
  8
0
 62
     250
 10
1822.93
 20
365.016
 30
0.0
 11
1822.94
 21
365.383
 31
0.0
  0
LINE
  8
0
 62
     250
 10
1822.94
 20
365.383
 30
0.0
 11
1822.95
 21
365.7
 31
0.0
  0
LINE
  8
0
 62
     250
 10
1822.95
 20
365.7
 30
0.0
 11
1823.1
 21
366.645
 31
0.0
  0
LINE
  8
0
 62
     250
 10
1823.1
 20
366.645
 30
0.0
 11
1823.5
 21
368.162
 31
0.0
  0
LINE
  8
0
 62
     250
 10
1823.5
 20
368.162
 30
0.0
 11
1824.16
 21
369.796
 31
0.0
  0
LINE
  8
0
 62
     250
 10
1824.16
 20
369.796
 30
0.0
 11
1825.1
 21
371.419
 31
0.0
  0
LINE
  8
0
 62
     250
 10
1825.1
 20
371.419
 30
0.0
 11
1826.31
 21
372.9
 31
0.0
  0
LINE
  8
0
 62
     250
 10
1826.31
 20
372.9
 30
0.0
 11
1827.8
 21
374.103
 31
0.0
  0
LINE
  8
0
 62
     250
 10
1827.8
 20
374.103
 30
0.0
 11
1829.58
 21
374.9
 31
0.0
  0
LINE
  8
0
 62
     250
 10
1829.58
 20
374.9
 30
0.0
 11
1831.15
 21
375.169
 31
0.0
  0
LINE
  8
0
 62
     250
 10
1831.15
 20
375.169
 30
0.0
 11
1831.66
 21
375.154
 31
0.0
  0
LINE
  8
0
 62
     250
 10
1831.66
 20
375.154
 30
0.0
 11
1832.47
 21
375.133
 31
0.0
  0
LINE
  8
0
 62
     250
 10
1832.47
 20
375.133
 30
0.0
 11
1834.89
 21
375.07
 31
0.0
  0
LINE
  8
0
 62
     250
 10
1834.89
 20
375.07
 30
0.0
 11
1839.69
 21
374.946
 31
0.0
  0
LINE
  8
0
 62
     250
 10
1839.69
 20
374.946
 30
0.0
 11
1845.51
 21
374.791
 31
0.0
  0
LINE
  8
0
 62
     250
 10
1845.51
 20
374.791
 30
0.0
 11
1851.77
 21
374.629
 31
0.0
  0
LINE
  8
0
 62
     250
 10
1851.77
 20
374.629
 30
0.0
 11
1857.9
 21
374.467
 31
0.0
  0
LINE
  8
0
 62
     250
 10
1857.9
 20
374.467
 30
0.0
 11
1863.34
 21
374.325
 31
0.0
  0
LINE
  8
0
 62
     250
 10
1863.34
 20
374.325
 30
0.0
 11
1867.49
 21
374.216
 31
0.0
  0
LINE
  8
0
 62
     250
 10
1867.49
 20
374.216
 30
0.0
 11
1869.22
 21
374.17
 31
0.0
  0
LINE
  8
0
 62
     250
 10
1869.22
 20
374.17
 30
0.0
 11
1869.8
 21
374.156
 31
0.0
  0
LINE
  8
0
 62
     250
 10
1869.8
 20
374.156
 30
0.0
 11
1870.37
 21
374.142
 31
0.0
  0
LINE
  8
0
 62
     250
 10
1870.37
 20
374.142
 30
0.0
 11
1872.07
 21
373.641
 31
0.0
  0
LINE
  8
0
 62
     250
 10
1872.07
 20
373.641
 30
0.0
 11
1874.06
 21
372.378
 31
0.0
  0
LINE
  8
0
 62
     250
 10
1874.06
 20
372.378
 30
0.0
 11
1875.72
 21
370.6
 31
0.0
  0
LINE
  8
0
 62
     250
 10
1875.72
 20
370.6
 30
0.0
 11
1876.74
 21
369.087
 31
0.0
  0
LINE
  8
0
 62
     250
 10
1876.74
 20
369.087
 30
0.0
 11
1877.01
 21
368.547
 31
0.0
  0
LINE
  8
0
 62
     250
 10
1877.01
 20
368.547
 30
0.0
 11
1877.35
 21
367.894
 31
0.0
  0
LINE
  8
0
 62
     250
 10
1877.35
 20
367.894
 30
0.0
 11
1878.41
 21
365.961
 31
0.0
  0
LINE
  8
0
 62
     250
 10
1878.41
 20
365.961
 30
0.0
 11
1880.07
 21
362.634
 31
0.0
  0
LINE
  8
0
 62
     250
 10
1880.07
 20
362.634
 30
0.0
 11
1881.42
 21
358.902
 31
0.0
  0
LINE
  8
0
 62
     250
 10
1881.42
 20
358.902
 30
0.0
 11
1881.96
 21
356.034
 31
0.0
  0
LINE
  8
0
 62
     250
 10
1881.96
 20
356.034
 30
0.0
 11
1881.94
 21
355.085
 31
0.0
  0
LINE
  8
0
 62
     250
 10
1449.6
 20
215.862
 30
0.0
 11
1448.99
 21
216.422
 31
0.0
  0
LINE
  8
0
 62
     250
 10
1448.99
 20
216.422
 30
0.0
 11
1447.2
 21
218.135
 31
0.0
  0
LINE
  8
0
 62
     250
 10
1447.2
 20
218.135
 30
0.0
 11
1444.42
 21
220.919
 31
0.0
  0
LINE
  8
0
 62
     250
 10
1444.42
 20
220.919
 30
0.0
 11
1441.38
 21
224.156
 31
0.0
  0
LINE
  8
0
 62
     250
 10
1441.38
 20
224.156
 30
0.0
 11
1438.22
 21
227.794
 31
0.0
  0
LINE
  8
0
 62
     250
 10
1438.22
 20
227.794
 30
0.0
 11
1435.06
 21
231.776
 31
0.0
  0
LINE
  8
0
 62
     250
 10
1435.06
 20
231.776
 30
0.0
 11
1432.04
 21
236.05
 31
0.0
  0
LINE
  8
0
 62
     250
 10
1432.04
 20
236.05
 30
0.0
 11
1429.27
 21
240.557
 31
0.0
  0
LINE
  8
0
 62
     250
 10
1429.27
 20
240.557
 30
0.0
 11
1427.43
 21
244.051
 31
0.0
  0
LINE
  8
0
 62
     250
 10
1427.43
 20
244.051
 30
0.0
 11
1426.89
 21
245.247
 31
0.0
  0
LINE
  8
0
 62
     250
 10
1426.89
 20
245.247
 30
0.0
 11
1426.09
 21
247.025
 31
0.0
  0
LINE
  8
0
 62
     250
 10
1426.09
 20
247.025
 30
0.0
 11
1423.92
 21
252.461
 31
0.0
  0
LINE
  8
0
 62
     250
 10
1423.92
 20
252.461
 30
0.0
 11
1420.99
 21
260.708
 31
0.0
  0
LINE
  8
0
 62
     250
 10
1420.99
 20
260.708
 30
0.0
 11
1418.2
 21
269.701
 31
0.0
  0
LINE
  8
0
 62
     250
 10
1418.2
 20
269.701
 30
0.0
 11
1415.63
 21
279.146
 31
0.0
  0
LINE
  8
0
 62
     250
 10
1415.63
 20
279.146
 30
0.0
 11
1413.35
 21
288.753
 31
0.0
  0
LINE
  8
0
 62
     250
 10
1413.35
 20
288.753
 30
0.0
 11
1411.45
 21
298.231
 31
0.0
  0
LINE
  8
0
 62
     250
 10
1411.45
 20
298.231
 30
0.0
 11
1410.02
 21
307.287
 31
0.0
  0
LINE
  8
0
 62
     250
 10
1410.02
 20
307.287
 30
0.0
 11
1409.29
 21
313.542
 31
0.0
  0
LINE
  8
0
 62
     250
 10
1409.29
 20
313.542
 30
0.0
 11
1409.14
 21
315.633
 31
0.0
  0
LINE
  8
0
 62
     250
 10
1409.14
 20
315.633
 30
0.0
 11
1409.06
 21
316.694
 31
0.0
  0
LINE
  8
0
 62
     250
 10
1409.06
 20
316.694
 30
0.0
 11
1408.89
 21
319.881
 31
0.0
  0
LINE
  8
0
 62
     250
 10
1408.89
 20
319.881
 30
0.0
 11
1408.71
 21
324.681
 31
0.0
  0
LINE
  8
0
 62
     250
 10
1408.71
 20
324.681
 30
0.0
 11
1408.6
 21
329.952
 31
0.0
  0
LINE
  8
0
 62
     250
 10
1408.6
 20
329.952
 30
0.0
 11
1408.55
 21
335.613
 31
0.0
  0
LINE
  8
0
 62
     250
 10
1408.55
 20
335.613
 30
0.0
 11
1408.56
 21
341.585
 31
0.0
  0
LINE
  8
0
 62
     250
 10
1408.56
 20
341.585
 30
0.0
 11
1408.63
 21
347.791
 31
0.0
  0
LINE
  8
0
 62
     250
 10
1408.63
 20
347.791
 30
0.0
 11
1408.75
 21
354.147
 31
0.0
  0
LINE
  8
0
 62
     250
 10
1408.75
 20
354.147
 30
0.0
 11
1408.92
 21
360.574
 31
0.0
  0
LINE
  8
0
 62
     250
 10
1408.92
 20
360.574
 30
0.0
 11
1409.14
 21
366.995
 31
0.0
  0
LINE
  8
0
 62
     250
 10
1409.14
 20
366.995
 30
0.0
 11
1409.4
 21
373.327
 31
0.0
  0
LINE
  8
0
 62
     250
 10
1409.4
 20
373.327
 30
0.0
 11
1409.69
 21
379.49
 31
0.0
  0
LINE
  8
0
 62
     250
 10
1409.69
 20
379.49
 30
0.0
 11
1410.01
 21
385.406
 31
0.0
  0
LINE
  8
0
 62
     250
 10
1410.01
 20
385.406
 30
0.0
 11
1410.37
 21
390.994
 31
0.0
  0
LINE
  8
0
 62
     250
 10
1410.37
 20
390.994
 30
0.0
 11
1410.74
 21
396.177
 31
0.0
  0
LINE
  8
0
 62
     250
 10
1410.74
 20
396.177
 30
0.0
 11
1411.14
 21
400.868
 31
0.0
  0
LINE
  8
0
 62
     250
 10
1411.14
 20
400.868
 30
0.0
 11
1411.44
 21
403.966
 31
0.0
  0
LINE
  8
0
 62
     250
 10
1411.44
 20
403.966
 30
0.0
 11
1411.55
 21
404.996
 31
0.0
  0
LINE
  8
0
 62
     250
 10
1411.55
 20
404.996
 30
0.0
 11
1411.77
 21
406.961
 31
0.0
  0
LINE
  8
0
 62
     250
 10
1411.77
 20
406.961
 30
0.0
 11
1412.64
 21
412.838
 31
0.0
  0
LINE
  8
0
 62
     250
 10
1412.64
 20
412.838
 30
0.0
 11
1414.19
 21
420.941
 31
0.0
  0
LINE
  8
0
 62
     250
 10
1414.19
 20
420.941
 30
0.0
 11
1416.15
 21
429.098
 31
0.0
  0
LINE
  8
0
 62
     250
 10
1416.15
 20
429.098
 30
0.0
 11
1418.45
 21
437.085
 31
0.0
  0
LINE
  8
0
 62
     250
 10
1418.45
 20
437.085
 30
0.0
 11
1421.04
 21
444.683
 31
0.0
  0
LINE
  8
0
 62
     250
 10
1421.04
 20
444.683
 30
0.0
 11
1423.87
 21
451.672
 31
0.0
  0
LINE
  8
0
 62
     250
 10
1423.87
 20
451.672
 30
0.0
 11
1426.87
 21
457.839
 31
0.0
  0
LINE
  8
0
 62
     250
 10
1426.87
 20
457.839
 30
0.0
 11
1429.14
 21
461.737
 31
0.0
  0
LINE
  8
0
 62
     250
 10
1429.14
 20
461.737
 30
0.0
 11
1430
 21
462.961
 31
0.0
  0
LINE
  8
0
 62
     250
 10
1430
 20
462.961
 30
0.0
 11
1431.34
 21
464.884
 31
0.0
  0
LINE
  8
0
 62
     250
 10
1431.34
 20
464.884
 30
0.0
 11
1435.66
 21
470.443
 31
0.0
  0
LINE
  8
0
 62
     250
 10
1435.66
 20
470.443
 30
0.0
 11
1441.58
 21
477.28
 31
0.0
  0
LINE
  8
0
 62
     250
 10
1441.58
 20
477.28
 30
0.0
 11
1447.33
 21
483.154
 31
0.0
  0
LINE
  8
0
 62
     250
 10
1447.33
 20
483.154
 30
0.0
 11
1451.14
 21
486.657
 31
0.0
  0
LINE
  8
0
 62
     250
 10
1451.14
 20
486.657
 30
0.0
 11
1452.48
 21
487.747
 31
0.0
  0
LINE
  8
0
 62
     250
 10
1823.79
 20
340.82
 30
0.0
 11
1823.79
 21
340.82
 31
0.0
  0
LINE
  8
0
 62
     250
 10
1823.79
 20
340.82
 30
0.0
 11
1822.95
 21
341.099
 31
0.0
  0
LINE
  8
0
 62
     250
 10
1822.95
 20
341.099
 30
0.0
 11
1820.92
 21
341.862
 31
0.0
  0
LINE
  8
0
 62
     250
 10
1820.92
 20
341.862
 30
0.0
 11
1818.45
 21
343.009
 31
0.0
  0
LINE
  8
0
 62
     250
 10
1818.45
 20
343.009
 30
0.0
 11
1816.78
 21
344.011
 31
0.0
  0
LINE
  8
0
 62
     250
 10
1816.78
 20
344.011
 30
0.0
 11
1816.3
 21
344.431
 31
0.0
  0
LINE
  8
0
 62
     250
 10
1816.3
 20
344.431
 30
0.0
 11
1815.87
 21
344.816
 31
0.0
  0
LINE
  8
0
 62
     250
 10
1815.87
 20
344.816
 30
0.0
 11
1814.82
 21
346.271
 31
0.0
  0
LINE
  8
0
 62
     250
 10
1814.82
 20
346.271
 30
0.0
 11
1813.82
 21
348.655
 31
0.0
  0
LINE
  8
0
 62
     250
 10
1813.82
 20
348.655
 30
0.0
 11
1813.25
 21
351.474
 31
0.0
  0
LINE
  8
0
 62
     250
 10
1813.25
 20
351.474
 30
0.0
 11
1813.07
 21
353.829
 31
0.0
  0
LINE
  8
0
 62
     250
 10
1813.07
 20
353.829
 30
0.0
 11
1813.07
 21
354.616
 31
0.0
  0
LINE
  8
0
 62
     250
 10
1813.07
 20
354.616
 30
0.0
 11
1813.07
 21
355.374
 31
0.0
  0
LINE
  8
0
 62
     250
 10
1813.07
 20
355.374
 30
0.0
 11
1813.34
 21
357.643
 31
0.0
  0
LINE
  8
0
 62
     250
 10
1813.34
 20
357.643
 30
0.0
 11
1814.05
 21
360.168
 31
0.0
  0
LINE
  8
0
 62
     250
 10
1814.05
 20
360.168
 30
0.0
 11
1815.06
 21
362.141
 31
0.0
  0
LINE
  8
0
 62
     250
 10
1815.06
 20
362.141
 30
0.0
 11
1815.88
 21
363.209
 31
0.0
  0
LINE
  8
0
 62
     250
 10
1815.88
 20
363.209
 30
0.0
 11
1816.21
 21
363.502
 31
0.0
  0
LINE
  8
0
 62
     250
 10
1816.21
 20
363.502
 30
0.0
 11
1816.53
 21
363.788
 31
0.0
  0
LINE
  8
0
 62
     250
 10
1816.53
 20
363.788
 30
0.0
 11
1817.59
 21
364.539
 31
0.0
  0
LINE
  8
0
 62
     250
 10
1817.59
 20
364.539
 30
0.0
 11
1819.29
 21
365.492
 31
0.0
  0
LINE
  8
0
 62
     250
 10
1819.29
 20
365.492
 30
0.0
 11
1821.15
 21
366.236
 31
0.0
  0
LINE
  8
0
 62
     250
 10
1821.15
 20
366.236
 30
0.0
 11
1822.57
 21
366.596
 31
0.0
  0
LINE
  8
0
 62
     250
 10
1822.57
 20
366.596
 30
0.0
 11
1823.05
 21
366.649
 31
0.0
  0
LINE
  8
0
 62
     250
 10
1623.24
 20
354.305
 30
0.0
 11
1623.24
 21
353.092
 31
0.0
  0
LINE
  8
0
 62
     250
 10
1623.24
 20
353.092
 30
0.0
 11
1622.75
 21
349.442
 31
0.0
  0
LINE
  8
0
 62
     250
 10
1622.75
 20
349.442
 30
0.0
 11
1621.33
 21
344.909
 31
0.0
  0
LINE
  8
0
 62
     250
 10
1621.33
 20
344.909
 30
0.0
 11
1619.09
 21
340.808
 31
0.0
  0
LINE
  8
0
 62
     250
 10
1619.09
 20
340.808
 30
0.0
 11
1616.13
 21
337.235
 31
0.0
  0
LINE
  8
0
 62
     250
 10
1616.13
 20
337.235
 30
0.0
 11
1612.53
 21
334.287
 31
0.0
  0
LINE
  8
0
 62
     250
 10
1612.53
 20
334.287
 30
0.0
 11
1608.4
 21
332.06
 31
0.0
  0
LINE
  8
0
 62
     250
 10
1608.4
 20
332.06
 30
0.0
 11
1603.84
 21
330.653
 31
0.0
  0
LINE
  8
0
 62
     250
 10
1603.84
 20
330.653
 30
0.0
 11
1600.17
 21
330.163
 31
0.0
  0
LINE
  8
0
 62
     250
 10
1600.17
 20
330.163
 30
0.0
 11
1598.94
 21
330.163
 31
0.0
  0
LINE
  8
0
 62
     250
 10
1598.94
 20
330.163
 30
0.0
 11
1597.72
 21
330.163
 31
0.0
  0
LINE
  8
0
 62
     250
 10
1597.72
 20
330.163
 30
0.0
 11
1594.05
 21
330.653
 31
0.0
  0
LINE
  8
0
 62
     250
 10
1594.05
 20
330.653
 30
0.0
 11
1589.49
 21
332.06
 31
0.0
  0
LINE
  8
0
 62
     250
 10
1589.49
 20
332.06
 30
0.0
 11
1585.36
 21
334.287
 31
0.0
  0
LINE
  8
0
 62
     250
 10
1585.36
 20
334.287
 30
0.0
 11
1581.76
 21
337.235
 31
0.0
  0
LINE
  8
0
 62
     250
 10
1581.76
 20
337.235
 30
0.0
 11
1578.79
 21
340.808
 31
0.0
  0
LINE
  8
0
 62
     250
 10
1578.79
 20
340.808
 30
0.0
 11
1576.55
 21
344.909
 31
0.0
  0
LINE
  8
0
 62
     250
 10
1576.55
 20
344.909
 30
0.0
 11
1575.14
 21
349.442
 31
0.0
  0
LINE
  8
0
 62
     250
 10
1575.14
 20
349.442
 30
0.0
 11
1574.64
 21
353.092
 31
0.0
  0
LINE
  8
0
 62
     250
 10
1574.64
 20
353.092
 30
0.0
 11
1574.64
 21
354.305
 31
0.0
  0
LINE
  8
0
 62
     250
 10
1574.64
 20
354.305
 30
0.0
 11
1574.64
 21
355.522
 31
0.0
  0
LINE
  8
0
 62
     250
 10
1574.64
 20
355.522
 30
0.0
 11
1575.14
 21
359.174
 31
0.0
  0
LINE
  8
0
 62
     250
 10
1575.14
 20
359.174
 30
0.0
 11
1576.55
 21
363.703
 31
0.0
  0
LINE
  8
0
 62
     250
 10
1576.55
 20
363.703
 30
0.0
 11
1578.79
 21
367.803
 31
0.0
  0
LINE
  8
0
 62
     250
 10
1578.79
 20
367.803
 30
0.0
 11
1581.76
 21
371.376
 31
0.0
  0
LINE
  8
0
 62
     250
 10
1581.76
 20
371.376
 30
0.0
 11
1585.36
 21
374.325
 31
0.0
  0
LINE
  8
0
 62
     250
 10
1585.36
 20
374.325
 30
0.0
 11
1589.49
 21
376.551
 31
0.0
  0
LINE
  8
0
 62
     250
 10
1589.49
 20
376.551
 30
0.0
 11
1594.05
 21
377.959
 31
0.0
  0
LINE
  8
0
 62
     250
 10
1594.05
 20
377.959
 30
0.0
 11
1597.72
 21
378.449
 31
0.0
  0
LINE
  8
0
 62
     250
 10
1597.72
 20
378.449
 30
0.0
 11
1598.94
 21
378.449
 31
0.0
  0
LINE
  8
0
 62
     250
 10
1598.94
 20
378.449
 30
0.0
 11
1600.17
 21
378.449
 31
0.0
  0
LINE
  8
0
 62
     250
 10
1600.17
 20
378.449
 30
0.0
 11
1603.84
 21
377.959
 31
0.0
  0
LINE
  8
0
 62
     250
 10
1603.84
 20
377.959
 30
0.0
 11
1608.4
 21
376.551
 31
0.0
  0
LINE
  8
0
 62
     250
 10
1608.4
 20
376.551
 30
0.0
 11
1612.53
 21
374.325
 31
0.0
  0
LINE
  8
0
 62
     250
 10
1612.53
 20
374.325
 30
0.0
 11
1616.13
 21
371.376
 31
0.0
  0
LINE
  8
0
 62
     250
 10
1616.13
 20
371.376
 30
0.0
 11
1619.09
 21
367.803
 31
0.0
  0
LINE
  8
0
 62
     250
 10
1619.09
 20
367.803
 30
0.0
 11
1621.33
 21
363.703
 31
0.0
  0
LINE
  8
0
 62
     250
 10
1621.33
 20
363.703
 30
0.0
 11
1622.75
 21
359.174
 31
0.0
  0
LINE
  8
0
 62
     250
 10
1622.75
 20
359.174
 30
0.0
 11
1623.24
 21
355.522
 31
0.0
  0
LINE
  8
0
 62
     250
 10
1623.24
 20
355.522
 30
0.0
 11
1623.24
 21
354.305
 31
0.0
  0
LINE
  8
0
 62
     250
 10
1598.94
 20
414.659
 30
0.0
 11
1598.94
 21
293.951
 31
0.0
  0
LINE
  8
0
 62
     250
 10
1718.55
 20
414.659
 30
0.0
 11
1718.55
 21
293.951
 31
0.0
  0
LINE
  8
0
 62
     250
 10
119.949
 20
791.034
 30
0.0
 11
119.949
 21
711.038
 31
0.0
  0
LINE
  8
0
 62
     250
 10
1959.95
 20
791.034
 30
0.0
 11
1959.95
 21
711.038
 31
0.0
  0
LINE
  8
0
 62
     250
 10
124.933
 20
751.036
 30
0.0
 11
1954.96
 21
751.036
 31
0.0
  0
LINE
  8
0
 62
     250
 10
135.359
 20
745.427
 30
0.0
 11
135.963
 21
747.085
 31
0.0
  0
LINE
  8
0
 62
     250
 10
135.963
 20
747.085
 30
0.0
 11
125.105
 21
751.036
 31
0.0
  0
LINE
  8
0
 62
     250
 10
125.105
 20
751.036
 30
0.0
 11
135.963
 21
754.987
 31
0.0
  0
LINE
  8
0
 62
     250
 10
135.963
 20
754.987
 30
0.0
 11
135.359
 21
756.645
 31
0.0
  0
LINE
  8
0
 62
     250
 10
135.359
 20
756.645
 30
0.0
 11
119.949
 21
751.036
 31
0.0
  0
LINE
  8
0
 62
     250
 10
119.949
 20
751.036
 30
0.0
 11
135.359
 21
745.427
 31
0.0
  0
LINE
  8
0
 62
     250
 10
1944.54
 20
745.427
 30
0.0
 11
1943.94
 21
747.085
 31
0.0
  0
LINE
  8
0
 62
     250
 10
1943.94
 20
747.085
 30
0.0
 11
1954.79
 21
751.036
 31
0.0
  0
LINE
  8
0
 62
     250
 10
1954.79
 20
751.036
 30
0.0
 11
1943.94
 21
754.987
 31
0.0
  0
LINE
  8
0
 62
     250
 10
1943.94
 20
754.987
 30
0.0
 11
1944.54
 21
756.645
 31
0.0
  0
LINE
  8
0
 62
     250
 10
1944.54
 20
756.645
 30
0.0
 11
1959.95
 21
751.036
 31
0.0
  0
LINE
  8
0
 62
     250
 10
1959.95
 20
751.036
 30
0.0
 11
1944.54
 21
745.427
 31
0.0
  0
LINE
  8
0
 62
     250
 10
954.098
 20
708.914
 30
0.0
 11
0.179145
 21
708.914
 31
0.0
  0
LINE
  8
0
 62
     250
 10
954.098
 20
0.176389
 30
0.0
 11
0.179145
 21
0.176389
 31
0.0
  0
LINE
  8
0
 62
     250
 10
40.1796
 20
5.16075
 30
0.0
 11
40.1796
 21
703.929
 31
0.0
  0
LINE
  8
0
 62
     250
 10
45.7895
 20
15.587
 30
0.0
 11
44.1304
 21
16.1906
 31
0.0
  0
LINE
  8
0
 62
     250
 10
44.1304
 20
16.1906
 30
0.0
 11
40.1796
 21
5.33301
 31
0.0
  0
LINE
  8
0
 62
     250
 10
40.1796
 20
5.33301
 30
0.0
 11
36.2271
 21
16.1906
 31
0.0
  0
LINE
  8
0
 62
     250
 10
36.2271
 20
16.1906
 30
0.0
 11
34.5708
 21
15.587
 31
0.0
  0
LINE
  8
0
 62
     250
 10
34.5708
 20
15.587
 30
0.0
 11
40.1796
 21
0.176389
 31
0.0
  0
LINE
  8
0
 62
     250
 10
40.1796
 20
0.176389
 30
0.0
 11
45.7895
 21
15.587
 31
0.0
  0
LINE
  8
0
 62
     250
 10
45.7895
 20
693.505
 30
0.0
 11
44.1304
 21
692.901
 31
0.0
  0
LINE
  8
0
 62
     250
 10
44.1304
 20
692.901
 30
0.0
 11
40.1796
 21
703.756
 31
0.0
  0
LINE
  8
0
 62
     250
 10
40.1796
 20
703.756
 30
0.0
 11
36.2271
 21
692.901
 31
0.0
  0
LINE
  8
0
 62
     250
 10
36.2271
 20
692.901
 30
0.0
 11
34.5708
 21
693.505
 31
0.0
  0
LINE
  8
0
 62
     250
 10
34.5708
 20
693.505
 30
0.0
 11
40.1796
 21
708.914
 31
0.0
  0
LINE
  8
0
 62
     250
 10
40.1796
 20
708.914
 30
0.0
 11
45.7895
 21
693.505
 31
0.0
  0
LINE
  8
0
 62
     250
 10
6.41202
 20
333.433
 30
0.0
 11
6.41202
 21
344.584
 31
0.0
  0
LINE
  8
0
 62
     250
 10
6.41202
 20
344.584
 30
0.0
 11
7.75836
 21
344.584
 31
0.0
  0
LINE
  8
0
 62
     250
 10
7.75836
 20
344.584
 30
0.0
 11
25.4386
 21
336.633
 31
0.0
  0
LINE
  8
0
 62
     250
 10
25.4386
 20
336.633
 30
0.0
 11
25.4386
 21
334.473
 31
0.0
  0
LINE
  8
0
 62
     250
 10
25.4386
 20
334.473
 30
0.0
 11
8.21588
 21
342.424
 31
0.0
  0
LINE
  8
0
 62
     250
 10
8.21588
 20
342.424
 30
0.0
 11
8.16487
 21
342.424
 31
0.0
  0
LINE
  8
0
 62
     250
 10
8.16487
 20
342.424
 30
0.0
 11
8.16487
 21
333.433
 31
0.0
  0
LINE
  8
0
 62
     250
 10
8.16487
 20
333.433
 30
0.0
 11
6.41202
 21
333.433
 31
0.0
  0
LINE
  8
0
 62
     250
 10
15.8364
 20
356.672
 30
0.0
 11
15.0206
 21
356.672
 31
0.0
  0
LINE
  8
0
 62
     250
 10
15.0206
 20
356.672
 30
0.0
 11
12.5773
 21
356.454
 31
0.0
  0
LINE
  8
0
 62
     250
 10
12.5773
 20
356.454
 30
0.0
 11
10.0404
 21
355.769
 31
0.0
  0
LINE
  8
0
 62
     250
 10
10.0404
 20
355.769
 30
0.0
 11
8.39502
 21
354.584
 31
0.0
  0
LINE
  8
0
 62
     250
 10
8.39502
 20
354.584
 30
0.0
 11
7.80934
 21
353.293
 31
0.0
  0
LINE
  8
0
 62
     250
 10
7.80934
 20
353.293
 30
0.0
 11
7.80934
 21
352.862
 31
0.0
  0
LINE
  8
0
 62
     250
 10
7.80934
 20
352.862
 30
0.0
 11
7.80934
 21
352.475
 31
0.0
  0
LINE
  8
0
 62
     250
 10
7.80934
 20
352.475
 30
0.0
 11
8.35918
 21
351.307
 31
0.0
  0
LINE
  8
0
 62
     250
 10
8.35918
 20
351.307
 30
0.0
 11
9.9453
 21
350.085
 31
0.0
  0
LINE
  8
0
 62
     250
 10
9.9453
 20
350.085
 30
0.0
 11
12.4699
 21
349.288
 31
0.0
  0
LINE
  8
0
 62
     250
 10
12.4699
 20
349.288
 30
0.0
 11
14.9944
 21
349.002
 31
0.0
  0
LINE
  8
0
 62
     250
 10
14.9944
 20
349.002
 30
0.0
 11
15.8364
 21
349.002
 31
0.0
  0
LINE
  8
0
 62
     250
 10
15.8364
 20
349.002
 30
0.0
 11
16.6825
 21
349.002
 31
0.0
  0
LINE
  8
0
 62
     250
 10
16.6825
 20
349.002
 30
0.0
 11
19.225
 21
349.258
 31
0.0
  0
LINE
  8
0
 62
     250
 10
19.225
 20
349.258
 30
0.0
 11
21.8019
 21
350
 31
0.0
  0
LINE
  8
0
 62
     250
 10
21.8019
 20
350
 30
0.0
 11
23.4418
 21
351.189
 31
0.0
  0
LINE
  8
0
 62
     250
 10
23.4418
 20
351.189
 30
0.0
 11
24.0164
 21
352.388
 31
0.0
  0
LINE
  8
0
 62
     250
 10
24.0164
 20
352.388
 30
0.0
 11
24.0164
 21
352.788
 31
0.0
  0
LINE
  8
0
 62
     250
 10
24.0164
 20
352.788
 30
0.0
 11
24.0164
 21
353.236
 31
0.0
  0
LINE
  8
0
 62
     250
 10
24.0164
 20
353.236
 30
0.0
 11
23.3729
 21
354.584
 31
0.0
  0
LINE
  8
0
 62
     250
 10
23.3729
 20
354.584
 30
0.0
 11
21.6214
 21
355.79
 31
0.0
  0
LINE
  8
0
 62
     250
 10
21.6214
 20
355.79
 30
0.0
 11
19.0211
 21
356.464
 31
0.0
  0
LINE
  8
0
 62
     250
 10
19.0211
 20
356.464
 30
0.0
 11
16.6315
 21
356.672
 31
0.0
  0
LINE
  8
0
 62
     250
 10
16.6315
 20
356.672
 30
0.0
 11
15.8364
 21
356.672
 31
0.0
  0
LINE
  8
0
 62
     250
 10
15.988
 20
346.844
 30
0.0
 11
14.8994
 21
346.844
 31
0.0
  0
LINE
  8
0
 62
     250
 10
14.8994
 20
346.844
 30
0.0
 11
11.6362
 21
347.305
 31
0.0
  0
LINE
  8
0
 62
     250
 10
11.6362
 20
347.305
 30
0.0
 11
8.55211
 21
348.584
 31
0.0
  0
LINE
  8
0
 62
     250
 10
8.55211
 20
348.584
 30
0.0
 11
6.7152
 21
350.53
 31
0.0
  0
LINE
  8
0
 62
     250
 10
6.7152
 20
350.53
 30
0.0
 11
6.10747
 21
352.375
 31
0.0
  0
LINE
  8
0
 62
     250
 10
6.10747
 20
352.375
 30
0.0
 11
6.10747
 21
352.989
 31
0.0
  0
LINE
  8
0
 62
     250
 10
6.10747
 20
352.989
 30
0.0
 11
6.10747
 21
353.6
 31
0.0
  0
LINE
  8
0
 62
     250
 10
6.10747
 20
353.6
 30
0.0
 11
6.73587
 21
355.424
 31
0.0
  0
LINE
  8
0
 62
     250
 10
6.73587
 20
355.424
 30
0.0
 11
8.58654
 21
357.251
 31
0.0
  0
LINE
  8
0
 62
     250
 10
8.58654
 20
357.251
 30
0.0
 11
11.6044
 21
358.408
 31
0.0
  0
LINE
  8
0
 62
     250
 10
11.6044
 20
358.408
 30
0.0
 11
14.7009
 21
358.807
 31
0.0
  0
LINE
  8
0
 62
     250
 10
14.7009
 20
358.807
 30
0.0
 11
15.7345
 21
358.807
 31
0.0
  0
LINE
  8
0
 62
     250
 10
15.7345
 20
358.807
 30
0.0
 11
16.8217
 21
358.807
 31
0.0
  0
LINE
  8
0
 62
     250
 10
16.8217
 20
358.807
 30
0.0
 11
20.0835
 21
358.387
 31
0.0
  0
LINE
  8
0
 62
     250
 10
20.0835
 20
358.387
 30
0.0
 11
23.2144
 21
357.18
 31
0.0
  0
LINE
  8
0
 62
     250
 10
23.2144
 20
357.18
 30
0.0
 11
25.1079
 21
355.261
 31
0.0
  0
LINE
  8
0
 62
     250
 10
25.1079
 20
355.261
 30
0.0
 11
25.7431
 21
353.349
 31
0.0
  0
LINE
  8
0
 62
     250
 10
25.7431
 20
353.349
 30
0.0
 11
25.7431
 21
352.712
 31
0.0
  0
LINE
  8
0
 62
     250
 10
25.7431
 20
352.712
 30
0.0
 11
25.7431
 21
352.119
 31
0.0
  0
LINE
  8
0
 62
     250
 10
25.7431
 20
352.119
 30
0.0
 11
25.112
 21
350.339
 31
0.0
  0
LINE
  8
0
 62
     250
 10
25.112
 20
350.339
 30
0.0
 11
23.2461
 21
348.482
 31
0.0
  0
LINE
  8
0
 62
     250
 10
23.2461
 20
348.482
 30
0.0
 11
20.191
 21
347.275
 31
0.0
  0
LINE
  8
0
 62
     250
 10
20.191
 20
347.275
 30
0.0
 11
17.0381
 21
346.844
 31
0.0
  0
LINE
  8
0
 62
     250
 10
17.0381
 20
346.844
 30
0.0
 11
15.988
 21
346.844
 31
0.0
  0
LINE
  8
0
 62
     250
 10
15.8364
 20
370.667
 30
0.0
 11
15.0206
 21
370.667
 31
0.0
  0
LINE
  8
0
 62
     250
 10
15.0206
 20
370.667
 30
0.0
 11
12.5773
 21
370.448
 31
0.0
  0
LINE
  8
0
 62
     250
 10
12.5773
 20
370.448
 30
0.0
 11
10.0404
 21
369.764
 31
0.0
  0
LINE
  8
0
 62
     250
 10
10.0404
 20
369.764
 30
0.0
 11
8.39502
 21
368.579
 31
0.0
  0
LINE
  8
0
 62
     250
 10
8.39502
 20
368.579
 30
0.0
 11
7.80934
 21
367.291
 31
0.0
  0
LINE
  8
0
 62
     250
 10
7.80934
 20
367.291
 30
0.0
 11
7.80934
 21
366.857
 31
0.0
  0
LINE
  8
0
 62
     250
 10
7.80934
 20
366.857
 30
0.0
 11
7.80934
 21
366.469
 31
0.0
  0
LINE
  8
0
 62
     250
 10
7.80934
 20
366.469
 30
0.0
 11
8.35918
 21
365.301
 31
0.0
  0
LINE
  8
0
 62
     250
 10
8.35918
 20
365.301
 30
0.0
 11
9.9453
 21
364.081
 31
0.0
  0
LINE
  8
0
 62
     250
 10
9.9453
 20
364.081
 30
0.0
 11
12.4699
 21
363.284
 31
0.0
  0
LINE
  8
0
 62
     250
 10
12.4699
 20
363.284
 30
0.0
 11
14.9944
 21
362.998
 31
0.0
  0
LINE
  8
0
 62
     250
 10
14.9944
 20
362.998
 30
0.0
 11
15.8364
 21
362.998
 31
0.0
  0
LINE
  8
0
 62
     250
 10
15.8364
 20
362.998
 30
0.0
 11
16.6825
 21
362.998
 31
0.0
  0
LINE
  8
0
 62
     250
 10
16.6825
 20
362.998
 30
0.0
 11
19.225
 21
363.255
 31
0.0
  0
LINE
  8
0
 62
     250
 10
19.225
 20
363.255
 30
0.0
 11
21.8019
 21
363.996
 31
0.0
  0
LINE
  8
0
 62
     250
 10
21.8019
 20
363.996
 30
0.0
 11
23.4418
 21
365.185
 31
0.0
  0
LINE
  8
0
 62
     250
 10
23.4418
 20
365.185
 30
0.0
 11
24.0164
 21
366.384
 31
0.0
  0
LINE
  8
0
 62
     250
 10
24.0164
 20
366.384
 30
0.0
 11
24.0164
 21
366.783
 31
0.0
  0
LINE
  8
0
 62
     250
 10
24.0164
 20
366.783
 30
0.0
 11
24.0164
 21
367.231
 31
0.0
  0
LINE
  8
0
 62
     250
 10
24.0164
 20
367.231
 30
0.0
 11
23.3729
 21
368.579
 31
0.0
  0
LINE
  8
0
 62
     250
 10
23.3729
 20
368.579
 30
0.0
 11
21.6214
 21
369.785
 31
0.0
  0
LINE
  8
0
 62
     250
 10
21.6214
 20
369.785
 30
0.0
 11
19.0211
 21
370.459
 31
0.0
  0
LINE
  8
0
 62
     250
 10
19.0211
 20
370.459
 30
0.0
 11
16.6315
 21
370.667
 31
0.0
  0
LINE
  8
0
 62
     250
 10
16.6315
 20
370.667
 30
0.0
 11
15.8364
 21
370.667
 31
0.0
  0
LINE
  8
0
 62
     250
 10
15.988
 20
360.839
 30
0.0
 11
14.8994
 21
360.839
 31
0.0
  0
LINE
  8
0
 62
     250
 10
14.8994
 20
360.839
 30
0.0
 11
11.6362
 21
361.301
 31
0.0
  0
LINE
  8
0
 62
     250
 10
11.6362
 20
361.301
 30
0.0
 11
8.55211
 21
362.581
 31
0.0
  0
LINE
  8
0
 62
     250
 10
8.55211
 20
362.581
 30
0.0
 11
6.7152
 21
364.525
 31
0.0
  0
LINE
  8
0
 62
     250
 10
6.7152
 20
364.525
 30
0.0
 11
6.10747
 21
366.37
 31
0.0
  0
LINE
  8
0
 62
     250
 10
6.10747
 20
366.37
 30
0.0
 11
6.10747
 21
366.984
 31
0.0
  0
LINE
  8
0
 62
     250
 10
6.10747
 20
366.984
 30
0.0
 11
6.10747
 21
367.594
 31
0.0
  0
LINE
  8
0
 62
     250
 10
6.10747
 20
367.594
 30
0.0
 11
6.73587
 21
369.418
 31
0.0
  0
LINE
  8
0
 62
     250
 10
6.73587
 20
369.418
 30
0.0
 11
8.58654
 21
371.249
 31
0.0
  0
LINE
  8
0
 62
     250
 10
8.58654
 20
371.249
 30
0.0
 11
11.6044
 21
372.403
 31
0.0
  0
LINE
  8
0
 62
     250
 10
11.6044
 20
372.403
 30
0.0
 11
14.7009
 21
372.805
 31
0.0
  0
LINE
  8
0
 62
     250
 10
14.7009
 20
372.805
 30
0.0
 11
15.7345
 21
372.805
 31
0.0
  0
LINE
  8
0
 62
     250
 10
15.7345
 20
372.805
 30
0.0
 11
16.8217
 21
372.805
 31
0.0
  0
LINE
  8
0
 62
     250
 10
16.8217
 20
372.805
 30
0.0
 11
20.0835
 21
372.382
 31
0.0
  0
LINE
  8
0
 62
     250
 10
20.0835
 20
372.382
 30
0.0
 11
23.2144
 21
371.175
 31
0.0
  0
LINE
  8
0
 62
     250
 10
23.2144
 20
371.175
 30
0.0
 11
25.1079
 21
369.256
 31
0.0
  0
LINE
  8
0
 62
     250
 10
25.1079
 20
369.256
 30
0.0
 11
25.7431
 21
367.344
 31
0.0
  0
LINE
  8
0
 62
     250
 10
25.7431
 20
367.344
 30
0.0
 11
25.7431
 21
366.705
 31
0.0
  0
LINE
  8
0
 62
     250
 10
25.7431
 20
366.705
 30
0.0
 11
25.7431
 21
366.113
 31
0.0
  0
LINE
  8
0
 62
     250
 10
25.7431
 20
366.113
 30
0.0
 11
25.112
 21
364.335
 31
0.0
  0
LINE
  8
0
 62
     250
 10
25.112
 20
364.335
 30
0.0
 11
23.2461
 21
362.479
 31
0.0
  0
LINE
  8
0
 62
     250
 10
23.2461
 20
362.479
 30
0.0
 11
20.191
 21
361.269
 31
0.0
  0
LINE
  8
0
 62
     250
 10
20.191
 20
361.269
 30
0.0
 11
17.0381
 21
360.839
 31
0.0
  0
LINE
  8
0
 62
     250
 10
17.0381
 20
360.839
 30
0.0
 11
15.988
 21
360.839
 31
0.0
  0
LINE
  8
0
 62
     250
 10
2118.12
 20
607.533
 30
0.0
 11
1660.85
 21
607.533
 31
0.0
  0
LINE
  8
0
 62
     250
 10
2118.12
 20
25.5943
 30
0.0
 11
1660.85
 21
25.5943
 31
0.0
  0
LINE
  8
0
 62
     250
 10
2078.12
 20
30.5787
 30
0.0
 11
2078.12
 21
602.552
 31
0.0
  0
LINE
  8
0
 62
     250
 10
2083.73
 20
41.0048
 30
0.0
 11
2082.07
 21
41.6084
 31
0.0
  0
LINE
  8
0
 62
     250
 10
2082.07
 20
41.6084
 30
0.0
 11
2078.12
 21
30.7509
 31
0.0
  0
LINE
  8
0
 62
     250
 10
2078.12
 20
30.7509
 30
0.0
 11
2074.16
 21
41.6084
 31
0.0
  0
LINE
  8
0
 62
     250
 10
2074.16
 20
41.6084
 30
0.0
 11
2072.51
 21
41.0048
 31
0.0
  0
LINE
  8
0
 62
     250
 10
2072.51
 20
41.0048
 30
0.0
 11
2078.12
 21
25.5943
 31
0.0
  0
LINE
  8
0
 62
     250
 10
2078.12
 20
25.5943
 30
0.0
 11
2083.73
 21
41.0048
 31
0.0
  0
LINE
  8
0
 62
     250
 10
2083.73
 20
592.123
 30
0.0
 11
2082.07
 21
591.52
 31
0.0
  0
LINE
  8
0
 62
     250
 10
2082.07
 20
591.52
 30
0.0
 11
2078.12
 21
602.379
 31
0.0
  0
LINE
  8
0
 62
     250
 10
2078.12
 20
602.379
 30
0.0
 11
2074.16
 21
591.52
 31
0.0
  0
LINE
  8
0
 62
     250
 10
2074.16
 20
591.52
 30
0.0
 11
2072.51
 21
592.123
 31
0.0
  0
LINE
  8
0
 62
     250
 10
2072.51
 20
592.123
 30
0.0
 11
2078.12
 21
607.533
 31
0.0
  0
LINE
  8
0
 62
     250
 10
2078.12
 20
607.533
 30
0.0
 11
2083.73
 21
592.123
 31
0.0
  0
LINE
  8
0
 62
     250
 10
2046.43
 20
312.711
 30
0.0
 11
2048.19
 21
312.711
 31
0.0
  0
LINE
  8
0
 62
     250
 10
2048.19
 20
312.711
 30
0.0
 11
2048.19
 21
305.879
 31
0.0
  0
LINE
  8
0
 62
     250
 10
2048.19
 20
305.879
 30
0.0
 11
2053.57
 21
305.091
 31
0.0
  0
LINE
  8
0
 62
     250
 10
2053.57
 20
305.091
 30
0.0
 11
2053.56
 21
305.193
 31
0.0
  0
LINE
  8
0
 62
     250
 10
2053.56
 20
305.193
 30
0.0
 11
2053.5
 21
305.733
 31
0.0
  0
LINE
  8
0
 62
     250
 10
2053.5
 20
305.733
 30
0.0
 11
2053.47
 21
306.357
 31
0.0
  0
LINE
  8
0
 62
     250
 10
2053.47
 20
306.357
 30
0.0
 11
2053.47
 21
306.564
 31
0.0
  0
LINE
  8
0
 62
     250
 10
2053.47
 20
306.564
 30
0.0
 11
2053.47
 21
307.172
 31
0.0
  0
LINE
  8
0
 62
     250
 10
2053.47
 20
307.172
 30
0.0
 11
2053.84
 21
308.991
 31
0.0
  0
LINE
  8
0
 62
     250
 10
2053.84
 20
308.991
 30
0.0
 11
2054.95
 21
311.033
 31
0.0
  0
LINE
  8
0
 62
     250
 10
2054.95
 20
311.033
 30
0.0
 11
2056.78
 21
312.441
 31
0.0
  0
LINE
  8
0
 62
     250
 10
2056.78
 20
312.441
 30
0.0
 11
2058.68
 21
312.966
 31
0.0
  0
LINE
  8
0
 62
     250
 10
2058.68
 20
312.966
 30
0.0
 11
2059.31
 21
312.966
 31
0.0
  0
LINE
  8
0
 62
     250
 10
2059.31
 20
312.966
 30
0.0
 11
2059.96
 21
312.966
 31
0.0
  0
LINE
  8
0
 62
     250
 10
2059.96
 20
312.966
 30
0.0
 11
2061.9
 21
312.471
 31
0.0
  0
LINE
  8
0
 62
     250
 10
2061.9
 20
312.471
 30
0.0
 11
2063.95
 21
311.099
 31
0.0
  0
LINE
  8
0
 62
     250
 10
2063.95
 20
311.099
 30
0.0
 11
2065.28
 21
309.022
 31
0.0
  0
LINE
  8
0
 62
     250
 10
2065.28
 20
309.022
 30
0.0
 11
2065.76
 21
307.066
 31
0.0
  0
LINE
  8
0
 62
     250
 10
2065.76
 20
307.066
 30
0.0
 11
2065.76
 21
306.412
 31
0.0
  0
LINE
  8
0
 62
     250
 10
2065.76
 20
306.412
 30
0.0
 11
2065.76
 21
306.072
 31
0.0
  0
LINE
  8
0
 62
     250
 10
2065.76
 20
306.072
 30
0.0
 11
2065.67
 21
305.048
 31
0.0
  0
LINE
  8
0
 62
     250
 10
2065.67
 20
305.048
 30
0.0
 11
2065.42
 21
303.837
 31
0.0
  0
LINE
  8
0
 62
     250
 10
2065.42
 20
303.837
 30
0.0
 11
2065.06
 21
302.823
 31
0.0
  0
LINE
  8
0
 62
     250
 10
2065.06
 20
302.823
 30
0.0
 11
2064.77
 21
302.227
 31
0.0
  0
LINE
  8
0
 62
     250
 10
2064.77
 20
302.227
 30
0.0
 11
2064.65
 21
302.043
 31
0.0
  0
LINE
  8
0
 62
     250
 10
2064.65
 20
302.043
 30
0.0
 11
2063
 21
302.653
 31
0.0
  0
LINE
  8
0
 62
     250
 10
2063
 20
302.653
 30
0.0
 11
2063.1
 21
302.809
 31
0.0
  0
LINE
  8
0
 62
     250
 10
2063.1
 20
302.809
 30
0.0
 11
2063.37
 21
303.309
 31
0.0
  0
LINE
  8
0
 62
     250
 10
2063.37
 20
303.309
 30
0.0
 11
2063.71
 21
304.181
 31
0.0
  0
LINE
  8
0
 62
     250
 10
2063.71
 20
304.181
 30
0.0
 11
2063.97
 21
305.229
 31
0.0
  0
LINE
  8
0
 62
     250
 10
2063.97
 20
305.229
 30
0.0
 11
2064.06
 21
306.117
 31
0.0
  0
LINE
  8
0
 62
     250
 10
2064.06
 20
306.117
 30
0.0
 11
2064.06
 21
306.412
 31
0.0
  0
LINE
  8
0
 62
     250
 10
2064.06
 20
306.412
 30
0.0
 11
2064.06
 21
306.631
 31
0.0
  0
LINE
  8
0
 62
     250
 10
2064.06
 20
306.631
 30
0.0
 11
2063.98
 21
307.289
 31
0.0
  0
LINE
  8
0
 62
     250
 10
2063.98
 20
307.289
 30
0.0
 11
2063.75
 21
308.114
 31
0.0
  0
LINE
  8
0
 62
     250
 10
2063.75
 20
308.114
 30
0.0
 11
2063.36
 21
308.866
 31
0.0
  0
LINE
  8
0
 62
     250
 10
2063.36
 20
308.866
 30
0.0
 11
2062.84
 21
309.528
 31
0.0
  0
LINE
  8
0
 62
     250
 10
2062.84
 20
309.528
 30
0.0
 11
2062.19
 21
310.075
 31
0.0
  0
LINE
  8
0
 62
     250
 10
2062.19
 20
310.075
 30
0.0
 11
2061.43
 21
310.489
 31
0.0
  0
LINE
  8
0
 62
     250
 10
2061.43
 20
310.489
 30
0.0
 11
2060.55
 21
310.747
 31
0.0
  0
LINE
  8
0
 62
     250
 10
2060.55
 20
310.747
 30
0.0
 11
2059.81
 21
310.834
 31
0.0
  0
LINE
  8
0
 62
     250
 10
2059.81
 20
310.834
 30
0.0
 11
2059.57
 21
310.832
 31
0.0
  0
LINE
  8
0
 62
     250
 10
2059.57
 20
310.832
 30
0.0
 11
2059.11
 21
310.832
 31
0.0
  0
LINE
  8
0
 62
     250
 10
2059.11
 20
310.832
 30
0.0
 11
2057.77
 21
310.515
 31
0.0
  0
LINE
  8
0
 62
     250
 10
2057.77
 20
310.515
 30
0.0
 11
2056.36
 21
309.55
 31
0.0
  0
LINE
  8
0
 62
     250
 10
2056.36
 20
309.55
 30
0.0
 11
2055.45
 21
307.919
 31
0.0
  0
LINE
  8
0
 62
     250
 10
2055.45
 20
307.919
 30
0.0
 11
2055.12
 21
306.179
 31
0.0
  0
LINE
  8
0
 62
     250
 10
2055.12
 20
306.179
 30
0.0
 11
2055.12
 21
305.599
 31
0.0
  0
LINE
  8
0
 62
     250
 10
2055.12
 20
305.599
 30
0.0
 11
2055.12
 21
305.259
 31
0.0
  0
LINE
  8
0
 62
     250
 10
2055.12
 20
305.259
 30
0.0
 11
2055.17
 21
304.238
 31
0.0
  0
LINE
  8
0
 62
     250
 10
2055.17
 20
304.238
 30
0.0
 11
2055.27
 21
303.32
 31
0.0
  0
LINE
  8
0
 62
     250
 10
2055.27
 20
303.32
 30
0.0
 11
2055.3
 21
303.16
 31
0.0
  0
LINE
  8
0
 62
     250
 10
2055.3
 20
303.16
 30
0.0
 11
2046.43
 21
304.355
 31
0.0
  0
LINE
  8
0
 62
     250
 10
2046.43
 20
304.355
 30
0.0
 11
2046.43
 21
312.711
 31
0.0
  0
LINE
  8
0
 62
     250
 10
2050.88
 20
318.706
 30
0.0
 11
2051.22
 21
318.702
 31
0.0
  0
LINE
  8
0
 62
     250
 10
2051.22
 20
318.702
 30
0.0
 11
2052.24
 21
318.951
 31
0.0
  0
LINE
  8
0
 62
     250
 10
2052.24
 20
318.951
 30
0.0
 11
2053.29
 21
319.672
 31
0.0
  0
LINE
  8
0
 62
     250
 10
2053.29
 20
319.672
 30
0.0
 11
2054.09
 21
320.792
 31
0.0
  0
LINE
  8
0
 62
     250
 10
2054.09
 20
320.792
 30
0.0
 11
2054.55
 21
321.867
 31
0.0
  0
LINE
  8
0
 62
     250
 10
2054.55
 20
321.867
 30
0.0
 11
2054.67
 21
322.236
 31
0.0
  0
LINE
  8
0
 62
     250
 10
2054.67
 20
322.236
 30
0.0
 11
2054.55
 21
322.537
 31
0.0
  0
LINE
  8
0
 62
     250
 10
2054.55
 20
322.537
 30
0.0
 11
2054.07
 21
323.386
 31
0.0
  0
LINE
  8
0
 62
     250
 10
2054.07
 20
323.386
 30
0.0
 11
2053.24
 21
324.305
 31
0.0
  0
LINE
  8
0
 62
     250
 10
2053.24
 20
324.305
 30
0.0
 11
2052.18
 21
324.914
 31
0.0
  0
LINE
  8
0
 62
     250
 10
2052.18
 20
324.914
 30
0.0
 11
2051.24
 21
325.133
 31
0.0
  0
LINE
  8
0
 62
     250
 10
2051.24
 20
325.133
 30
0.0
 11
2050.93
 21
325.133
 31
0.0
  0
LINE
  8
0
 62
     250
 10
2050.93
 20
325.133
 30
0.0
 11
2050.63
 21
325.133
 31
0.0
  0
LINE
  8
0
 62
     250
 10
2050.63
 20
325.133
 30
0.0
 11
2049.74
 21
324.959
 31
0.0
  0
LINE
  8
0
 62
     250
 10
2049.74
 20
324.959
 30
0.0
 11
2048.7
 21
324.41
 31
0.0
  0
LINE
  8
0
 62
     250
 10
2048.7
 20
324.41
 30
0.0
 11
2047.96
 21
323.439
 31
0.0
  0
LINE
  8
0
 62
     250
 10
2047.96
 20
323.439
 30
0.0
 11
2047.68
 21
322.366
 31
0.0
  0
LINE
  8
0
 62
     250
 10
2047.68
 20
322.366
 30
0.0
 11
2047.68
 21
322.007
 31
0.0
  0
LINE
  8
0
 62
     250
 10
2047.68
 20
322.007
 30
0.0
 11
2047.68
 21
321.647
 31
0.0
  0
LINE
  8
0
 62
     250
 10
2047.68
 20
321.647
 30
0.0
 11
2047.95
 21
320.561
 31
0.0
  0
LINE
  8
0
 62
     250
 10
2047.95
 20
320.561
 30
0.0
 11
2048.66
 21
319.528
 31
0.0
  0
LINE
  8
0
 62
     250
 10
2048.66
 20
319.528
 30
0.0
 11
2049.68
 21
318.911
 31
0.0
  0
LINE
  8
0
 62
     250
 10
2049.68
 20
318.911
 30
0.0
 11
2050.58
 21
318.706
 31
0.0
  0
LINE
  8
0
 62
     250
 10
2050.58
 20
318.706
 30
0.0
 11
2050.88
 21
318.706
 31
0.0
  0
LINE
  8
0
 62
     250
 10
2060.56
 20
325.691
 30
0.0
 11
2060.16
 21
325.691
 31
0.0
  0
LINE
  8
0
 62
     250
 10
2060.16
 20
325.691
 30
0.0
 11
2058.97
 21
325.403
 31
0.0
  0
LINE
  8
0
 62
     250
 10
2058.97
 20
325.403
 30
0.0
 11
2057.76
 21
324.578
 31
0.0
  0
LINE
  8
0
 62
     250
 10
2057.76
 20
324.578
 30
0.0
 11
2056.84
 21
323.281
 31
0.0
  0
LINE
  8
0
 62
     250
 10
2056.84
 20
323.281
 30
0.0
 11
2056.28
 21
322.013
 31
0.0
  0
LINE
  8
0
 62
     250
 10
2056.28
 20
322.013
 30
0.0
 11
2056.14
 21
321.576
 31
0.0
  0
LINE
  8
0
 62
     250
 10
2056.14
 20
321.576
 30
0.0
 11
2056.26
 21
321.19
 31
0.0
  0
LINE
  8
0
 62
     250
 10
2056.26
 20
321.19
 30
0.0
 11
2056.85
 21
320.097
 31
0.0
  0
LINE
  8
0
 62
     250
 10
2056.85
 20
320.097
 30
0.0
 11
2057.83
 21
319.024
 31
0.0
  0
LINE
  8
0
 62
     250
 10
2057.83
 20
319.024
 30
0.0
 11
2059.03
 21
318.368
 31
0.0
  0
LINE
  8
0
 62
     250
 10
2059.03
 20
318.368
 30
0.0
 11
2060.04
 21
318.146
 31
0.0
  0
LINE
  8
0
 62
     250
 10
2060.04
 20
318.146
 30
0.0
 11
2060.38
 21
318.146
 31
0.0
  0
LINE
  8
0
 62
     250
 10
2060.38
 20
318.146
 30
0.0
 11
2060.75
 21
318.146
 31
0.0
  0
LINE
  8
0
 62
     250
 10
2060.75
 20
318.146
 30
0.0
 11
2061.88
 21
318.409
 31
0.0
  0
LINE
  8
0
 62
     250
 10
2061.88
 20
318.409
 30
0.0
 11
2063.09
 21
319.156
 31
0.0
  0
LINE
  8
0
 62
     250
 10
2063.09
 20
319.156
 30
0.0
 11
2063.9
 21
320.333
 31
0.0
  0
LINE
  8
0
 62
     250
 10
2063.9
 20
320.333
 30
0.0
 11
2064.19
 21
321.495
 31
0.0
  0
LINE
  8
0
 62
     250
 10
2064.19
 20
321.495
 30
0.0
 11
2064.19
 21
321.881
 31
0.0
  0
LINE
  8
0
 62
     250
 10
2064.19
 20
321.881
 30
0.0
 11
2064.19
 21
322.287
 31
0.0
  0
LINE
  8
0
 62
     250
 10
2064.19
 20
322.287
 30
0.0
 11
2063.9
 21
323.505
 31
0.0
  0
LINE
  8
0
 62
     250
 10
2063.9
 20
323.505
 30
0.0
 11
2063.12
 21
324.702
 31
0.0
  0
LINE
  8
0
 62
     250
 10
2063.12
 20
324.702
 30
0.0
 11
2061.96
 21
325.439
 31
0.0
  0
LINE
  8
0
 62
     250
 10
2061.96
 20
325.439
 30
0.0
 11
2060.91
 21
325.691
 31
0.0
  0
LINE
  8
0
 62
     250
 10
2060.91
 20
325.691
 30
0.0
 11
2060.56
 21
325.691
 31
0.0
  0
LINE
  8
0
 62
     250
 10
2055.37
 20
319.67
 30
0.0
 11
2055.21
 21
319.316
 31
0.0
  0
LINE
  8
0
 62
     250
 10
2055.21
 20
319.316
 30
0.0
 11
2054.51
 21
318.339
 31
0.0
  0
LINE
  8
0
 62
     250
 10
2054.51
 20
318.339
 30
0.0
 11
2053.47
 21
317.415
 31
0.0
  0
LINE
  8
0
 62
     250
 10
2053.47
 20
317.415
 30
0.0
 11
2052.3
 21
316.875
 31
0.0
  0
LINE
  8
0
 62
     250
 10
2052.3
 20
316.875
 30
0.0
 11
2051.39
 21
316.699
 31
0.0
  0
LINE
  8
0
 62
     250
 10
2051.39
 20
316.699
 30
0.0
 11
2051.08
 21
316.699
 31
0.0
  0
LINE
  8
0
 62
     250
 10
2051.08
 20
316.699
 30
0.0
 11
2050.82
 21
316.699
 31
0.0
  0
LINE
  8
0
 62
     250
 10
2050.82
 20
316.699
 30
0.0
 11
2050.02
 21
316.805
 31
0.0
  0
LINE
  8
0
 62
     250
 10
2050.02
 20
316.805
 30
0.0
 11
2049.06
 21
317.109
 31
0.0
  0
LINE
  8
0
 62
     250
 10
2049.06
 20
317.109
 30
0.0
 11
2048.22
 21
317.594
 31
0.0
  0
LINE
  8
0
 62
     250
 10
2048.22
 20
317.594
 30
0.0
 11
2047.5
 21
318.24
 31
0.0
  0
LINE
  8
0
 62
     250
 10
2047.5
 20
318.24
 30
0.0
 11
2046.92
 21
319.03
 31
0.0
  0
LINE
  8
0
 62
     250
 10
2046.92
 20
319.03
 30
0.0
 11
2046.49
 21
319.946
 31
0.0
  0
LINE
  8
0
 62
     250
 10
2046.49
 20
319.946
 30
0.0
 11
2046.22
 21
320.97
 31
0.0
  0
LINE
  8
0
 62
     250
 10
2046.22
 20
320.97
 30
0.0
 11
2046.13
 21
321.805
 31
0.0
  0
LINE
  8
0
 62
     250
 10
2046.13
 20
321.805
 30
0.0
 11
2046.13
 21
322.083
 31
0.0
  0
LINE
  8
0
 62
     250
 10
2046.13
 20
322.083
 30
0.0
 11
2046.13
 21
322.387
 31
0.0
  0
LINE
  8
0
 62
     250
 10
2046.13
 20
322.387
 30
0.0
 11
2046.23
 21
323.296
 31
0.0
  0
LINE
  8
0
 62
     250
 10
2046.23
 20
323.296
 30
0.0
 11
2046.53
 21
324.341
 31
0.0
  0
LINE
  8
0
 62
     250
 10
2046.53
 20
324.341
 30
0.0
 11
2046.99
 21
325.218
 31
0.0
  0
LINE
  8
0
 62
     250
 10
2046.99
 20
325.218
 30
0.0
 11
2047.58
 21
325.934
 31
0.0
  0
LINE
  8
0
 62
     250
 10
2047.58
 20
325.934
 30
0.0
 11
2048.28
 21
326.486
 31
0.0
  0
LINE
  8
0
 62
     250
 10
2048.28
 20
326.486
 30
0.0
 11
2049.06
 21
326.879
 31
0.0
  0
LINE
  8
0
 62
     250
 10
2049.06
 20
326.879
 30
0.0
 11
2049.9
 21
327.113
 31
0.0
  0
LINE
  8
0
 62
     250
 10
2049.9
 20
327.113
 30
0.0
 11
2050.54
 21
327.19
 31
0.0
  0
LINE
  8
0
 62
     250
 10
2050.54
 20
327.19
 30
0.0
 11
2050.75
 21
327.19
 31
0.0
  0
LINE
  8
0
 62
     250
 10
2050.75
 20
327.19
 30
0.0
 11
2051.06
 21
327.19
 31
0.0
  0
LINE
  8
0
 62
     250
 10
2051.06
 20
327.19
 30
0.0
 11
2051.99
 21
327.021
 31
0.0
  0
LINE
  8
0
 62
     250
 10
2051.99
 20
327.021
 30
0.0
 11
2053.2
 21
326.476
 31
0.0
  0
LINE
  8
0
 62
     250
 10
2053.2
 20
326.476
 30
0.0
 11
2054.31
 21
325.508
 31
0.0
  0
LINE
  8
0
 62
     250
 10
2054.31
 20
325.508
 30
0.0
 11
2055.06
 21
324.449
 31
0.0
  0
LINE
  8
0
 62
     250
 10
2055.06
 20
324.449
 30
0.0
 11
2055.25
 21
324.065
 31
0.0
  0
LINE
  8
0
 62
     250
 10
2055.25
 20
324.065
 30
0.0
 11
2055.35
 21
324.065
 31
0.0
  0
LINE
  8
0
 62
     250
 10
2055.35
 20
324.065
 30
0.0
 11
2055.52
 21
324.478
 31
0.0
  0
LINE
  8
0
 62
     250
 10
2055.52
 20
324.478
 30
0.0
 11
2056.22
 21
325.643
 31
0.0
  0
LINE
  8
0
 62
     250
 10
2056.22
 20
325.643
 30
0.0
 11
2057.35
 21
326.835
 31
0.0
  0
LINE
  8
0
 62
     250
 10
2057.35
 20
326.835
 30
0.0
 11
2058.72
 21
327.589
 31
0.0
  0
LINE
  8
0
 62
     250
 10
2058.72
 20
327.589
 30
0.0
 11
2059.93
 21
327.851
 31
0.0
  0
LINE
  8
0
 62
     250
 10
2059.93
 20
327.851
 30
0.0
 11
2060.33
 21
327.851
 31
0.0
  0
LINE
  8
0
 62
     250
 10
2060.33
 20
327.851
 30
0.0
 11
2060.88
 21
327.851
 31
0.0
  0
LINE
  8
0
 62
     250
 10
2060.88
 20
327.851
 30
0.0
 11
2062.54
 21
327.386
 31
0.0
  0
LINE
  8
0
 62
     250
 10
2062.54
 20
327.386
 30
0.0
 11
2064.25
 21
326.111
 31
0.0
  0
LINE
  8
0
 62
     250
 10
2064.25
 20
326.111
 30
0.0
 11
2065.37
 21
324.208
 31
0.0
  0
LINE
  8
0
 62
     250
 10
2065.37
 20
324.208
 30
0.0
 11
2065.76
 21
322.445
 31
0.0
  0
LINE
  8
0
 62
     250
 10
2065.76
 20
322.445
 30
0.0
 11
2065.76
 21
321.856
 31
0.0
  0
LINE
  8
0
 62
     250
 10
2065.76
 20
321.856
 30
0.0
 11
2065.76
 21
321.244
 31
0.0
  0
LINE
  8
0
 62
     250
 10
2065.76
 20
321.244
 30
0.0
 11
2065.36
 21
319.407
 31
0.0
  0
LINE
  8
0
 62
     250
 10
2065.36
 20
319.407
 30
0.0
 11
2064.27
 21
317.561
 31
0.0
  0
LINE
  8
0
 62
     250
 10
2064.27
 20
317.561
 30
0.0
 11
2062.66
 21
316.395
 31
0.0
  0
LINE
  8
0
 62
     250
 10
2062.66
 20
316.395
 30
0.0
 11
2061.2
 21
315.988
 31
0.0
  0
LINE
  8
0
 62
     250
 10
2061.2
 20
315.988
 30
0.0
 11
2060.71
 21
315.988
 31
0.0
  0
LINE
  8
0
 62
     250
 10
2060.71
 20
315.988
 30
0.0
 11
2060.28
 21
315.988
 31
0.0
  0
LINE
  8
0
 62
     250
 10
2060.28
 20
315.988
 30
0.0
 11
2058.99
 21
316.254
 31
0.0
  0
LINE
  8
0
 62
     250
 10
2058.99
 20
316.254
 30
0.0
 11
2057.54
 21
317.001
 31
0.0
  0
LINE
  8
0
 62
     250
 10
2057.54
 20
317.001
 30
0.0
 11
2056.37
 21
318.164
 31
0.0
  0
LINE
  8
0
 62
     250
 10
2056.37
 20
318.164
 30
0.0
 11
2055.65
 21
319.275
 31
0.0
  0
LINE
  8
0
 62
     250
 10
2055.65
 20
319.275
 30
0.0
 11
2055.48
 21
319.67
 31
0.0
  0
LINE
  8
0
 62
     250
 10
2055.48
 20
319.67
 30
0.0
 11
2055.37
 21
319.67
 31
0.0
  0
LINE
  8
0
 62
     250
 10
2055.86
 20
339.737
 30
0.0
 11
2055.04
 21
339.737
 31
0.0
  0
LINE
  8
0
 62
     250
 10
2055.04
 20
339.737
 30
0.0
 11
2052.6
 21
339.518
 31
0.0
  0
LINE
  8
0
 62
     250
 10
2052.6
 20
339.518
 30
0.0
 11
2050.06
 21
338.834
 31
0.0
  0
LINE
  8
0
 62
     250
 10
2050.06
 20
338.834
 30
0.0
 11
2048.42
 21
337.648
 31
0.0
  0
LINE
  8
0
 62
     250
 10
2048.42
 20
337.648
 30
0.0
 11
2047.83
 21
336.358
 31
0.0
  0
LINE
  8
0
 62
     250
 10
2047.83
 20
336.358
 30
0.0
 11
2047.83
 21
335.927
 31
0.0
  0
LINE
  8
0
 62
     250
 10
2047.83
 20
335.927
 30
0.0
 11
2047.83
 21
335.539
 31
0.0
  0
LINE
  8
0
 62
     250
 10
2047.83
 20
335.539
 30
0.0
 11
2048.38
 21
334.37
 31
0.0
  0
LINE
  8
0
 62
     250
 10
2048.38
 20
334.37
 30
0.0
 11
2049.97
 21
333.149
 31
0.0
  0
LINE
  8
0
 62
     250
 10
2049.97
 20
333.149
 30
0.0
 11
2052.49
 21
332.353
 31
0.0
  0
LINE
  8
0
 62
     250
 10
2052.49
 20
332.353
 30
0.0
 11
2055.02
 21
332.066
 31
0.0
  0
LINE
  8
0
 62
     250
 10
2055.02
 20
332.066
 30
0.0
 11
2055.86
 21
332.066
 31
0.0
  0
LINE
  8
0
 62
     250
 10
2055.86
 20
332.066
 30
0.0
 11
2056.7
 21
332.066
 31
0.0
  0
LINE
  8
0
 62
     250
 10
2056.7
 20
332.066
 30
0.0
 11
2059.25
 21
332.322
 31
0.0
  0
LINE
  8
0
 62
     250
 10
2059.25
 20
332.322
 30
0.0
 11
2061.82
 21
333.064
 31
0.0
  0
LINE
  8
0
 62
     250
 10
2061.82
 20
333.064
 30
0.0
 11
2063.46
 21
334.253
 31
0.0
  0
LINE
  8
0
 62
     250
 10
2063.46
 20
334.253
 30
0.0
 11
2064.04
 21
335.452
 31
0.0
  0
LINE
  8
0
 62
     250
 10
2064.04
 20
335.452
 30
0.0
 11
2064.04
 21
335.85
 31
0.0
  0
LINE
  8
0
 62
     250
 10
2064.04
 20
335.85
 30
0.0
 11
2064.04
 21
336.301
 31
0.0
  0
LINE
  8
0
 62
     250
 10
2064.04
 20
336.301
 30
0.0
 11
2063.39
 21
337.648
 31
0.0
  0
LINE
  8
0
 62
     250
 10
2063.39
 20
337.648
 30
0.0
 11
2061.64
 21
338.853
 31
0.0
  0
LINE
  8
0
 62
     250
 10
2061.64
 20
338.853
 30
0.0
 11
2059.04
 21
339.528
 31
0.0
  0
LINE
  8
0
 62
     250
 10
2059.04
 20
339.528
 30
0.0
 11
2056.65
 21
339.737
 31
0.0
  0
LINE
  8
0
 62
     250
 10
2056.65
 20
339.737
 30
0.0
 11
2055.86
 21
339.737
 31
0.0
  0
LINE
  8
0
 62
     250
 10
2056.01
 20
329.907
 30
0.0
 11
2054.92
 21
329.907
 31
0.0
  0
LINE
  8
0
 62
     250
 10
2054.92
 20
329.907
 30
0.0
 11
2051.66
 21
330.368
 31
0.0
  0
LINE
  8
0
 62
     250
 10
2051.66
 20
330.368
 30
0.0
 11
2048.57
 21
331.647
 31
0.0
  0
LINE
  8
0
 62
     250
 10
2048.57
 20
331.647
 30
0.0
 11
2046.74
 21
333.594
 31
0.0
  0
LINE
  8
0
 62
     250
 10
2046.74
 20
333.594
 30
0.0
 11
2046.13
 21
335.439
 31
0.0
  0
LINE
  8
0
 62
     250
 10
2046.13
 20
335.439
 30
0.0
 11
2046.13
 21
336.054
 31
0.0
  0
LINE
  8
0
 62
     250
 10
2046.13
 20
336.054
 30
0.0
 11
2046.13
 21
336.661
 31
0.0
  0
LINE
  8
0
 62
     250
 10
2046.13
 20
336.661
 30
0.0
 11
2046.76
 21
338.485
 31
0.0
  0
LINE
  8
0
 62
     250
 10
2046.76
 20
338.485
 30
0.0
 11
2048.61
 21
340.315
 31
0.0
  0
LINE
  8
0
 62
     250
 10
2048.61
 20
340.315
 30
0.0
 11
2051.62
 21
341.469
 31
0.0
  0
LINE
  8
0
 62
     250
 10
2051.62
 20
341.469
 30
0.0
 11
2054.72
 21
341.871
 31
0.0
  0
LINE
  8
0
 62
     250
 10
2054.72
 20
341.871
 30
0.0
 11
2055.76
 21
341.871
 31
0.0
  0
LINE
  8
0
 62
     250
 10
2055.76
 20
341.871
 30
0.0
 11
2056.84
 21
341.871
 31
0.0
  0
LINE
  8
0
 62
     250
 10
2056.84
 20
341.871
 30
0.0
 11
2060.11
 21
341.452
 31
0.0
  0
LINE
  8
0
 62
     250
 10
2060.11
 20
341.452
 30
0.0
 11
2063.23
 21
340.243
 31
0.0
  0
LINE
  8
0
 62
     250
 10
2063.23
 20
340.243
 30
0.0
 11
2065.13
 21
338.325
 31
0.0
  0
LINE
  8
0
 62
     250
 10
2065.13
 20
338.325
 30
0.0
 11
2065.76
 21
336.412
 31
0.0
  0
LINE
  8
0
 62
     250
 10
2065.76
 20
336.412
 30
0.0
 11
2065.76
 21
335.774
 31
0.0
  0
LINE
  8
0
 62
     250
 10
2065.76
 20
335.774
 30
0.0
 11
2065.76
 21
335.182
 31
0.0
  0
LINE
  8
0
 62
     250
 10
2065.76
 20
335.182
 30
0.0
 11
2065.13
 21
333.401
 31
0.0
  0
LINE
  8
0
 62
     250
 10
2065.13
 20
333.401
 30
0.0
 11
2063.27
 21
331.545
 31
0.0
  0
LINE
  8
0
 62
     250
 10
2063.27
 20
331.545
 30
0.0
 11
2060.21
 21
330.338
 31
0.0
  0
LINE
  8
0
 62
     250
 10
2060.21
 20
330.338
 30
0.0
 11
2057.06
 21
329.907
 31
0.0
  0
LINE
  8
0
 62
     250
 10
2057.06
 20
329.907
 30
0.0
 11
2056.01
 21
329.907
 31
0.0
  0
LINE
  8
0
 62
     250
 10
1015.98
 20
764.702
 30
0.0
 11
1015.98
 21
781.748
 31
0.0
  0
LINE
  8
0
 62
     250
 10
1015.98
 20
781.748
 30
0.0
 11
1015.93
 21
781.748
 31
0.0
  0
LINE
  8
0
 62
     250
 10
1015.93
 20
781.748
 30
0.0
 11
1012.8
 21
779.946
 31
0.0
  0
LINE
  8
0
 62
     250
 10
1012.8
 20
779.946
 30
0.0
 11
1012.3
 21
781.519
 31
0.0
  0
LINE
  8
0
 62
     250
 10
1012.3
 20
781.519
 30
0.0
 11
1016.23
 21
783.728
 31
0.0
  0
LINE
  8
0
 62
     250
 10
1016.23
 20
783.728
 30
0.0
 11
1018.04
 21
783.728
 31
0.0
  0
LINE
  8
0
 62
     250
 10
1018.04
 20
783.728
 30
0.0
 11
1018.04
 21
764.702
 31
0.0
  0
LINE
  8
0
 62
     250
 10
1018.04
 20
764.702
 30
0.0
 11
1015.98
 21
764.702
 31
0.0
  0
LINE
  8
0
 62
     250
 10
1027.18
 20
779.283
 30
0.0
 11
1027.18
 21
778.947
 31
0.0
  0
LINE
  8
0
 62
     250
 10
1027.18
 20
778.947
 30
0.0
 11
1027.42
 21
777.924
 31
0.0
  0
LINE
  8
0
 62
     250
 10
1027.42
 20
777.924
 30
0.0
 11
1028.15
 21
776.87
 31
0.0
  0
LINE
  8
0
 62
     250
 10
1028.15
 20
776.87
 30
0.0
 11
1029.26
 21
776.072
 31
0.0
  0
LINE
  8
0
 62
     250
 10
1029.26
 20
776.072
 30
0.0
 11
1030.34
 21
775.61
 31
0.0
  0
LINE
  8
0
 62
     250
 10
1030.34
 20
775.61
 30
0.0
 11
1030.71
 21
775.501
 31
0.0
  0
LINE
  8
0
 62
     250
 10
1030.71
 20
775.501
 30
0.0
 11
1031.01
 21
775.614
 31
0.0
  0
LINE
  8
0
 62
     250
 10
1031.01
 20
775.614
 30
0.0
 11
1031.86
 21
776.097
 31
0.0
  0
LINE
  8
0
 62
     250
 10
1031.86
 20
776.097
 30
0.0
 11
1032.78
 21
776.93
 31
0.0
  0
LINE
  8
0
 62
     250
 10
1032.78
 20
776.93
 30
0.0
 11
1033.39
 21
777.981
 31
0.0
  0
LINE
  8
0
 62
     250
 10
1033.39
 20
777.981
 30
0.0
 11
1033.61
 21
778.919
 31
0.0
  0
LINE
  8
0
 62
     250
 10
1033.61
 20
778.919
 30
0.0
 11
1033.61
 21
779.233
 31
0.0
  0
LINE
  8
0
 62
     250
 10
1033.61
 20
779.233
 30
0.0
 11
1033.61
 21
779.53
 31
0.0
  0
LINE
  8
0
 62
     250
 10
1033.61
 20
779.53
 30
0.0
 11
1033.43
 21
780.419
 31
0.0
  0
LINE
  8
0
 62
     250
 10
1033.43
 20
780.419
 30
0.0
 11
1032.88
 21
781.459
 31
0.0
  0
LINE
  8
0
 62
     250
 10
1032.88
 20
781.459
 30
0.0
 11
1031.91
 21
782.204
 31
0.0
  0
LINE
  8
0
 62
     250
 10
1031.91
 20
782.204
 30
0.0
 11
1030.84
 21
782.486
 31
0.0
  0
LINE
  8
0
 62
     250
 10
1030.84
 20
782.486
 30
0.0
 11
1030.48
 21
782.486
 31
0.0
  0
LINE
  8
0
 62
     250
 10
1030.48
 20
782.486
 30
0.0
 11
1030.12
 21
782.486
 31
0.0
  0
LINE
  8
0
 62
     250
 10
1030.12
 20
782.486
 30
0.0
 11
1029.04
 21
782.218
 31
0.0
  0
LINE
  8
0
 62
     250
 10
1029.04
 20
782.218
 30
0.0
 11
1028
 21
781.505
 31
0.0
  0
LINE
  8
0
 62
     250
 10
1028
 20
781.505
 30
0.0
 11
1027.38
 21
780.482
 31
0.0
  0
LINE
  8
0
 62
     250
 10
1027.38
 20
780.482
 30
0.0
 11
1027.18
 21
779.582
 31
0.0
  0
LINE
  8
0
 62
     250
 10
1027.18
 20
779.582
 30
0.0
 11
1027.18
 21
779.283
 31
0.0
  0
LINE
  8
0
 62
     250
 10
1034.16
 20
769.606
 30
0.0
 11
1034.16
 21
770.001
 31
0.0
  0
LINE
  8
0
 62
     250
 10
1034.16
 20
770.001
 30
0.0
 11
1033.88
 21
771.19
 31
0.0
  0
LINE
  8
0
 62
     250
 10
1033.88
 20
771.19
 30
0.0
 11
1033.05
 21
772.407
 31
0.0
  0
LINE
  8
0
 62
     250
 10
1033.05
 20
772.407
 30
0.0
 11
1031.76
 21
773.328
 31
0.0
  0
LINE
  8
0
 62
     250
 10
1031.76
 20
773.328
 30
0.0
 11
1030.49
 21
773.885
 31
0.0
  0
LINE
  8
0
 62
     250
 10
1030.49
 20
773.885
 30
0.0
 11
1030.05
 21
774.026
 31
0.0
  0
LINE
  8
0
 62
     250
 10
1030.05
 20
774.026
 30
0.0
 11
1029.66
 21
773.899
 31
0.0
  0
LINE
  8
0
 62
     250
 10
1029.66
 20
773.899
 30
0.0
 11
1028.57
 21
773.317
 31
0.0
  0
LINE
  8
0
 62
     250
 10
1028.57
 20
773.317
 30
0.0
 11
1027.5
 21
772.333
 31
0.0
  0
LINE
  8
0
 62
     250
 10
1027.5
 20
772.333
 30
0.0
 11
1026.84
 21
771.137
 31
0.0
  0
LINE
  8
0
 62
     250
 10
1026.84
 20
771.137
 30
0.0
 11
1026.62
 21
770.121
 31
0.0
  0
LINE
  8
0
 62
     250
 10
1026.62
 20
770.121
 30
0.0
 11
1026.62
 21
769.782
 31
0.0
  0
LINE
  8
0
 62
     250
 10
1026.62
 20
769.782
 30
0.0
 11
1026.62
 21
769.408
 31
0.0
  0
LINE
  8
0
 62
     250
 10
1026.62
 20
769.408
 30
0.0
 11
1026.88
 21
768.276
 31
0.0
  0
LINE
  8
0
 62
     250
 10
1026.88
 20
768.276
 30
0.0
 11
1027.63
 21
767.069
 31
0.0
  0
LINE
  8
0
 62
     250
 10
1027.63
 20
767.069
 30
0.0
 11
1028.81
 21
766.265
 31
0.0
  0
LINE
  8
0
 62
     250
 10
1028.81
 20
766.265
 30
0.0
 11
1029.97
 21
765.972
 31
0.0
  0
LINE
  8
0
 62
     250
 10
1029.97
 20
765.972
 30
0.0
 11
1030.35
 21
765.972
 31
0.0
  0
LINE
  8
0
 62
     250
 10
1030.35
 20
765.972
 30
0.0
 11
1030.76
 21
765.972
 31
0.0
  0
LINE
  8
0
 62
     250
 10
1030.76
 20
765.972
 30
0.0
 11
1031.98
 21
766.262
 31
0.0
  0
LINE
  8
0
 62
     250
 10
1031.98
 20
766.262
 30
0.0
 11
1033.17
 21
767.045
 31
0.0
  0
LINE
  8
0
 62
     250
 10
1033.17
 20
767.045
 30
0.0
 11
1033.91
 21
768.202
 31
0.0
  0
LINE
  8
0
 62
     250
 10
1033.91
 20
768.202
 30
0.0
 11
1034.16
 21
769.257
 31
0.0
  0
LINE
  8
0
 62
     250
 10
1034.16
 20
769.257
 30
0.0
 11
1034.16
 21
769.606
 31
0.0
  0
LINE
  8
0
 62
     250
 10
1028.15
 20
774.788
 30
0.0
 11
1027.79
 21
774.958
 31
0.0
  0
LINE
  8
0
 62
     250
 10
1027.79
 20
774.958
 30
0.0
 11
1026.81
 21
775.649
 31
0.0
  0
LINE
  8
0
 62
     250
 10
1026.81
 20
775.649
 30
0.0
 11
1025.89
 21
776.697
 31
0.0
  0
LINE
  8
0
 62
     250
 10
1025.89
 20
776.697
 30
0.0
 11
1025.35
 21
777.864
 31
0.0
  0
LINE
  8
0
 62
     250
 10
1025.35
 20
777.864
 30
0.0
 11
1025.17
 21
778.778
 31
0.0
  0
LINE
  8
0
 62
     250
 10
1025.17
 20
778.778
 30
0.0
 11
1025.17
 21
779.081
 31
0.0
  0
LINE
  8
0
 62
     250
 10
1025.17
 20
779.081
 30
0.0
 11
1025.17
 21
779.346
 31
0.0
  0
LINE
  8
0
 62
     250
 10
1025.17
 20
779.346
 30
0.0
 11
1025.28
 21
780.14
 31
0.0
  0
LINE
  8
0
 62
     250
 10
1025.28
 20
780.14
 30
0.0
 11
1025.58
 21
781.099
 31
0.0
  0
LINE
  8
0
 62
     250
 10
1025.58
 20
781.099
 30
0.0
 11
1026.07
 21
781.946
 31
0.0
  0
LINE
  8
0
 62
     250
 10
1026.07
 20
781.946
 30
0.0
 11
1026.71
 21
782.662
 31
0.0
  0
LINE
  8
0
 62
     250
 10
1026.71
 20
782.662
 30
0.0
 11
1027.5
 21
783.244
 31
0.0
  0
LINE
  8
0
 62
     250
 10
1027.5
 20
783.244
 30
0.0
 11
1028.42
 21
783.675
 31
0.0
  0
LINE
  8
0
 62
     250
 10
1028.42
 20
783.675
 30
0.0
 11
1029.44
 21
783.943
 31
0.0
  0
LINE
  8
0
 62
     250
 10
1029.44
 20
783.943
 30
0.0
 11
1030.28
 21
784.034
 31
0.0
  0
LINE
  8
0
 62
     250
 10
1030.28
 20
784.034
 30
0.0
 11
1030.56
 21
784.034
 31
0.0
  0
LINE
  8
0
 62
     250
 10
1030.56
 20
784.034
 30
0.0
 11
1030.86
 21
784.034
 31
0.0
  0
LINE
  8
0
 62
     250
 10
1030.86
 20
784.034
 30
0.0
 11
1031.77
 21
783.929
 31
0.0
  0
LINE
  8
0
 62
     250
 10
1031.77
 20
783.929
 30
0.0
 11
1032.81
 21
783.636
 31
0.0
  0
LINE
  8
0
 62
     250
 10
1032.81
 20
783.636
 30
0.0
 11
1033.69
 21
783.174
 31
0.0
  0
LINE
  8
0
 62
     250
 10
1033.69
 20
783.174
 30
0.0
 11
1034.41
 21
782.581
 31
0.0
  0
LINE
  8
0
 62
     250
 10
1034.41
 20
782.581
 30
0.0
 11
1034.96
 21
781.879
 31
0.0
  0
LINE
  8
0
 62
     250
 10
1034.96
 20
781.879
 30
0.0
 11
1035.35
 21
781.099
 31
0.0
  0
LINE
  8
0
 62
     250
 10
1035.35
 20
781.099
 30
0.0
 11
1035.59
 21
780.267
 31
0.0
  0
LINE
  8
0
 62
     250
 10
1035.59
 20
780.267
 30
0.0
 11
1035.66
 21
779.625
 31
0.0
  0
LINE
  8
0
 62
     250
 10
1035.66
 20
779.625
 30
0.0
 11
1035.66
 21
779.413
 31
0.0
  0
LINE
  8
0
 62
     250
 10
1035.66
 20
779.413
 30
0.0
 11
1035.66
 21
779.103
 31
0.0
  0
LINE
  8
0
 62
     250
 10
1035.66
 20
779.103
 30
0.0
 11
1035.49
 21
778.178
 31
0.0
  0
LINE
  8
0
 62
     250
 10
1035.49
 20
778.178
 30
0.0
 11
1034.95
 21
776.965
 31
0.0
  0
LINE
  8
0
 62
     250
 10
1034.95
 20
776.965
 30
0.0
 11
1033.98
 21
775.85
 31
0.0
  0
LINE
  8
0
 62
     250
 10
1033.98
 20
775.85
 30
0.0
 11
1032.92
 21
775.102
 31
0.0
  0
LINE
  8
0
 62
     250
 10
1032.92
 20
775.102
 30
0.0
 11
1032.54
 21
774.915
 31
0.0
  0
LINE
  8
0
 62
     250
 10
1032.54
 20
774.915
 30
0.0
 11
1032.54
 21
774.813
 31
0.0
  0
LINE
  8
0
 62
     250
 10
1032.54
 20
774.813
 30
0.0
 11
1032.95
 21
774.64
 31
0.0
  0
LINE
  8
0
 62
     250
 10
1032.95
 20
774.64
 30
0.0
 11
1034.12
 21
773.938
 31
0.0
  0
LINE
  8
0
 62
     250
 10
1034.12
 20
773.938
 30
0.0
 11
1035.31
 21
772.809
 31
0.0
  0
LINE
  8
0
 62
     250
 10
1035.31
 20
772.809
 30
0.0
 11
1036.06
 21
771.437
 31
0.0
  0
LINE
  8
0
 62
     250
 10
1036.06
 20
771.437
 30
0.0
 11
1036.32
 21
770.234
 31
0.0
  0
LINE
  8
0
 62
     250
 10
1036.32
 20
770.234
 30
0.0
 11
1036.32
 21
769.835
 31
0.0
  0
LINE
  8
0
 62
     250
 10
1036.32
 20
769.835
 30
0.0
 11
1036.32
 21
769.281
 31
0.0
  0
LINE
  8
0
 62
     250
 10
1036.32
 20
769.281
 30
0.0
 11
1035.86
 21
767.623
 31
0.0
  0
LINE
  8
0
 62
     250
 10
1035.86
 20
767.623
 30
0.0
 11
1034.58
 21
765.905
 31
0.0
  0
LINE
  8
0
 62
     250
 10
1034.58
 20
765.905
 30
0.0
 11
1032.68
 21
764.794
 31
0.0
  0
LINE
  8
0
 62
     250
 10
1032.68
 20
764.794
 30
0.0
 11
1030.92
 21
764.399
 31
0.0
  0
LINE
  8
0
 62
     250
 10
1030.92
 20
764.399
 30
0.0
 11
1030.33
 21
764.399
 31
0.0
  0
LINE
  8
0
 62
     250
 10
1030.33
 20
764.399
 30
0.0
 11
1029.72
 21
764.399
 31
0.0
  0
LINE
  8
0
 62
     250
 10
1029.72
 20
764.399
 30
0.0
 11
1027.88
 21
764.805
 31
0.0
  0
LINE
  8
0
 62
     250
 10
1027.88
 20
764.805
 30
0.0
 11
1026.03
 21
765.898
 31
0.0
  0
LINE
  8
0
 62
     250
 10
1026.03
 20
765.898
 30
0.0
 11
1024.87
 21
767.507
 31
0.0
  0
LINE
  8
0
 62
     250
 10
1024.87
 20
767.507
 30
0.0
 11
1024.46
 21
768.967
 31
0.0
  0
LINE
  8
0
 62
     250
 10
1024.46
 20
768.967
 30
0.0
 11
1024.46
 21
769.454
 31
0.0
  0
LINE
  8
0
 62
     250
 10
1024.46
 20
769.454
 30
0.0
 11
1024.46
 21
769.885
 31
0.0
  0
LINE
  8
0
 62
     250
 10
1024.46
 20
769.885
 30
0.0
 11
1024.73
 21
771.172
 31
0.0
  0
LINE
  8
0
 62
     250
 10
1024.73
 20
771.172
 30
0.0
 11
1025.48
 21
772.622
 31
0.0
  0
LINE
  8
0
 62
     250
 10
1025.48
 20
772.622
 30
0.0
 11
1026.64
 21
773.797
 31
0.0
  0
LINE
  8
0
 62
     250
 10
1026.64
 20
773.797
 30
0.0
 11
1027.75
 21
774.509
 31
0.0
  0
LINE
  8
0
 62
     250
 10
1027.75
 20
774.509
 30
0.0
 11
1028.15
 21
774.686
 31
0.0
  0
LINE
  8
0
 62
     250
 10
1028.15
 20
774.686
 30
0.0
 11
1028.15
 21
774.788
 31
0.0
  0
LINE
  8
0
 62
     250
 10
1040.01
 20
771.663
 30
0.0
 11
1046.18
 21
771.663
 31
0.0
  0
LINE
  8
0
 62
     250
 10
1046.18
 20
771.663
 30
0.0
 11
1046.18
 21
778.422
 31
0.0
  0
LINE
  8
0
 62
     250
 10
1046.18
 20
778.422
 30
0.0
 11
1046.18
 21
779.184
 31
0.0
  0
LINE
  8
0
 62
     250
 10
1046.18
 20
779.184
 30
0.0
 11
1046.27
 21
781.223
 31
0.0
  0
LINE
  8
0
 62
     250
 10
1046.27
 20
781.223
 30
0.0
 11
1046.28
 21
781.47
 31
0.0
  0
LINE
  8
0
 62
     250
 10
1046.28
 20
781.47
 30
0.0
 11
1046.18
 21
781.47
 31
0.0
  0
LINE
  8
0
 62
     250
 10
1046.18
 20
781.47
 30
0.0
 11
1046.04
 21
781.177
 31
0.0
  0
LINE
  8
0
 62
     250
 10
1046.04
 20
781.177
 30
0.0
 11
1045.38
 21
779.932
 31
0.0
  0
LINE
  8
0
 62
     250
 10
1045.38
 20
779.932
 30
0.0
 11
1044.78
 21
778.838
 31
0.0
  0
LINE
  8
0
 62
     250
 10
1044.78
 20
778.838
 30
0.0
 11
1044.66
 21
778.623
 31
0.0
  0
LINE
  8
0
 62
     250
 10
1044.66
 20
778.623
 30
0.0
 11
1040.01
 21
771.716
 31
0.0
  0
LINE
  8
0
 62
     250
 10
1040.01
 20
771.716
 30
0.0
 11
1040.01
 21
771.663
 31
0.0
  0
LINE
  8
0
 62
     250
 10
1048.19
 20
764.702
 30
0.0
 11
1046.18
 21
764.702
 31
0.0
  0
LINE
  8
0
 62
     250
 10
1046.18
 20
764.702
 30
0.0
 11
1046.18
 21
770.04
 31
0.0
  0
LINE
  8
0
 62
     250
 10
1046.18
 20
770.04
 30
0.0
 11
1037.87
 21
770.04
 31
0.0
  0
LINE
  8
0
 62
     250
 10
1037.87
 20
770.04
 30
0.0
 11
1037.87
 21
771.384
 31
0.0
  0
LINE
  8
0
 62
     250
 10
1037.87
 20
771.384
 30
0.0
 11
1046
 21
783.728
 31
0.0
  0
LINE
  8
0
 62
     250
 10
1046
 20
783.728
 30
0.0
 11
1048.19
 21
783.728
 31
0.0
  0
LINE
  8
0
 62
     250
 10
1048.19
 20
783.728
 30
0.0
 11
1048.19
 21
771.663
 31
0.0
  0
LINE
  8
0
 62
     250
 10
1048.19
 20
771.663
 30
0.0
 11
1050.78
 21
771.663
 31
0.0
  0
LINE
  8
0
 62
     250
 10
1050.78
 20
771.663
 30
0.0
 11
1050.78
 21
770.04
 31
0.0
  0
LINE
  8
0
 62
     250
 10
1050.78
 20
770.04
 30
0.0
 11
1048.19
 21
770.04
 31
0.0
  0
LINE
  8
0
 62
     250
 10
1048.19
 20
770.04
 30
0.0
 11
1048.19
 21
764.702
 31
0.0
  0
LINE
  8
0
 62
     250
 10
1062.21
 20
774.305
 30
0.0
 11
1062.21
 21
775.12
 31
0.0
  0
LINE
  8
0
 62
     250
 10
1062.21
 20
775.12
 30
0.0
 11
1061.99
 21
777.565
 31
0.0
  0
LINE
  8
0
 62
     250
 10
1061.99
 20
777.565
 30
0.0
 11
1061.3
 21
780.101
 31
0.0
  0
LINE
  8
0
 62
     250
 10
1061.3
 20
780.101
 30
0.0
 11
1060.11
 21
781.748
 31
0.0
  0
LINE
  8
0
 62
     250
 10
1060.11
 20
781.748
 30
0.0
 11
1058.83
 21
782.334
 31
0.0
  0
LINE
  8
0
 62
     250
 10
1058.83
 20
782.334
 30
0.0
 11
1058.4
 21
782.334
 31
0.0
  0
LINE
  8
0
 62
     250
 10
1058.4
 20
782.334
 30
0.0
 11
1058.01
 21
782.334
 31
0.0
  0
LINE
  8
0
 62
     250
 10
1058.01
 20
782.334
 30
0.0
 11
1056.84
 21
781.784
 31
0.0
  0
LINE
  8
0
 62
     250
 10
1056.84
 20
781.784
 30
0.0
 11
1055.62
 21
780.196
 31
0.0
  0
LINE
  8
0
 62
     250
 10
1055.62
 20
780.196
 30
0.0
 11
1054.82
 21
777.67
 31
0.0
  0
LINE
  8
0
 62
     250
 10
1054.82
 20
777.67
 30
0.0
 11
1054.53
 21
775.148
 31
0.0
  0
LINE
  8
0
 62
     250
 10
1054.53
 20
775.148
 30
0.0
 11
1054.53
 21
774.305
 31
0.0
  0
LINE
  8
0
 62
     250
 10
1054.53
 20
774.305
 30
0.0
 11
1054.53
 21
773.458
 31
0.0
  0
LINE
  8
0
 62
     250
 10
1054.53
 20
773.458
 30
0.0
 11
1054.79
 21
770.915
 31
0.0
  0
LINE
  8
0
 62
     250
 10
1054.79
 20
770.915
 30
0.0
 11
1055.53
 21
768.339
 31
0.0
  0
LINE
  8
0
 62
     250
 10
1055.53
 20
768.339
 30
0.0
 11
1056.72
 21
766.699
 31
0.0
  0
LINE
  8
0
 62
     250
 10
1056.72
 20
766.699
 30
0.0
 11
1057.92
 21
766.127
 31
0.0
  0
LINE
  8
0
 62
     250
 10
1057.92
 20
766.127
 30
0.0
 11
1058.32
 21
766.127
 31
0.0
  0
LINE
  8
0
 62
     250
 10
1058.32
 20
766.127
 30
0.0
 11
1058.77
 21
766.127
 31
0.0
  0
LINE
  8
0
 62
     250
 10
1058.77
 20
766.127
 30
0.0
 11
1060.11
 21
766.77
 31
0.0
  0
LINE
  8
0
 62
     250
 10
1060.11
 20
766.77
 30
0.0
 11
1061.32
 21
768.519
 31
0.0
  0
LINE
  8
0
 62
     250
 10
1061.32
 20
768.519
 30
0.0
 11
1062
 21
771.119
 31
0.0
  0
LINE
  8
0
 62
     250
 10
1062
 20
771.119
 30
0.0
 11
1062.21
 21
773.511
 31
0.0
  0
LINE
  8
0
 62
     250
 10
1062.21
 20
773.511
 30
0.0
 11
1062.21
 21
774.305
 31
0.0
  0
LINE
  8
0
 62
     250
 10
1052.37
 20
774.153
 30
0.0
 11
1052.37
 21
775.243
 31
0.0
  0
LINE
  8
0
 62
     250
 10
1052.37
 20
775.243
 30
0.0
 11
1052.84
 21
778.506
 31
0.0
  0
LINE
  8
0
 62
     250
 10
1052.84
 20
778.506
 30
0.0
 11
1054.12
 21
781.59
 31
0.0
  0
LINE
  8
0
 62
     250
 10
1054.12
 20
781.59
 30
0.0
 11
1056.06
 21
783.428
 31
0.0
  0
LINE
  8
0
 62
     250
 10
1056.06
 20
783.428
 30
0.0
 11
1057.91
 21
784.034
 31
0.0
  0
LINE
  8
0
 62
     250
 10
1057.91
 20
784.034
 30
0.0
 11
1058.52
 21
784.034
 31
0.0
  0
LINE
  8
0
 62
     250
 10
1058.52
 20
784.034
 30
0.0
 11
1059.13
 21
784.034
 31
0.0
  0
LINE
  8
0
 62
     250
 10
1059.13
 20
784.034
 30
0.0
 11
1060.95
 21
783.407
 31
0.0
  0
LINE
  8
0
 62
     250
 10
1060.95
 20
783.407
 30
0.0
 11
1062.79
 21
781.554
 31
0.0
  0
LINE
  8
0
 62
     250
 10
1062.79
 20
781.554
 30
0.0
 11
1063.94
 21
778.538
 31
0.0
  0
LINE
  8
0
 62
     250
 10
1063.94
 20
778.538
 30
0.0
 11
1064.34
 21
775.441
 31
0.0
  0
LINE
  8
0
 62
     250
 10
1064.34
 20
775.441
 30
0.0
 11
1064.34
 21
774.407
 31
0.0
  0
LINE
  8
0
 62
     250
 10
1064.34
 20
774.407
 30
0.0
 11
1064.34
 21
773.321
 31
0.0
  0
LINE
  8
0
 62
     250
 10
1064.34
 20
773.321
 30
0.0
 11
1063.92
 21
770.057
 31
0.0
  0
LINE
  8
0
 62
     250
 10
1063.92
 20
770.057
 30
0.0
 11
1062.71
 21
766.925
 31
0.0
  0
LINE
  8
0
 62
     250
 10
1062.71
 20
766.925
 30
0.0
 11
1060.79
 21
765.034
 31
0.0
  0
LINE
  8
0
 62
     250
 10
1060.79
 20
765.034
 30
0.0
 11
1058.88
 21
764.399
 31
0.0
  0
LINE
  8
0
 62
     250
 10
1058.88
 20
764.399
 30
0.0
 11
1058.25
 21
764.399
 31
0.0
  0
LINE
  8
0
 62
     250
 10
1058.25
 20
764.399
 30
0.0
 11
1057.65
 21
764.399
 31
0.0
  0
LINE
  8
0
 62
     250
 10
1057.65
 20
764.399
 30
0.0
 11
1055.87
 21
765.03
 31
0.0
  0
LINE
  8
0
 62
     250
 10
1055.87
 20
765.03
 30
0.0
 11
1054.02
 21
766.897
 31
0.0
  0
LINE
  8
0
 62
     250
 10
1054.02
 20
766.897
 30
0.0
 11
1052.81
 21
769.952
 31
0.0
  0
LINE
  8
0
 62
     250
 10
1052.81
 20
769.952
 30
0.0
 11
1052.37
 21
773.102
 31
0.0
  0
LINE
  8
0
 62
     250
 10
1052.37
 20
773.102
 30
0.0
 11
1052.37
 21
774.153
 31
0.0
  0
ENDSEC
  0
EOF
